  0
SECTION
  2
HEADER
  9
$ACADVER
  1
AC1012
  9
$DWGCODEPAGE
  3
dos932
  9
$INSBASE
 10
0.0
 20
0.0
 30
0.0
  9
$EXTMIN
 10
99.0
 20
45.0
 30
0.0
  9
$EXTMAX
 10
2574.0
 20
1719.0
 30
0.0
  9
$LIMMIN
 10
0.0
 20
0.0
  9
$LIMMAX
 10
2673.0
 20
1890.0
  9
$ORTHOMODE
 70
     1
  9
$REGENMODE
 70
     1
  9
$FILLMODE
 70
     1
  9
$QTEXTMODE
 70
     0
  9
$MIRRTEXT
 70
     1
  9
$DRAGMODE
 70
     2
  9
$LTSCALE
 40
36.0
  9
$OSMODE
 70
   163
  9
$ATTMODE
 70
     1
  9
$TEXTSIZE
 40
36.0
  9
$TRACEWID
 40
0.05
  9
$TEXTSTYLE
  7
STANDARD
  9
$CLAYER
  8
0
  9
$CELTYPE
  6
BYLAYER
  9
$CECOLOR
 62
   256
  9
$CELTSCALE
 40
1.0
  9
$DELOBJ
 70
     1
  9
$DISPSILH
 70
     0
  9
$DIMSCALE
 40
9.0
  9
$DIMASZ
 40
2.8
  9
$DIMEXO
 40
1.0
  9
$DIMDLI
 40
5.0
  9
$DIMRND
 40
0.1
  9
$DIMDLE
 40
0.0
  9
$DIMEXE
 40
1.0
  9
$DIMTP
 40
0.0
  9
$DIMTM
 40
0.0
  9
$DIMTXT
 40
2.5
  9
$DIMCEN
 40
0.0
  9
$DIMTSZ
 40
0.0
  9
$DIMTOL
 70
     0
  9
$DIMLIM
 70
     0
  9
$DIMTIH
 70
     0
  9
$DIMTOH
 70
     0
  9
$DIMSE1
 70
     0
  9
$DIMSE2
 70
     0
  9
$DIMTAD
 70
     3
  9
$DIMZIN
 70
     8
  9
$DIMBLK
  1

  9
$DIMASO
 70
     1
  9
$DIMSHO
 70
     1
  9
$DIMPOST
  1
 
  9
$DIMAPOST
  1

  9
$DIMALT
 70
     0
  9
$DIMALTD
 70
     2
  9
$DIMALTF
 40
1.0
  9
$DIMLFAC
 40
1.0
  9
$DIMTOFL
 70
     1
  9
$DIMTVP
 40
0.0
  9
$DIMTIX
 70
     0
  9
$DIMSOXD
 70
     0
  9
$DIMSAH
 70
     1
  9
$DIMBLK1
  1
_OPEN
  9
$DIMBLK2
  1
_OPEN
  9
$DIMSTYLE
  2
DIM1
  9
$DIMCLRD
 70
     2
  9
$DIMCLRE
 70
     2
  9
$DIMCLRT
 70
     2
  9
$DIMTFAC
 40
0.7
  9
$DIMGAP
 40
0.85
  9
$DIMJUST
 70
     0
  9
$DIMSD1
 70
     0
  9
$DIMSD2
 70
     0
  9
$DIMTOLJ
 70
     1
  9
$DIMTZIN
 70
     8
  9
$DIMALTZ
 70
     8
  9
$DIMALTTZ
 70
     8
  9
$DIMFIT
 70
     0
  9
$DIMUPT
 70
     0
  9
$DIMUNIT
 70
     2
  9
$DIMDEC
 70
     2
  9
$DIMTDEC
 70
     3
  9
$DIMALTU
 70
     2
  9
$DIMALTTD
 70
     3
  9
$DIMTXSTY
  7
DIM
  9
$DIMAUNIT
 70
     0
  9
$LUNITS
 70
     2
  9
$LUPREC
 70
     4
  9
$SKETCHINC
 40
0.1
  9
$FILLETRAD
 40
0.0
  9
$AUNITS
 70
     0
  9
$AUPREC
 70
     0
  9
$MENU
  1
C:\ACADR13\WIN\SUPPORT\ACAD.mnc
  9
$ELEVATION
 40
0.0
  9
$PELEVATION
 40
0.0
  9
$THICKNESS
 40
0.0
  9
$LIMCHECK
 70
     0
  9
$BLIPMODE
 70
     1
  9
$CHAMFERA
 40
0.0
  9
$CHAMFERB
 40
0.0
  9
$CHAMFERC
 40
0.0
  9
$CHAMFERD
 40
0.0
  9
$SKPOLY
 70
     0
  9
$TDCREATE
 40
2451564.683827847
  9
$TDUPDATE
 40
2451967.652177372
  9
$TDINDWG
 40
0.1257890741
  9
$TDUSRTIMER
 40
0.1257890741
  9
$USRTIMER
 70
     1
  9
$ANGBASE
 50
0.0
  9
$ANGDIR
 70
     0
  9
$PDMODE
 70
     0
  9
$PDSIZE
 40
0.0
  9
$PLINEWID
 40
0.0
  9
$COORDS
 70
     1
  9
$SPLFRAME
 70
     0
  9
$SPLINETYPE
 70
     6
  9
$SPLINESEGS
 70
     8
  9
$ATTDIA
 70
     0
  9
$ATTREQ
 70
     1
  9
$HANDLING
 70
     1
  9
$HANDSEED
  5
3DC7
  9
$SURFTAB1
 70
     6
  9
$SURFTAB2
 70
     6
  9
$SURFTYPE
 70
     6
  9
$SURFU
 70
     6
  9
$SURFV
 70
     6
  9
$UCSNAME
  2

  9
$UCSORG
 10
0.0
 20
0.0
 30
0.0
  9
$UCSXDIR
 10
1.0
 20
0.0
 30
0.0
  9
$UCSYDIR
 10
0.0
 20
1.0
 30
0.0
  9
$PUCSNAME
  2

  9
$PUCSORG
 10
0.0
 20
0.0
 30
0.0
  9
$PUCSXDIR
 10
1.0
 20
0.0
 30
0.0
  9
$PUCSYDIR
 10
0.0
 20
1.0
 30
0.0
  9
$USERI1
 70
     0
  9
$USERI2
 70
     0
  9
$USERI3
 70
     0
  9
$USERI4
 70
     0
  9
$USERI5
 70
     0
  9
$USERR1
 40
0.0
  9
$USERR2
 40
0.0
  9
$USERR3
 40
0.0
  9
$USERR4
 40
0.0
  9
$USERR5
 40
0.0
  9
$WORLDVIEW
 70
     1
  9
$SHADEDGE
 70
     3
  9
$SHADEDIF
 70
    70
  9
$TILEMODE
 70
     1
  9
$MAXACTVP
 70
    16
  9
$PINSBASE
 10
0.0
 20
0.0
 30
0.0
  9
$PLIMCHECK
 70
     0
  9
$PEXTMIN
 10
1.000000E+20
 20
1.000000E+20
 30
1.000000E+20
  9
$PEXTMAX
 10
-1.000000E+20
 20
-1.000000E+20
 30
-1.000000E+20
  9
$PLIMMIN
 10
0.0
 20
0.0
  9
$PLIMMAX
 10
20.0
 20
147.0
  9
$UNITMODE
 70
     0
  9
$VISRETAIN
 70
     0
  9
$PLINEGEN
 70
     0
  9
$PSLTSCALE
 70
     1
  9
$TREEDEPTH
 70
  3020
  9
$PICKSTYLE
 70
     1
  9
$CMLSTYLE
  2
STANDARD
  9
$CMLJUST
 70
     0
  9
$CMLSCALE
 40
1.0
  9
$SAVEIMAGES
 70
     1
  0
ENDSEC
  0
SECTION
  2
CLASSES
  0
CLASS
  1
LWPOLYLINE
  2
AcDbPolyline
  3
"AutoCAD"
 90
    32768
280
     0
281
     1
  0
ENDSEC
  0
SECTION
  2
TABLES
  0
TABLE
  2
VPORT
  5
8
100
AcDbSymbolTable
 70
     2
  0
VPORT
  5
3DC6
100
AcDbSymbolTableRecord
100
AcDbViewportTableRecord
  2
*ACTIVE
 70
     0
 10
0.0
 20
0.0
 11
1.0
 21
1.0
 12
1786.241554
 22
1013.7216
 13
0.0
 23
0.0
 14
1.0
 24
1.0
 15
0.0
 25
0.0
 16
0.0
 26
0.0
 36
1.0
 17
0.0
 27
0.0
 37
0.0
 40
2027.443199
 41
1.762063
 42
50.0
 43
0.0
 44
0.0
 50
0.0
 51
0.0
 71
     0
 72
   100
 73
     1
 74
     1
 75
     0
 76
     0
 77
     0
 78
     0
  0
ENDTAB
  0
TABLE
  2
LTYPE
  5
5
100
AcDbSymbolTable
 70
     5
  0
LTYPE
  5
12
100
AcDbSymbolTableRecord
100
AcDbLinetypeTableRecord
  2
BYBLOCK
 70
     0
  3

 72
    65
 73
     0
 40
0.0
  0
LTYPE
  5
13
100
AcDbSymbolTableRecord
100
AcDbLinetypeTableRecord
  2
BYLAYER
 70
     0
  3

 72
    65
 73
     0
 40
0.0
  0
LTYPE
  5
14
100
AcDbSymbolTableRecord
100
AcDbLinetypeTableRecord
  2
CONTINUOUS
 70
     0
  3
Solid line
 72
    65
 73
     0
 40
0.0
  0
ENDTAB
  0
TABLE
  2
LAYER
  5
2
100
AcDbSymbolTable
 70
     3
  0
LAYER
  5
F
100
AcDbSymbolTableRecord
100
AcDbLayerTableRecord
  2
0
 70
     0
 62
     7
  6
CONTINUOUS
  0
ENDTAB
  0
TABLE
  2
STYLE
  5
3
100
AcDbSymbolTable
 70
     3
  0
STYLE
  5
10
100
AcDbSymbolTableRecord
100
AcDbTextStyleTableRecord
  2
STANDARD
 70
     0
 40
0.0
 41
0.8
 50
0.0
 71
     0
 42
36.0
  3
simplex
  4
extfont
  0
STYLE
  5
237C
100
AcDbSymbolTableRecord
100
AcDbTextStyleTableRecord
  2
PTSH
 70
     0
 40
0.0
 41
0.9
 50
0.0
 71
     0
 42
4.0
  3
SIMPLEX
  4
EXTFONT
  0
STYLE
  5
2592
100
AcDbSymbolTableRecord
100
AcDbTextStyleTableRecord
  2
DIM
 70
     0
 40
0.0
 41
0.8
 50
0.0
 71
     0
 42
4.0
  3
simplex
  4
extfont
  0
ENDTAB
  0
TABLE
  2
VIEW
  5
6
100
AcDbSymbolTable
 70
     0
  0
ENDTAB
  0
TABLE
  2
UCS
  5
7
100
AcDbSymbolTable
 70
     0
  0
ENDTAB
  0
TABLE
  2
APPID
  5
9
100
AcDbSymbolTable
 70
     1
  0
APPID
  5
11
100
AcDbSymbolTableRecord
100
AcDbRegAppTableRecord
  2
ACAD
 70
     0
  0
ENDTAB
  0
TABLE
  2
DIMSTYLE
  5
A
100
AcDbSymbolTable
 70
     1
  0
DIMSTYLE
105
2237
100
AcDbSymbolTableRecord
100
AcDbDimStyleTableRecord
  2
DIM1
 70
     0
  3
 
  4

  5

  6
_OPEN
  7
_OPEN
 40
9.0
 41
2.8
 42
1.0
 43
5.0
 44
1.0
 45
0.1
 46
0.0
 47
0.0
 48
0.0
140
2.5
141
0.0
142
0.0
143
1.0
144
1.0
145
0.0
146
0.7
147
0.85
 71
     0
 72
     0
 73
     0
 74
     0
 75
     0
 76
     0
 77
     3
 78
     8
170
     0
171
     2
172
     1
173
     1
174
     0
175
     0
176
     2
177
     2
178
     2
270
     2
271
     2
272
     3
273
     2
274
     3
340
2592
275
     0
280
     0
281
     0
282
     0
283
     1
284
     8
285
     8
286
     8
287
     0
288
     0
  0
ENDTAB
  0
TABLE
  2
BLOCK_RECORD
  5
1
100
AcDbSymbolTable
 70
     1
  0
BLOCK_RECORD
  5
18
100
AcDbSymbolTableRecord
100
AcDbBlockTableRecord
  2
*MODEL_SPACE
  0
BLOCK_RECORD
  5
15
100
AcDbSymbolTableRecord
100
AcDbBlockTableRecord
  2
*PAPER_SPACE
  0
BLOCK_RECORD
  5
2448
100
AcDbSymbolTableRecord
100
AcDbBlockTableRecord
  2
_OPEN
  0
ENDTAB
  0
ENDSEC
  0
SECTION
  2
BLOCKS
  0
BLOCK
  5
3C
100
AcDbEntity
  8
0
100
AcDbBlockBegin
  2
*MODEL_SPACE
 70
     0
 10
0.0
 20
0.0
 30
0.0
  3
*MODEL_SPACE
  1

  0
ENDBLK
  5
3D
100
AcDbEntity
  8
0
100
AcDbBlockEnd
  0
BLOCK
  5
3A
100
AcDbEntity
 67
     1
  8
0
100
AcDbBlockBegin
  2
*PAPER_SPACE
 70
     0
 10
0.0
 20
0.0
 30
0.0
  3
*PAPER_SPACE
  1

  0
ENDBLK
  5
3B
100
AcDbEntity
 67
     1
  8
0
100
AcDbBlockEnd
  0
BLOCK
  5
2449
100
AcDbEntity
  8
0
 48
4.0
100
AcDbBlockBegin
  2
_OPEN
 70
     0
 10
0.0
 20
0.0
 30
0.0
  3
_OPEN
  1
H1111.DWG
  0
LINE
  5
244A
100
AcDbEntity
  8
0
  6
BYBLOCK
 62
     0
 48
4.0
100
AcDbLine
 10
-1.0
 20
0.166667
 30
0.0
 11
0.0
 21
0.0
 31
0.0
  0
LINE
  5
244B
100
AcDbEntity
  8
0
  6
BYBLOCK
 62
     0
 48
4.0
100
AcDbLine
 10
0.0
 20
0.0
 30
0.0
 11
-1.0
 21
-0.166667
 31
0.0
  0
LINE
  5
244C
100
AcDbEntity
  8
0
  6
BYBLOCK
 62
     0
 48
4.0
100
AcDbLine
 10
0.0
 20
0.0
 30
0.0
 11
-1.0
 21
0.0
 31
0.0
  0
ENDBLK
  5
244D
100
AcDbEntity
  8
0
 48
4.0
100
AcDbBlockEnd
  0
ENDSEC
  0
SECTION
  2
ENTITIES
  0
MTEXT
  5
ADA
100
AcDbEntity
  8
0
100
AcDbMText
 10
3421.253518
 20
448.6168
 30
0.0
 40
1.8
 41
425.038184
 71
     1
 72
     1
  1

  0
MTEXT
  5
ADB
100
AcDbEntity
  8
0
100
AcDbMText
 10
3501.449399
 20
520.657144
 30
0.0
 40
1.8
 41
408.999008
 71
     1
 72
     1
  1

  0
MTEXT
  5
ADC
100
AcDbEntity
  8
0
100
AcDbMText
 10
3453.33187
 20
-431.876218
 30
0.0
 40
1.8
 41
465.136124
 71
     1
 72
     1
  1

  0
TEXT
  5
2529
100
AcDbEntity
  8
0
  6
CONTINUOUS
100
AcDbText
 10
2473.458056
 20
62.143759
 30
0.0
 40
20.0
  1
SS5VH
 41
0.9
  7
PTSH
 72
     1
 11
2513.74377
 21
72.143759
 31
0.0
100
AcDbText
 73
     2
  0
POLYLINE
  5
2563
100
AcDbEntity
  8
0
100
AcDb2dPolyline
 66
     1
 10
0.0
 20
0.0
 30
0.0
 70
     1
  0
VERTEX
  5
3D4C
100
AcDbEntity
  8
0
100
AcDbVertex
100
AcDb2dVertex
 10
99.0
 20
45.0
 30
0.0
  0
VERTEX
  5
3D4D
100
AcDbEntity
  8
0
100
AcDbVertex
100
AcDb2dVertex
 10
2574.0
 20
45.0
 30
0.0
  0
VERTEX
  5
3D4E
100
AcDbEntity
  8
0
100
AcDbVertex
100
AcDb2dVertex
 10
2574.0
 20
1719.0
 30
0.0
  0
VERTEX
  5
3D4F
100
AcDbEntity
  8
0
100
AcDbVertex
100
AcDb2dVertex
 10
99.0
 20
1719.0
 30
0.0
  0
SEQEND
  5
3D50
100
AcDbEntity
  8
0
  0
TEXT
  5
2B75
100
AcDbEntity
  8
0
100
AcDbText
 10
1068.48877
 20
92.736438
 30
0.0
 40
30.0
  1
TLV  SS5VH (JIS40K)
100
AcDbText
  0
LINE
  5
2B76
100
AcDbEntity
  8
0
100
AcDbLine
 10
1503.988994
 20
1229.819166
 30
0.0
 11
1425.781029
 21
1229.819166
 31
0.0
  0
LINE
  5
2B77
100
AcDbEntity
  8
0
100
AcDbLine
 10
1504.048813
 20
1109.219166
 30
0.0
 11
1425.721209
 21
1109.219166
 31
0.0
  0
TEXT
  5
2B78
100
AcDbEntity
  8
0
100
AcDbText
 10
1071.076228
 20
984.624345
 30
0.0
 40
30.0
  1
TLV  SS5VH (PT･SW)
100
AcDbText
  0
ARC
  5
2B7B
100
AcDbEntity
  8
0
100
AcDbCircle
 10
611.412186
 20
246.011268
 30
0.0
 40
15.0
100
AcDbArc
 50
180.0
 51
269.424967
  0
ARC
  5
2B7E
100
AcDbEntity
  8
0
100
AcDbCircle
 10
611.412186
 20
336.612298
 30
0.0
 40
15.0
100
AcDbArc
 50
90.346531
 51
180.0
  0
LINE
  5
2B7F
100
AcDbEntity
  8
0
100
AcDbLine
 10
452.971995
 20
347.218625
 30
0.0
 11
431.610491
 21
325.85712
 31
0.0
  0
ARC
  5
2B80
100
AcDbEntity
  8
0
100
AcDbCircle
 10
520.991394
 20
336.612298
 30
0.0
 40
15.0
100
AcDbArc
 50
0.0
 51
89.653469
  0
ARC
  5
2B81
100
AcDbEntity
  8
0
100
AcDbCircle
 10
312.389745
 20
328.328461
 30
0.0
 40
15.0
100
AcDbArc
 50
119.612999
 51
180.015028
  0
ARC
  5
2B82
100
AcDbEntity
  8
0
100
AcDbCircle
 10
349.450179
 20
263.124748
 30
0.0
 40
90.0
100
AcDbArc
 50
100.519775
 51
119.612999
  0
ARC
  5
2B83
100
AcDbEntity
  8
0
100
AcDbCircle
 10
353.3805
 20
263.124748
 30
0.0
 40
90.0
100
AcDbArc
 50
60.387001
 51
79.480225
  0
ARC
  5
2B84
100
AcDbEntity
  8
0
100
AcDbCircle
 10
390.440934
 20
328.328461
 30
0.0
 40
15.0
100
AcDbArc
 50
359.984972
 51
60.387001
  0
ARC
  5
2B85
100
AcDbEntity
  8
0
100
AcDbCircle
 10
390.431237
 20
254.296277
 30
0.0
 40
15.0
100
AcDbArc
 50
299.61915
 51
0.0
  0
TEXT
  5
2B8A
100
AcDbEntity
  8
0
100
AcDbText
 10
197.934678
 20
284.512371
 30
0.0
 40
25.0
  1
正面
100
AcDbText
  0
LINE
  5
2B8B
100
AcDbEntity
  8
0
100
AcDbLine
 10
297.409164
 20
254.286817
 30
0.0
 11
297.389746
 21
328.324527
 31
0.0
  0
LINE
  5
2B8C
100
AcDbEntity
  8
0
100
AcDbLine
 10
369.813239
 20
231.012023
 30
0.0
 11
333.01744
 21
231.012023
 31
0.0
  0
LINE
  5
2B8D
100
AcDbEntity
  8
0
100
AcDbLine
 10
336.41534
 20
230.044319
 30
0.0
 11
366.41534
 21
230.044319
 31
0.0
  0
ARC
  5
2B94
100
AcDbEntity
  8
0
100
AcDbCircle
 10
349.466876
 20
319.496011
 30
0.0
 40
90.0
100
AcDbArc
 50
240.389392
 51
259.468766
  0
POLYLINE
  5
2B95
100
AcDbEntity
  8
0
100
AcDb2dPolyline
 66
     1
 10
0.0
 20
0.0
 30
0.0
  0
VERTEX
  5
3D51
100
AcDbEntity
  8
0
100
AcDbVertex
100
AcDb2dVertex
 10
335.589182
 20
231.012023
 30
0.0
  0
VERTEX
  5
3D52
100
AcDbEntity
  8
0
100
AcDbVertex
100
AcDb2dVertex
 10
336.41534
 20
230.044319
 30
0.0
  0
SEQEND
  5
3D53
100
AcDbEntity
  8
0
  0
ARC
  5
2B9C
100
AcDbEntity
  8
0
100
AcDbCircle
 10
312.409164
 20
254.290751
 30
0.0
 40
15.0
100
AcDbArc
 50
180.015028
 51
240.389392
  0
ARC
  5
2B9D
100
AcDbEntity
  8
0
100
AcDbCircle
 10
353.363803
 20
319.496011
 30
0.0
 40
90.0
100
AcDbArc
 50
280.531234
 51
299.61915
  0
POLYLINE
  5
2B9E
100
AcDbEntity
  8
0
100
AcDb2dPolyline
 66
     1
 10
0.0
 20
0.0
 30
0.0
  0
VERTEX
  5
3D54
100
AcDbEntity
  8
0
100
AcDbVertex
100
AcDb2dVertex
 10
367.241498
 20
231.012023
 30
0.0
  0
VERTEX
  5
3D55
100
AcDbEntity
  8
0
100
AcDbVertex
100
AcDb2dVertex
 10
366.41534
 20
230.044319
 30
0.0
  0
SEQEND
  5
3D56
100
AcDbEntity
  8
0
  0
TEXT
  5
2BA9
100
AcDbEntity
  8
0
100
AcDbText
 10
466.57265
 20
150.847424
 30
0.0
 40
20.0
  1
15A
 41
0.8
 11
466.57265
 21
150.847424
 31
0.0
100
AcDbText
 73
     1
  0
LINE
  5
2BAB
100
AcDbEntity
  8
0
100
AcDbLine
 10
515.920394
 20
230.044319
 30
0.0
 11
485.920394
 21
230.044319
 31
0.0
  0
LINE
  5
2BB2
100
AcDbEntity
  8
0
100
AcDbLine
 10
521.141934
 20
231.012023
 30
0.0
 11
463.577597
 21
231.012023
 31
0.0
  0
LINE
  5
2BB3
100
AcDbEntity
  8
0
100
AcDbLine
 10
427.966408
 20
265.393147
 30
0.0
 11
427.952791
 21
317.312591
 31
0.0
  0
LINE
  5
2BB4
100
AcDbEntity
  8
0
100
AcDbLine
 10
405.431237
 20
254.296277
 30
0.0
 11
405.431237
 21
328.867748
 31
0.0
  0
LINE
  5
2BB5
100
AcDbEntity
  8
0
100
AcDbLine
 10
452.970995
 20
235.405422
 30
0.0
 11
431.626036
 21
256.750381
 31
0.0
  0
ARC
  5
2BB6
100
AcDbEntity
  8
0
100
AcDbCircle
 10
440.46487
 20
265.589216
 30
0.0
 40
12.5
100
AcDbArc
 50
180.019649
 51
225.0
  0
ARC
  5
2BB7
100
AcDbEntity
  8
0
100
AcDbCircle
 10
463.577597
 20
246.012023
 30
0.0
 40
15.0
100
AcDbArc
 50
225.0
 51
270.0
  0
POLYLINE
  5
2BB8
100
AcDbEntity
  8
0
100
AcDb2dPolyline
 66
     1
 10
0.0
 20
0.0
 30
0.0
  0
VERTEX
  5
3D57
100
AcDbEntity
  8
0
100
AcDbVertex
100
AcDb2dVertex
 10
485.094235
 20
231.012023
 30
0.0
  0
VERTEX
  5
3D58
100
AcDbEntity
  8
0
100
AcDbVertex
100
AcDb2dVertex
 10
485.920394
 20
230.044319
 30
0.0
  0
SEQEND
  5
3D59
100
AcDbEntity
  8
0
  0
ARC
  5
2BBF
100
AcDbEntity
  8
0
100
AcDbCircle
 10
440.449325
 20
317.018286
 30
0.0
 40
12.5
100
AcDbArc
 50
135.0
 51
178.945222
  0
LINE
  5
2BC0
100
AcDbEntity
  8
0
100
AcDbLine
 10
596.412186
 20
246.011268
 30
0.0
 11
596.412186
 21
336.612298
 31
0.0
  0
LINE
  5
2BC1
100
AcDbEntity
  8
0
100
AcDbLine
 10
535.991394
 20
246.011268
 30
0.0
 11
535.991394
 21
336.612298
 31
0.0
  0
ARC
  5
2BC2
100
AcDbEntity
  8
0
100
AcDbCircle
 10
520.991394
 20
246.011268
 30
0.0
 40
15.0
100
AcDbArc
 50
270.575033
 51
0.0
  0
POLYLINE
  5
2BC3
100
AcDbEntity
  8
0
100
AcDb2dPolyline
 66
     1
 10
0.0
 20
0.0
 30
0.0
  0
VERTEX
  5
3D5A
100
AcDbEntity
  8
0
100
AcDbVertex
100
AcDb2dVertex
 10
516.746552
 20
231.012023
 30
0.0
  0
VERTEX
  5
3D5B
100
AcDbEntity
  8
0
100
AcDbVertex
100
AcDb2dVertex
 10
515.920394
 20
230.044319
 30
0.0
  0
SEQEND
  5
3D5C
100
AcDbEntity
  8
0
  0
LINE
  5
2BCC
100
AcDbEntity
  8
0
100
AcDbLine
 10
369.812239
 20
351.612023
 30
0.0
 11
333.01844
 21
351.612023
 31
0.0
  0
LINE
  5
2BCF
100
AcDbEntity
  8
0
100
AcDbLine
 10
336.41534
 20
352.579728
 30
0.0
 11
366.41534
 21
352.579728
 31
0.0
  0
POLYLINE
  5
2BD8
100
AcDbEntity
  8
0
100
AcDb2dPolyline
 66
     1
 10
0.0
 20
0.0
 30
0.0
  0
VERTEX
  5
3D5D
100
AcDbEntity
  8
0
100
AcDbVertex
100
AcDb2dVertex
 10
335.589182
 20
351.612023
 30
0.0
  0
VERTEX
  5
3D5E
100
AcDbEntity
  8
0
100
AcDbVertex
100
AcDb2dVertex
 10
336.41534
 20
352.579728
 30
0.0
  0
SEQEND
  5
3D5F
100
AcDbEntity
  8
0
  0
POLYLINE
  5
2BE0
100
AcDbEntity
  8
0
100
AcDb2dPolyline
 66
     1
 10
0.0
 20
0.0
 30
0.0
  0
VERTEX
  5
3D60
100
AcDbEntity
  8
0
100
AcDbVertex
100
AcDb2dVertex
 10
367.241498
 20
351.612023
 30
0.0
  0
VERTEX
  5
3D61
100
AcDbEntity
  8
0
100
AcDbVertex
100
AcDb2dVertex
 10
366.41534
 20
352.579728
 30
0.0
  0
SEQEND
  5
3D62
100
AcDbEntity
  8
0
  0
TEXT
  5
2BE6
100
AcDbEntity
  8
0
100
AcDbText
 10
197.934678
 20
552.268711
 30
0.0
 40
25.0
  1
平面
100
AcDbText
  0
ARC
  5
2BE7
100
AcDbEntity
  8
0
100
AcDbCircle
 10
481.978132
 20
564.236927
 30
0.0
 40
54.013261
100
AcDbArc
 50
90.840268
 51
269.159732
  0
LINE
  5
2BE9
100
AcDbEntity
  8
0
100
AcDbLine
 10
515.920394
 20
352.579728
 30
0.0
 11
485.920394
 21
352.579728
 31
0.0
  0
LINE
  5
2BF0
100
AcDbEntity
  8
0
100
AcDbLine
 10
521.082115
 20
351.612023
 30
0.0
 11
463.578597
 21
351.612023
 31
0.0
  0
LINE
  5
2BF2
100
AcDbEntity
  8
0
100
AcDbLine
 10
502.987225
 20
404.533485
 30
0.0
 11
502.987225
 21
451.802048
 31
0.0
  0
LINE
  5
2BF3
100
AcDbEntity
  8
0
100
AcDbLine
 10
498.260538
 20
428.166923
 30
0.0
 11
498.260538
 21
414.192735
 31
0.0
  0
ARC
  5
2BF5
100
AcDbEntity
  8
0
100
AcDbCircle
 10
463.578597
 20
336.612023
 30
0.0
 40
15.0
100
AcDbArc
 50
90.0
 51
135.0
  0
POLYLINE
  5
2BF8
100
AcDbEntity
  8
0
100
AcDb2dPolyline
 66
     1
 10
0.0
 20
0.0
 30
0.0
  0
VERTEX
  5
3D63
100
AcDbEntity
  8
0
100
AcDbVertex
100
AcDb2dVertex
 10
485.094235
 20
351.612023
 30
0.0
  0
VERTEX
  5
3D64
100
AcDbEntity
  8
0
100
AcDbVertex
100
AcDb2dVertex
 10
485.920394
 20
352.579728
 30
0.0
  0
SEQEND
  5
3D65
100
AcDbEntity
  8
0
  0
LINE
  5
2BFE
100
AcDbEntity
  8
0
100
AcDbLine
 10
493.53385
 20
414.192735
 30
0.0
 11
502.987225
 21
404.533485
 31
0.0
  0
LINE
  5
2BFF
100
AcDbEntity
  8
0
100
AcDbLine
 10
498.260538
 20
414.192735
 30
0.0
 11
493.53385
 21
414.192735
 31
0.0
  0
LINE
  5
2C00
100
AcDbEntity
  8
0
100
AcDbLine
 10
502.987225
 20
451.802048
 30
0.0
 11
493.53385
 21
461.255423
 31
0.0
  0
LINE
  5
2C01
100
AcDbEntity
  8
0
100
AcDbLine
 10
493.53385
 20
432.895298
 30
0.0
 11
498.260538
 21
428.166923
 31
0.0
  0
LINE
  5
2C02
100
AcDbEntity
  8
0
100
AcDbLine
 10
493.53385
 20
461.255423
 30
0.0
 11
493.53385
 21
432.895298
 31
0.0
  0
POLYLINE
  5
2C06
100
AcDbEntity
  8
0
100
AcDb2dPolyline
 66
     1
 10
0.0
 20
0.0
 30
0.0
  0
VERTEX
  5
3D66
100
AcDbEntity
  8
0
100
AcDbVertex
100
AcDb2dVertex
 10
516.746552
 20
351.612023
 30
0.0
  0
VERTEX
  5
3D67
100
AcDbEntity
  8
0
100
AcDbVertex
100
AcDb2dVertex
 10
515.920394
 20
352.579728
 30
0.0
  0
SEQEND
  5
3D68
100
AcDbEntity
  8
0
  0
ELLIPSE
  5
2C0D
100
AcDbEntity
  8
0
100
AcDbEllipse
 10
442.298515
 20
564.236927
 30
0.0
 11
-0.0000000000000028
 21
-15.08777685472523
 31
0.0
210
0.0
220
0.0
230
-1.0
 40
0.707359
 41
6.000468776829862
 42
9.707494491119147
  0
TEXT
  5
2C13
100
AcDbEntity
  8
0
100
AcDbText
 10
197.934678
 20
771.011043
 30
0.0
 40
25.0
  1
背面
100
AcDbText
  0
ARC
  5
2C14
100
AcDbEntity
  8
0
100
AcDbCircle
 10
480.849394
 20
825.163454
 30
0.0
 40
15.0
100
AcDbArc
 50
90.346531
 51
180.0
  0
LINE
  5
2C15
100
AcDbEntity
  8
0
100
AcDbLine
 10
548.868792
 20
835.769782
 30
0.0
 11
570.230296
 21
814.408277
 31
0.0
  0
LINE
  5
2C1C
100
AcDbEntity
  8
0
100
AcDbLine
 10
480.698853
 20
719.56318
 30
0.0
 11
538.26319
 21
719.56318
 31
0.0
  0
LINE
  5
2C1E
100
AcDbEntity
  8
0
100
AcDbLine
 10
465.849394
 20
734.562425
 30
0.0
 11
465.849394
 21
825.163454
 31
0.0
  0
ARC
  5
2C25
100
AcDbEntity
  8
0
100
AcDbCircle
 10
480.849394
 20
734.562425
 30
0.0
 40
15.0
100
AcDbArc
 50
180.0
 51
269.424967
  0
ARC
  5
2C27
100
AcDbEntity
  8
0
100
AcDbCircle
 10
561.375917
 20
754.140373
 30
0.0
 40
12.5
100
AcDbArc
 50
315.0
 51
359.980351
  0
LINE
  5
2C28
100
AcDbEntity
  8
0
100
AcDbLine
 10
548.869792
 20
723.956578
 30
0.0
 11
570.214752
 21
745.301538
 31
0.0
  0
ARC
  5
2C30
100
AcDbEntity
  8
0
100
AcDbCircle
 10
538.26319
 20
734.56318
 30
0.0
 40
15.0
100
AcDbArc
 50
270.0
 51
315.0
  0
LINE
  5
2C31
100
AcDbEntity
  8
0
100
AcDbLine
 10
573.874379
 20
753.944304
 30
0.0
 11
573.887997
 21
805.863748
 31
0.0
  0
ARC
  5
2C32
100
AcDbEntity
  8
0
100
AcDbCircle
 10
561.391462
 20
805.569442
 30
0.0
 40
12.5
100
AcDbArc
 50
1.054778
 51
45.0
  0
LINE
  5
2C3A
100
AcDbEntity
  8
0
100
AcDbLine
 10
485.920394
 20
841.130885
 30
0.0
 11
515.920394
 21
841.130885
 31
0.0
  0
LINE
  5
2C3B
100
AcDbEntity
  8
0
100
AcDbLine
 10
480.758673
 20
840.16318
 30
0.0
 11
538.26219
 21
840.16318
 31
0.0
  0
POLYLINE
  5
2C3F
100
AcDbEntity
  8
0
100
AcDb2dPolyline
 66
     1
 10
0.0
 20
0.0
 30
0.0
  0
VERTEX
  5
3D69
100
AcDbEntity
  8
0
100
AcDbVertex
100
AcDb2dVertex
 10
485.094235
 20
840.16318
 30
0.0
  0
VERTEX
  5
3D6A
100
AcDbEntity
  8
0
100
AcDbVertex
100
AcDb2dVertex
 10
485.920394
 20
841.130885
 30
0.0
  0
SEQEND
  5
3D6B
100
AcDbEntity
  8
0
  0
POLYLINE
  5
2C48
100
AcDbEntity
  8
0
100
AcDb2dPolyline
 66
     1
 10
0.0
 20
0.0
 30
0.0
  0
VERTEX
  5
3D6C
100
AcDbEntity
  8
0
100
AcDbVertex
100
AcDb2dVertex
 10
516.746552
 20
840.16318
 30
0.0
  0
VERTEX
  5
3D6D
100
AcDbEntity
  8
0
100
AcDbVertex
100
AcDb2dVertex
 10
515.920394
 20
841.130885
 30
0.0
  0
SEQEND
  5
3D6E
100
AcDbEntity
  8
0
  0
ARC
  5
2C4A
100
AcDbEntity
  8
0
100
AcDbCircle
 10
538.26219
 20
825.16318
 30
0.0
 40
15.0
100
AcDbArc
 50
45.0
 51
90.0
  0
ARC
  5
2C52
100
AcDbEntity
  8
0
100
AcDbCircle
 10
689.438709
 20
336.612298
 30
0.0
 40
15.0
100
AcDbArc
 50
0.0
 51
89.653469
  0
LINE
  5
2C55
100
AcDbEntity
  8
0
100
AcDbLine
 10
704.438709
 20
246.011268
 30
0.0
 11
704.438709
 21
336.612298
 31
0.0
  0
LINE
  5
2C56
100
AcDbEntity
  8
0
100
AcDbLine
 10
665.425447
 20
230.044319
 30
0.0
 11
635.425447
 21
230.044319
 31
0.0
  0
LINE
  5
2C5C
100
AcDbEntity
  8
0
100
AcDbLine
 10
689.589249
 20
231.012023
 30
0.0
 11
611.261645
 21
231.012023
 31
0.0
  0
POLYLINE
  5
2C5E
100
AcDbEntity
  8
0
100
AcDb2dPolyline
 66
     1
 10
0.0
 20
0.0
 30
0.0
  0
VERTEX
  5
3D6F
100
AcDbEntity
  8
0
100
AcDbVertex
100
AcDb2dVertex
 10
634.599289
 20
231.012023
 30
0.0
  0
VERTEX
  5
3D70
100
AcDbEntity
  8
0
100
AcDbVertex
100
AcDb2dVertex
 10
635.425447
 20
230.044319
 30
0.0
  0
SEQEND
  5
3D71
100
AcDbEntity
  8
0
  0
ARC
  5
2C64
100
AcDbEntity
  8
0
100
AcDbCircle
 10
689.438709
 20
246.011268
 30
0.0
 40
15.0
100
AcDbArc
 50
270.575033
 51
0.0
  0
POLYLINE
  5
2C65
100
AcDbEntity
  8
0
100
AcDb2dPolyline
 66
     1
 10
0.0
 20
0.0
 30
0.0
  0
VERTEX
  5
3D72
100
AcDbEntity
  8
0
100
AcDbVertex
100
AcDb2dVertex
 10
666.251606
 20
231.012023
 30
0.0
  0
VERTEX
  5
3D73
100
AcDbEntity
  8
0
100
AcDbVertex
100
AcDb2dVertex
 10
665.425447
 20
230.044319
 30
0.0
  0
SEQEND
  5
3D74
100
AcDbEntity
  8
0
  0
ARC
  5
2C7F
100
AcDbEntity
  8
0
100
AcDbCircle
 10
1158.510175
 20
263.124748
 30
0.0
 40
90.0
100
AcDbArc
 50
100.519775
 51
119.612999
  0
ARC
  5
2C80
100
AcDbEntity
  8
0
100
AcDbCircle
 10
1158.526872
 20
319.496011
 30
0.0
 40
90.0
100
AcDbArc
 50
240.389392
 51
259.468766
  0
LINE
  5
2C81
100
AcDbEntity
  8
0
100
AcDbLine
 10
1106.46916
 20
254.286817
 30
0.0
 11
1106.449741
 21
328.324527
 31
0.0
  0
ARC
  5
2C82
100
AcDbEntity
  8
0
100
AcDbCircle
 10
1121.469159
 20
254.290751
 30
0.0
 40
15.0
100
AcDbArc
 50
180.015028
 51
240.389392
  0
ARC
  5
2C83
100
AcDbEntity
  8
0
100
AcDbCircle
 10
1121.44974
 20
328.328461
 30
0.0
 40
15.0
100
AcDbArc
 50
119.612999
 51
180.015028
  0
LINE
  5
2C84
100
AcDbEntity
  8
0
100
AcDbLine
 10
1214.491232
 20
254.296277
 30
0.0
 11
1214.491232
 21
328.867748
 31
0.0
  0
ARC
  5
2C85
100
AcDbEntity
  8
0
100
AcDbCircle
 10
1162.423798
 20
319.496011
 30
0.0
 40
90.0
100
AcDbArc
 50
280.531234
 51
299.61915
  0
LINE
  5
2C86
100
AcDbEntity
  8
0
100
AcDbLine
 10
1178.873234
 20
231.012023
 30
0.0
 11
1142.077436
 21
231.012023
 31
0.0
  0
LINE
  5
2C87
100
AcDbEntity
  8
0
100
AcDbLine
 10
1145.475339
 20
229.546501
 30
0.0
 11
1175.475331
 21
229.56932
 31
0.0
  0
LINE
  5
2C88
100
AcDbEntity
  8
0
100
AcDbLine
 10
1145.475339
 20
229.546501
 30
0.0
 11
1144.13668
 21
230.986569
 31
0.0
  0
LINE
  5
2C89
100
AcDbEntity
  8
0
100
AcDbLine
 10
1175.475331
 20
229.56932
 30
0.0
 11
1176.811798
 21
231.011423
 31
0.0
  0
ARC
  5
2C8A
100
AcDbEntity
  8
0
100
AcDbCircle
 10
1199.491232
 20
254.296277
 30
0.0
 40
15.0
100
AcDbArc
 50
299.61915
 51
0.0
  0
ARC
  5
2C8B
100
AcDbEntity
  8
0
100
AcDbCircle
 10
1162.440495
 20
263.124748
 30
0.0
 40
90.0
100
AcDbArc
 50
60.387001
 51
79.480225
  0
LINE
  5
2C8C
100
AcDbEntity
  8
0
100
AcDbLine
 10
1178.872234
 20
351.612023
 30
0.0
 11
1142.078436
 21
351.612023
 31
0.0
  0
LINE
  5
2C8D
100
AcDbEntity
  8
0
100
AcDbLine
 10
1145.475335
 20
353.053109
 30
0.0
 11
1175.475335
 21
353.053109
 31
0.0
  0
LINE
  5
2C8E
100
AcDbEntity
  8
0
100
AcDbLine
 10
1145.475335
 20
353.053109
 30
0.0
 11
1144.137771
 21
351.612023
 31
0.0
  0
LINE
  5
2C8F
100
AcDbEntity
  8
0
100
AcDbLine
 10
1175.475335
 20
353.053109
 30
0.0
 11
1176.812899
 21
351.612023
 31
0.0
  0
ARC
  5
2C90
100
AcDbEntity
  8
0
100
AcDbCircle
 10
1199.50093
 20
328.328461
 30
0.0
 40
15.0
100
AcDbArc
 50
359.984972
 51
60.387001
  0
TEXT
  5
2C96
100
AcDbEntity
  8
0
100
AcDbText
 10
1308.457258
 20
147.249325
 30
0.0
 40
20.0
  1
20A
 41
0.8
 11
1308.457258
 21
147.249325
 31
0.0
100
AcDbText
 73
     1
  0
LINE
  5
2CA5
100
AcDbEntity
  8
0
100
AcDbLine
 10
1349.09799
 20
229.546501
 30
0.0
 11
1319.097999
 21
229.56932
 31
0.0
  0
LINE
  5
2CA6
100
AcDbEntity
  8
0
100
AcDbLine
 10
1354.259716
 20
351.612023
 30
0.0
 11
1296.756198
 21
351.612023
 31
0.0
  0
LINE
  5
2CA7
100
AcDbEntity
  8
0
100
AcDbLine
 10
1354.319535
 20
231.012023
 30
0.0
 11
1296.755198
 21
231.012023
 31
0.0
  0
LINE
  5
2CA8
100
AcDbEntity
  8
0
100
AcDbLine
 10
1349.097995
 20
353.053109
 30
0.0
 11
1319.097995
 21
353.053109
 31
0.0
  0
LINE
  5
2CA9
100
AcDbEntity
  8
0
100
AcDbLine
 10
1261.144009
 20
265.393147
 30
0.0
 11
1261.130392
 21
317.312591
 31
0.0
  0
ARC
  5
2CAA
100
AcDbEntity
  8
0
100
AcDbCircle
 10
1296.755198
 20
246.012023
 30
0.0
 40
15.0
100
AcDbArc
 50
225.0
 51
270.0
  0
ARC
  5
2CAB
100
AcDbEntity
  8
0
100
AcDbCircle
 10
1273.642471
 20
265.589216
 30
0.0
 40
12.5
100
AcDbArc
 50
180.019649
 51
225.0
  0
LINE
  5
2CAC
100
AcDbEntity
  8
0
100
AcDbLine
 10
1286.148596
 20
235.405422
 30
0.0
 11
1264.803637
 21
256.750381
 31
0.0
  0
LINE
  5
2CAD
100
AcDbEntity
  8
0
100
AcDbLine
 10
1319.097999
 20
229.56932
 30
0.0
 11
1317.761532
 21
231.011423
 31
0.0
  0
ARC
  5
2CAE
100
AcDbEntity
  8
0
100
AcDbCircle
 10
1296.756198
 20
336.612023
 30
0.0
 40
15.0
100
AcDbArc
 50
90.0
 51
135.0
  0
LINE
  5
2CAF
100
AcDbEntity
  8
0
100
AcDbLine
 10
1286.149596
 20
347.218625
 30
0.0
 11
1264.788092
 21
325.85712
 31
0.0
  0
ARC
  5
2CB0
100
AcDbEntity
  8
0
100
AcDbCircle
 10
1273.626926
 20
317.018286
 30
0.0
 40
12.5
100
AcDbArc
 50
135.0
 51
178.945222
  0
LINE
  5
2CB1
100
AcDbEntity
  8
0
100
AcDbLine
 10
1319.097995
 20
353.053109
 30
0.0
 11
1317.760431
 21
351.612023
 31
0.0
  0
LINE
  5
2CB2
100
AcDbEntity
  8
0
100
AcDbLine
 10
1369.168995
 20
246.011268
 30
0.0
 11
1369.168995
 21
336.612298
 31
0.0
  0
ARC
  5
2CB3
100
AcDbEntity
  8
0
100
AcDbCircle
 10
1354.168995
 20
246.011268
 30
0.0
 40
15.0
100
AcDbArc
 50
270.575033
 51
0.0
  0
LINE
  5
2CB4
100
AcDbEntity
  8
0
100
AcDbLine
 10
1349.09799
 20
229.546501
 30
0.0
 11
1350.43665
 21
230.986569
 31
0.0
  0
ARC
  5
2CB5
100
AcDbEntity
  8
0
100
AcDbCircle
 10
1354.168995
 20
336.612298
 30
0.0
 40
15.0
100
AcDbArc
 50
0.0
 51
89.653469
  0
LINE
  5
2CB6
100
AcDbEntity
  8
0
100
AcDbLine
 10
1349.097995
 20
353.053109
 30
0.0
 11
1350.435558
 21
351.612023
 31
0.0
  0
LINE
  5
2CB9
100
AcDbEntity
  8
0
100
AcDbLine
 10
665.425447
 20
352.579728
 30
0.0
 11
635.425447
 21
352.579728
 31
0.0
  0
LINE
  5
2CBE
100
AcDbEntity
  8
0
100
AcDbLine
 10
689.52943
 20
351.612023
 30
0.0
 11
611.321465
 21
351.612023
 31
0.0
  0
POLYLINE
  5
2CC1
100
AcDbEntity
  8
0
100
AcDb2dPolyline
 66
     1
 10
0.0
 20
0.0
 30
0.0
  0
VERTEX
  5
3D75
100
AcDbEntity
  8
0
100
AcDbVertex
100
AcDb2dVertex
 10
634.599289
 20
351.612023
 30
0.0
  0
VERTEX
  5
3D76
100
AcDbEntity
  8
0
100
AcDbVertex
100
AcDb2dVertex
 10
635.425447
 20
352.579728
 30
0.0
  0
SEQEND
  5
3D77
100
AcDbEntity
  8
0
  0
POLYLINE
  5
2CC8
100
AcDbEntity
  8
0
100
AcDb2dPolyline
 66
     1
 10
0.0
 20
0.0
 30
0.0
  0
VERTEX
  5
3D78
100
AcDbEntity
  8
0
100
AcDbVertex
100
AcDb2dVertex
 10
666.251606
 20
351.612023
 30
0.0
  0
VERTEX
  5
3D79
100
AcDbEntity
  8
0
100
AcDbVertex
100
AcDb2dVertex
 10
665.425447
 20
352.579728
 30
0.0
  0
SEQEND
  5
3D7A
100
AcDbEntity
  8
0
  0
ARC
  5
2CE2
100
AcDbEntity
  8
0
100
AcDbCircle
 10
1315.155733
 20
562.085825
 30
0.0
 40
54.013261
100
AcDbArc
 50
99.103538
 51
260.896462
  0
LINE
  5
2CE9
100
AcDbEntity
  8
0
100
AcDbLine
 10
1332.736945
 20
415.557286
 30
0.0
 11
1332.736945
 21
462.825848
 31
0.0
  0
LINE
  5
2CEA
100
AcDbEntity
  8
0
100
AcDbLine
 10
1323.28357
 20
472.279223
 30
0.0
 11
1323.28357
 21
443.919098
 31
0.0
  0
LINE
  5
2CF1
100
AcDbEntity
  8
0
100
AcDbLine
 10
1323.28357
 20
425.216536
 30
0.0
 11
1332.736945
 21
415.557286
 31
0.0
  0
LINE
  5
2CF2
100
AcDbEntity
  8
0
100
AcDbLine
 10
1328.010257
 20
439.190723
 30
0.0
 11
1328.010257
 21
425.216536
 31
0.0
  0
LINE
  5
2CF3
100
AcDbEntity
  8
0
100
AcDbLine
 10
1328.010257
 20
425.216536
 30
0.0
 11
1323.28357
 21
425.216536
 31
0.0
  0
LINE
  5
2CF4
100
AcDbEntity
  8
0
100
AcDbLine
 10
1323.28357
 20
443.919098
 30
0.0
 11
1328.010257
 21
439.190723
 31
0.0
  0
LINE
  5
2CF5
100
AcDbEntity
  8
0
100
AcDbLine
 10
1332.736945
 20
462.825848
 30
0.0
 11
1323.28357
 21
472.279223
 31
0.0
  0
ELLIPSE
  5
2D01
100
AcDbEntity
  8
0
100
AcDbEllipse
 10
1275.476116
 20
562.085825
 30
0.0
 11
-0.0000000000000028
 21
-15.08777685472523
 31
0.0
210
0.0
220
0.0
230
-1.0
 40
0.707359
 41
6.232120034172929
 42
9.475843233776078
  0
ARC
  5
2D0B
100
AcDbEntity
  8
0
100
AcDbCircle
 10
1371.439791
 20
826.811233
 30
0.0
 40
15.0
100
AcDbArc
 50
45.0
 51
90.0
  0
ARC
  5
2D0C
100
AcDbEntity
  8
0
100
AcDbCircle
 10
1314.026995
 20
826.811507
 30
0.0
 40
15.0
100
AcDbArc
 50
90.346531
 51
180.0
  0
LINE
  5
2D0D
100
AcDbEntity
  8
0
100
AcDbLine
 10
1313.876454
 20
721.211233
 30
0.0
 11
1371.440791
 21
721.211233
 31
0.0
  0
LINE
  5
2D0E
100
AcDbEntity
  8
0
100
AcDbLine
 10
1319.097999
 20
719.746311
 30
0.0
 11
1349.09799
 21
719.76913
 31
0.0
  0
LINE
  5
2D11
100
AcDbEntity
  8
0
100
AcDbLine
 10
1299.026995
 20
736.210478
 30
0.0
 11
1299.026995
 21
826.811507
 31
0.0
  0
ARC
  5
2D12
100
AcDbEntity
  8
0
100
AcDbCircle
 10
1314.026995
 20
736.210478
 30
0.0
 40
15.0
100
AcDbArc
 50
180.0
 51
269.424967
  0
LINE
  5
2D15
100
AcDbEntity
  8
0
100
AcDbLine
 10
1319.097999
 20
719.746311
 30
0.0
 11
1317.759339
 21
721.186379
 31
0.0
  0
LINE
  5
2D16
100
AcDbEntity
  8
0
100
AcDbLine
 10
1407.05198
 20
755.592357
 30
0.0
 11
1407.065598
 21
807.511801
 31
0.0
  0
LINE
  5
2D17
100
AcDbEntity
  8
0
100
AcDbLine
 10
1382.047393
 20
725.604631
 30
0.0
 11
1403.392353
 21
746.949591
 31
0.0
  0
LINE
  5
2D1A
100
AcDbEntity
  8
0
100
AcDbLine
 10
1349.09799
 20
719.76913
 30
0.0
 11
1350.434458
 21
721.211233
 31
0.0
  0
ARC
  5
2D1B
100
AcDbEntity
  8
0
100
AcDbCircle
 10
1371.440791
 20
736.211233
 30
0.0
 40
15.0
100
AcDbArc
 50
270.0
 51
315.0
  0
ARC
  5
2D1C
100
AcDbEntity
  8
0
100
AcDbCircle
 10
1394.553518
 20
755.788426
 30
0.0
 40
12.5
100
AcDbArc
 50
315.0
 51
359.980351
  0
LINE
  5
2D1D
100
AcDbEntity
  8
0
100
AcDbLine
 10
1382.046393
 20
837.417835
 30
0.0
 11
1403.407897
 21
816.05633
 31
0.0
  0
ARC
  5
2D1E
100
AcDbEntity
  8
0
100
AcDbCircle
 10
1394.569063
 20
807.217495
 30
0.0
 40
12.5
100
AcDbArc
 50
1.054778
 51
45.0
  0
LINE
  5
2D24
100
AcDbEntity
  8
0
100
AcDbLine
 10
1319.097995
 20
843.252319
 30
0.0
 11
1349.097995
 21
843.252319
 31
0.0
  0
LINE
  5
2D25
100
AcDbEntity
  8
0
100
AcDbLine
 10
1313.936274
 20
841.811233
 30
0.0
 11
1371.439791
 21
841.811233
 31
0.0
  0
LINE
  5
2D2C
100
AcDbEntity
  8
0
100
AcDbLine
 10
1319.097995
 20
843.252319
 30
0.0
 11
1317.760431
 21
841.811233
 31
0.0
  0
LINE
  5
2D32
100
AcDbEntity
  8
0
100
AcDbLine
 10
1349.097995
 20
843.252319
 30
0.0
 11
1350.435558
 21
841.811233
 31
0.0
  0
ARC
  5
2D36
100
AcDbEntity
  8
0
100
AcDbCircle
 10
619.459152
 20
1214.81944
 30
0.0
 40
15.0
100
AcDbArc
 50
90.346531
 51
180.0
  0
ARC
  5
2D37
100
AcDbEntity
  8
0
100
AcDbCircle
 10
619.459152
 20
1124.218411
 30
0.0
 40
15.0
100
AcDbArc
 50
180.0
 51
269.424967
  0
LINE
  5
2D38
100
AcDbEntity
  8
0
100
AcDbLine
 10
597.337353
 20
1563.35313
 30
0.0
 11
597.350971
 21
1615.272574
 31
0.0
  0
LINE
  5
2D39
100
AcDbEntity
  8
0
100
AcDbLine
 10
489.312368
 20
1543.971251
 30
0.0
 11
489.312368
 21
1634.572281
 31
0.0
  0
LINE
  5
2D3A
100
AcDbEntity
  8
0
100
AcDbLine
 10
525.881812
 20
1263.158528
 30
0.0
 11
525.881812
 21
1310.427091
 31
0.0
  0
LINE
  5
2D3B
100
AcDbEntity
  8
0
100
AcDbLine
 10
521.155124
 20
1286.791966
 30
0.0
 11
521.155124
 21
1272.817778
 31
0.0
  0
ARC
  5
2D3C
100
AcDbEntity
  8
0
100
AcDbCircle
 10
388.317394
 20
1206.535603
 30
0.0
 40
15.0
100
AcDbArc
 50
359.984972
 51
60.387001
  0
ARC
  5
2D3D
100
AcDbEntity
  8
0
100
AcDbCircle
 10
388.307697
 20
1132.503419
 30
0.0
 40
15.0
100
AcDbArc
 50
299.61915
 51
0.0
  0
ARC
  5
2D3E
100
AcDbEntity
  8
0
100
AcDbCircle
 10
310.285624
 20
1132.497893
 30
0.0
 40
15.0
100
AcDbArc
 50
180.015028
 51
240.389392
  0
LINE
  5
2D3F
100
AcDbEntity
  8
0
100
AcDbLine
 10
334.2918
 20
1089.518785
 30
0.0
 11
349.2918
 21
1089.518785
 31
0.0
  0
ARC
  5
2D40
100
AcDbEntity
  8
0
100
AcDbCircle
 10
349.2918
 20
1107.605395
 30
0.0
 40
17.286595
100
AcDbArc
 50
237.698151
 51
302.301849
  0
ARC
  5
2D41
100
AcDbEntity
  8
0
100
AcDbCircle
 10
349.2918
 20
1085.932175
 30
0.0
 40
17.286595
100
AcDbArc
 50
57.698151
 51
122.301849
  0
LINE
  5
2D42
100
AcDbEntity
  8
0
100
AcDbLine
 10
334.197201
 20
1104.018785
 30
0.0
 11
364.197201
 21
1104.018785
 31
0.0
  0
LINE
  5
2D43
100
AcDbEntity
  8
0
100
AcDbLine
 10
334.197201
 20
1108.632288
 30
0.0
 11
364.197201
 21
1108.632288
 31
0.0
  0
LINE
  5
2D44
100
AcDbEntity
  8
0
100
AcDbLine
 10
367.689699
 20
1109.219166
 30
0.0
 11
330.8939
 21
1109.219166
 31
0.0
  0
ARC
  5
2D45
100
AcDbEntity
  8
0
100
AcDbCircle
 10
347.343336
 20
1197.703154
 30
0.0
 40
90.0
100
AcDbArc
 50
240.389392
 51
259.468766
  0
LINE
  5
2D46
100
AcDbEntity
  8
0
100
AcDbLine
 10
340.054196
 20
1100.543576
 30
0.0
 11
340.054196
 21
1092.993993
 31
0.0
  0
LINE
  5
2D47
100
AcDbEntity
  8
0
100
AcDbLine
 10
330.816591
 20
1100.543576
 30
0.0
 11
330.816591
 21
1092.993993
 31
0.0
  0
ARC
  5
2D48
100
AcDbEntity
  8
0
100
AcDbCircle
 10
335.435393
 20
1095.643646
 30
0.0
 40
5.324847
100
AcDbArc
 50
240.158547
 51
330.158547
  0
LINE
  5
2D49
100
AcDbEntity
  8
0
100
AcDbLine
 10
334.2918
 20
1089.518785
 30
0.0
 11
330.816591
 21
1092.993993
 31
0.0
  0
LINE
  5
2D4A
100
AcDbEntity
  8
0
100
AcDbLine
 10
334.2918
 20
1104.018785
 30
0.0
 11
330.816591
 21
1100.543576
 31
0.0
  0
ARC
  5
2D4B
100
AcDbEntity
  8
0
100
AcDbCircle
 10
335.435393
 20
1097.893924
 30
0.0
 40
5.324847
100
AcDbArc
 50
29.841453
 51
119.841453
  0
LINE
  5
2D4C
100
AcDbEntity
  8
0
100
AcDbLine
 10
334.197201
 20
1104.018785
 30
0.0
 11
334.197201
 21
1108.632288
 31
0.0
  0
POLYLINE
  5
2D4D
100
AcDbEntity
  8
0
100
AcDb2dPolyline
 66
     1
 10
0.0
 20
0.0
 30
0.0
  0
VERTEX
  5
3D7B
100
AcDbEntity
  8
0
100
AcDbVertex
100
AcDb2dVertex
 10
333.736697
 20
1109.218685
 30
0.0
  0
VERTEX
  5
3D7C
100
AcDbEntity
  8
0
100
AcDbVertex
100
AcDb2dVertex
 10
334.197201
 20
1108.632288
 30
0.0
  0
SEQEND
  5
3D7D
100
AcDbEntity
  8
0
  0
ARC
  5
2D4E
100
AcDbEntity
  8
0
100
AcDbCircle
 10
351.240263
 20
1197.703154
 30
0.0
 40
90.0
100
AcDbArc
 50
280.531234
 51
299.61915
  0
LINE
  5
2D4F
100
AcDbEntity
  8
0
100
AcDbLine
 10
358.529404
 20
1100.543576
 30
0.0
 11
358.529404
 21
1092.993993
 31
0.0
  0
LINE
  5
2D50
100
AcDbEntity
  8
0
100
AcDbLine
 10
367.767008
 20
1100.543576
 30
0.0
 11
367.767008
 21
1092.993993
 31
0.0
  0
ARC
  5
2D51
100
AcDbEntity
  8
0
100
AcDbCircle
 10
363.148206
 20
1095.643646
 30
0.0
 40
5.324847
100
AcDbArc
 50
209.841453
 51
299.841453
  0
LINE
  5
2D52
100
AcDbEntity
  8
0
100
AcDbLine
 10
364.2918
 20
1089.518785
 30
0.0
 11
367.767008
 21
1092.993993
 31
0.0
  0
LINE
  5
2D53
100
AcDbEntity
  8
0
100
AcDbLine
 10
349.2918
 20
1089.518785
 30
0.0
 11
364.2918
 21
1089.518785
 31
0.0
  0
LINE
  5
2D54
100
AcDbEntity
  8
0
100
AcDbLine
 10
364.2918
 20
1104.018785
 30
0.0
 11
367.767008
 21
1100.543576
 31
0.0
  0
ARC
  5
2D55
100
AcDbEntity
  8
0
100
AcDbCircle
 10
363.148206
 20
1097.893924
 30
0.0
 40
5.324847
100
AcDbArc
 50
60.158547
 51
150.158547
  0
POLYLINE
  5
2D56
100
AcDbEntity
  8
0
100
AcDb2dPolyline
 66
     1
 10
0.0
 20
0.0
 30
0.0
  0
VERTEX
  5
3D7E
100
AcDbEntity
  8
0
100
AcDbVertex
100
AcDb2dVertex
 10
364.657705
 20
1109.218685
 30
0.0
  0
VERTEX
  5
3D7F
100
AcDbEntity
  8
0
100
AcDbVertex
100
AcDb2dVertex
 10
364.197201
 20
1108.632288
 30
0.0
  0
SEQEND
  5
3D80
100
AcDbEntity
  8
0
  0
LINE
  5
2D57
100
AcDbEntity
  8
0
100
AcDbLine
 10
364.197201
 20
1104.018785
 30
0.0
 11
364.197201
 21
1108.632288
 31
0.0
  0
ARC
  5
2D58
100
AcDbEntity
  8
0
100
AcDbCircle
 10
310.266205
 20
1206.535603
 30
0.0
 40
15.0
100
AcDbArc
 50
119.612999
 51
180.015028
  0
TEXT
  5
2D59
100
AcDbEntity
  8
0
100
AcDbText
 10
197.939661
 20
1148.288851
 30
0.0
 40
25.0
  1
正面
100
AcDbText
  0
LINE
  5
2D5A
100
AcDbEntity
  8
0
100
AcDbLine
 10
295.285624
 20
1132.493959
 30
0.0
 11
295.266206
 21
1206.531669
 31
0.0
  0
LINE
  5
2D5B
100
AcDbEntity
  8
0
100
AcDbLine
 10
334.2918
 20
1249.519066
 30
0.0
 11
349.2918
 21
1249.519066
 31
0.0
  0
ARC
  5
2D5C
100
AcDbEntity
  8
0
100
AcDbCircle
 10
349.2918
 20
1231.432456
 30
0.0
 40
17.286595
100
AcDbArc
 50
57.698151
 51
122.301849
  0
ARC
  5
2D5D
100
AcDbEntity
  8
0
100
AcDbCircle
 10
349.2918
 20
1253.105676
 30
0.0
 40
17.286595
100
AcDbArc
 50
237.698151
 51
302.301849
  0
LINE
  5
2D5E
100
AcDbEntity
  8
0
100
AcDbLine
 10
334.197201
 20
1230.405563
 30
0.0
 11
364.197201
 21
1230.405563
 31
0.0
  0
LINE
  5
2D5F
100
AcDbEntity
  8
0
100
AcDbLine
 10
334.197201
 20
1235.019066
 30
0.0
 11
364.197201
 21
1235.019066
 31
0.0
  0
LINE
  5
2D60
100
AcDbEntity
  8
0
100
AcDbLine
 10
367.688699
 20
1229.819166
 30
0.0
 11
330.8949
 21
1229.819166
 31
0.0
  0
LINE
  5
2D61
100
AcDbEntity
  8
0
100
AcDbLine
 10
334.197201
 20
1235.019066
 30
0.0
 11
334.197201
 21
1230.405563
 31
0.0
  0
ARC
  5
2D62
100
AcDbEntity
  8
0
100
AcDbCircle
 10
347.32664
 20
1141.33189
 30
0.0
 40
90.0
100
AcDbArc
 50
100.519775
 51
119.612999
  0
POLYLINE
  5
2D63
100
AcDbEntity
  8
0
100
AcDb2dPolyline
 66
     1
 10
0.0
 20
0.0
 30
0.0
  0
VERTEX
  5
3D81
100
AcDbEntity
  8
0
100
AcDbVertex
100
AcDb2dVertex
 10
333.736697
 20
1229.819166
 30
0.0
  0
VERTEX
  5
3D82
100
AcDbEntity
  8
0
100
AcDbVertex
100
AcDb2dVertex
 10
334.197201
 20
1230.405563
 30
0.0
  0
SEQEND
  5
3D83
100
AcDbEntity
  8
0
  0
LINE
  5
2D64
100
AcDbEntity
  8
0
100
AcDbLine
 10
334.2918
 20
1235.019066
 30
0.0
 11
330.816591
 21
1238.494275
 31
0.0
  0
ARC
  5
2D65
100
AcDbEntity
  8
0
100
AcDbCircle
 10
335.435393
 20
1241.143927
 30
0.0
 40
5.324847
100
AcDbArc
 50
240.158547
 51
330.158547
  0
LINE
  5
2D66
100
AcDbEntity
  8
0
100
AcDbLine
 10
330.816591
 20
1238.494275
 30
0.0
 11
330.816591
 21
1246.043857
 31
0.0
  0
LINE
  5
2D67
100
AcDbEntity
  8
0
100
AcDbLine
 10
340.054196
 20
1238.494275
 30
0.0
 11
340.054196
 21
1246.043857
 31
0.0
  0
LINE
  5
2D68
100
AcDbEntity
  8
0
100
AcDbLine
 10
334.2918
 20
1249.519066
 30
0.0
 11
330.816591
 21
1246.043857
 31
0.0
  0
ARC
  5
2D69
100
AcDbEntity
  8
0
100
AcDbCircle
 10
335.435393
 20
1243.394205
 30
0.0
 40
5.324847
100
AcDbArc
 50
29.841453
 51
119.841453
  0
LINE
  5
2D6A
100
AcDbEntity
  8
0
100
AcDbLine
 10
364.197201
 20
1235.019066
 30
0.0
 11
364.197201
 21
1230.405563
 31
0.0
  0
ARC
  5
2D6B
100
AcDbEntity
  8
0
100
AcDbCircle
 10
351.25696
 20
1141.33189
 30
0.0
 40
90.0
100
AcDbArc
 50
60.387001
 51
79.480225
  0
POLYLINE
  5
2D6C
100
AcDbEntity
  8
0
100
AcDb2dPolyline
 66
     1
 10
0.0
 20
0.0
 30
0.0
  0
VERTEX
  5
3D84
100
AcDbEntity
  8
0
100
AcDbVertex
100
AcDb2dVertex
 10
364.657705
 20
1229.819166
 30
0.0
  0
VERTEX
  5
3D85
100
AcDbEntity
  8
0
100
AcDbVertex
100
AcDb2dVertex
 10
364.197201
 20
1230.405563
 30
0.0
  0
SEQEND
  5
3D86
100
AcDbEntity
  8
0
  0
LINE
  5
2D6D
100
AcDbEntity
  8
0
100
AcDbLine
 10
349.2918
 20
1249.519066
 30
0.0
 11
364.2918
 21
1249.519066
 31
0.0
  0
LINE
  5
2D6E
100
AcDbEntity
  8
0
100
AcDbLine
 10
364.2918
 20
1235.019066
 30
0.0
 11
367.767008
 21
1238.494275
 31
0.0
  0
LINE
  5
2D6F
100
AcDbEntity
  8
0
100
AcDbLine
 10
367.767008
 20
1238.494275
 30
0.0
 11
367.767008
 21
1246.043857
 31
0.0
  0
LINE
  5
2D70
100
AcDbEntity
  8
0
100
AcDbLine
 10
358.529404
 20
1238.494275
 30
0.0
 11
358.529404
 21
1246.043857
 31
0.0
  0
ARC
  5
2D71
100
AcDbEntity
  8
0
100
AcDbCircle
 10
363.148206
 20
1241.143927
 30
0.0
 40
5.324847
100
AcDbArc
 50
209.841453
 51
299.841453
  0
LINE
  5
2D72
100
AcDbEntity
  8
0
100
AcDbLine
 10
364.2918
 20
1249.519066
 30
0.0
 11
367.767008
 21
1246.043857
 31
0.0
  0
ARC
  5
2D73
100
AcDbEntity
  8
0
100
AcDbCircle
 10
363.148206
 20
1243.394205
 30
0.0
 40
5.324847
100
AcDbArc
 50
60.158547
 51
150.158547
  0
ARC
  5
2D74
100
AcDbEntity
  8
0
100
AcDbCircle
 10
544.459351
 20
1124.218411
 30
0.0
 40
15.0
100
AcDbArc
 50
270.575033
 51
0.0
  0
LINE
  5
2D75
100
AcDbEntity
  8
0
100
AcDbLine
 10
476.438953
 20
1113.612564
 30
0.0
 11
455.093993
 21
1134.957524
 31
0.0
  0
TEXT
  5
2D76
100
AcDbEntity
  8
0
100
AcDbText
 10
502.79354
 20
1057.811369
 30
0.0
 40
20.0
  1
15A
 41
0.8
 11
502.79354
 21
1057.811369
 31
0.0
100
AcDbText
 73
     1
  0
LINE
  5
2D77
100
AcDbEntity
  8
0
100
AcDbLine
 10
544.609892
 20
1109.219166
 30
0.0
 11
487.045554
 21
1109.219166
 31
0.0
  0
ARC
  5
2D78
100
AcDbEntity
  8
0
100
AcDbCircle
 10
487.045554
 20
1124.219166
 30
0.0
 40
15.0
100
AcDbArc
 50
225.0
 51
270.0
  0
ARC
  5
2D79
100
AcDbEntity
  8
0
100
AcDbCircle
 10
532.388351
 20
1103.618145
 30
0.0
 40
13.299346
100
AcDbArc
 50
233.020205
 51
306.979795
  0
LINE
  5
2D7A
100
AcDbEntity
  8
0
100
AcDbLine
 10
524.388351
 20
1089.518785
 30
0.0
 11
539.388351
 21
1089.518785
 31
0.0
  0
ARC
  5
2D7B
100
AcDbEntity
  8
0
100
AcDbCircle
 10
532.388351
 20
1089.919425
 30
0.0
 40
13.299346
100
AcDbArc
 50
53.020205
 51
126.979795
  0
LINE
  5
2D7C
100
AcDbEntity
  8
0
100
AcDbLine
 10
509.388351
 20
1108.632288
 30
0.0
 11
539.388351
 21
1108.632288
 31
0.0
  0
LINE
  5
2D7D
100
AcDbEntity
  8
0
100
AcDbLine
 10
509.388351
 20
1104.018785
 30
0.0
 11
539.388351
 21
1104.018785
 31
0.0
  0
LINE
  5
2D7E
100
AcDbEntity
  8
0
100
AcDbLine
 10
524.388351
 20
1100.543576
 30
0.0
 11
524.388351
 21
1092.993993
 31
0.0
  0
LINE
  5
2D7F
100
AcDbEntity
  8
0
100
AcDbLine
 10
508.388351
 20
1100.543576
 30
0.0
 11
508.388351
 21
1092.993993
 31
0.0
  0
LINE
  5
2D80
100
AcDbEntity
  8
0
100
AcDbLine
 10
509.388351
 20
1089.518785
 30
0.0
 11
508.388351
 21
1092.993993
 31
0.0
  0
LINE
  5
2D81
100
AcDbEntity
  8
0
100
AcDbLine
 10
509.388351
 20
1089.518785
 30
0.0
 11
524.388351
 21
1089.518785
 31
0.0
  0
ARC
  5
2D82
100
AcDbEntity
  8
0
100
AcDbCircle
 10
516.388351
 20
1103.618145
 30
0.0
 40
13.299346
100
AcDbArc
 50
233.020205
 51
306.979795
  0
LINE
  5
2D83
100
AcDbEntity
  8
0
100
AcDbLine
 10
509.388351
 20
1104.018785
 30
0.0
 11
508.388351
 21
1100.543576
 31
0.0
  0
POLYLINE
  5
2D84
100
AcDbEntity
  8
0
100
AcDb2dPolyline
 66
     1
 10
0.0
 20
0.0
 30
0.0
  0
VERTEX
  5
3D87
100
AcDbEntity
  8
0
100
AcDbVertex
100
AcDb2dVertex
 10
508.927847
 20
1109.218685
 30
0.0
  0
VERTEX
  5
3D88
100
AcDbEntity
  8
0
100
AcDbVertex
100
AcDb2dVertex
 10
509.388351
 20
1108.632288
 30
0.0
  0
SEQEND
  5
3D89
100
AcDbEntity
  8
0
  0
LINE
  5
2D85
100
AcDbEntity
  8
0
100
AcDbLine
 10
509.388351
 20
1104.018785
 30
0.0
 11
509.388351
 21
1108.632288
 31
0.0
  0
ARC
  5
2D86
100
AcDbEntity
  8
0
100
AcDbCircle
 10
516.388351
 20
1089.919425
 30
0.0
 40
13.299346
100
AcDbArc
 50
53.020205
 51
126.979795
  0
LINE
  5
2D87
100
AcDbEntity
  8
0
100
AcDbLine
 10
540.388351
 20
1100.543576
 30
0.0
 11
540.388351
 21
1092.993993
 31
0.0
  0
LINE
  5
2D88
100
AcDbEntity
  8
0
100
AcDbLine
 10
539.388351
 20
1089.518785
 30
0.0
 11
540.388351
 21
1092.993993
 31
0.0
  0
LINE
  5
2D89
100
AcDbEntity
  8
0
100
AcDbLine
 10
539.388351
 20
1104.018785
 30
0.0
 11
540.388351
 21
1100.543576
 31
0.0
  0
LINE
  5
2D8A
100
AcDbEntity
  8
0
100
AcDbLine
 10
539.388351
 20
1104.018785
 30
0.0
 11
539.388351
 21
1108.632288
 31
0.0
  0
POLYLINE
  5
2D8B
100
AcDbEntity
  8
0
100
AcDb2dPolyline
 66
     1
 10
0.0
 20
0.0
 30
0.0
  0
VERTEX
  5
3D8A
100
AcDbEntity
  8
0
100
AcDbVertex
100
AcDb2dVertex
 10
539.848855
 20
1109.218685
 30
0.0
  0
VERTEX
  5
3D8B
100
AcDbEntity
  8
0
100
AcDbVertex
100
AcDb2dVertex
 10
539.388351
 20
1108.632288
 30
0.0
  0
SEQEND
  5
3D8C
100
AcDbEntity
  8
0
  0
LINE
  5
2D8C
100
AcDbEntity
  8
0
100
AcDbLine
 10
544.550072
 20
1229.819166
 30
0.0
 11
487.046554
 21
1229.819166
 31
0.0
  0
ARC
  5
2D8D
100
AcDbEntity
  8
0
100
AcDbCircle
 10
463.917283
 20
1195.225428
 30
0.0
 40
12.5
100
AcDbArc
 50
135.0
 51
178.945222
  0
LINE
  5
2D8E
100
AcDbEntity
  8
0
100
AcDbLine
 10
403.307697
 20
1132.503419
 30
0.0
 11
403.307697
 21
1207.074891
 31
0.0
  0
ARC
  5
2D8F
100
AcDbEntity
  8
0
100
AcDbCircle
 10
463.932828
 20
1143.796359
 30
0.0
 40
12.5
100
AcDbArc
 50
180.019649
 51
225.0
  0
LINE
  5
2D90
100
AcDbEntity
  8
0
100
AcDbLine
 10
451.434365
 20
1143.60029
 30
0.0
 11
451.420748
 21
1195.519734
 31
0.0
  0
ARC
  5
2D91
100
AcDbEntity
  8
0
100
AcDbCircle
 10
487.046554
 20
1214.819166
 30
0.0
 40
15.0
100
AcDbArc
 50
90.0
 51
135.0
  0
LINE
  5
2D92
100
AcDbEntity
  8
0
100
AcDbLine
 10
476.439953
 20
1225.425768
 30
0.0
 11
455.078448
 21
1204.064263
 31
0.0
  0
LINE
  5
2D93
100
AcDbEntity
  8
0
100
AcDbLine
 10
604.459152
 20
1124.218411
 30
0.0
 11
604.459152
 21
1214.81944
 31
0.0
  0
LINE
  5
2D94
100
AcDbEntity
  8
0
100
AcDbLine
 10
559.459351
 20
1124.218411
 30
0.0
 11
559.459351
 21
1214.81944
 31
0.0
  0
ARC
  5
2D95
100
AcDbEntity
  8
0
100
AcDbCircle
 10
544.459351
 20
1214.81944
 30
0.0
 40
15.0
100
AcDbArc
 50
0.0
 51
89.653469
  0
LINE
  5
2D96
100
AcDbEntity
  8
0
100
AcDbLine
 10
539.388351
 20
1235.019066
 30
0.0
 11
539.388351
 21
1230.405563
 31
0.0
  0
LINE
  5
2D97
100
AcDbEntity
  8
0
100
AcDbLine
 10
509.388351
 20
1235.019066
 30
0.0
 11
509.388351
 21
1230.405563
 31
0.0
  0
LINE
  5
2D98
100
AcDbEntity
  8
0
100
AcDbLine
 10
509.388351
 20
1230.405563
 30
0.0
 11
539.388351
 21
1230.405563
 31
0.0
  0
POLYLINE
  5
2D99
100
AcDbEntity
  8
0
100
AcDb2dPolyline
 66
     1
 10
0.0
 20
0.0
 30
0.0
  0
VERTEX
  5
3D8D
100
AcDbEntity
  8
0
100
AcDbVertex
100
AcDb2dVertex
 10
508.927847
 20
1229.819166
 30
0.0
  0
VERTEX
  5
3D8E
100
AcDbEntity
  8
0
100
AcDbVertex
100
AcDb2dVertex
 10
509.388351
 20
1230.405563
 30
0.0
  0
SEQEND
  5
3D8F
100
AcDbEntity
  8
0
  0
POLYLINE
  5
2D9A
100
AcDbEntity
  8
0
100
AcDb2dPolyline
 66
     1
 10
0.0
 20
0.0
 30
0.0
  0
VERTEX
  5
3D90
100
AcDbEntity
  8
0
100
AcDbVertex
100
AcDb2dVertex
 10
539.848855
 20
1229.819166
 30
0.0
  0
VERTEX
  5
3D91
100
AcDbEntity
  8
0
100
AcDbVertex
100
AcDb2dVertex
 10
539.388351
 20
1230.405563
 30
0.0
  0
SEQEND
  5
3D92
100
AcDbEntity
  8
0
  0
ARC
  5
2D9B
100
AcDbEntity
  8
0
100
AcDbCircle
 10
532.388351
 20
1249.118426
 30
0.0
 40
13.299346
100
AcDbArc
 50
233.020205
 51
306.979795
  0
ARC
  5
2D9C
100
AcDbEntity
  8
0
100
AcDbCircle
 10
532.388351
 20
1235.419706
 30
0.0
 40
13.299346
100
AcDbArc
 50
53.020205
 51
126.979795
  0
LINE
  5
2D9D
100
AcDbEntity
  8
0
100
AcDbLine
 10
524.388351
 20
1249.519066
 30
0.0
 11
539.388351
 21
1249.519066
 31
0.0
  0
LINE
  5
2D9E
100
AcDbEntity
  8
0
100
AcDbLine
 10
509.388351
 20
1235.019066
 30
0.0
 11
539.388351
 21
1235.019066
 31
0.0
  0
LINE
  5
2D9F
100
AcDbEntity
  8
0
100
AcDbLine
 10
516.428437
 20
1272.817778
 30
0.0
 11
525.881812
 21
1263.158528
 31
0.0
  0
LINE
  5
2DA0
100
AcDbEntity
  8
0
100
AcDbLine
 10
521.155124
 20
1272.817778
 30
0.0
 11
516.428437
 21
1272.817778
 31
0.0
  0
LINE
  5
2DA1
100
AcDbEntity
  8
0
100
AcDbLine
 10
509.388351
 20
1249.519066
 30
0.0
 11
524.388351
 21
1249.519066
 31
0.0
  0
LINE
  5
2DA2
100
AcDbEntity
  8
0
100
AcDbLine
 10
524.388351
 20
1238.494275
 30
0.0
 11
524.388351
 21
1246.043857
 31
0.0
  0
LINE
  5
2DA3
100
AcDbEntity
  8
0
100
AcDbLine
 10
509.388351
 20
1235.019066
 30
0.0
 11
508.388351
 21
1238.494275
 31
0.0
  0
LINE
  5
2DA4
100
AcDbEntity
  8
0
100
AcDbLine
 10
508.388351
 20
1238.494275
 30
0.0
 11
508.388351
 21
1246.043857
 31
0.0
  0
ARC
  5
2DA5
100
AcDbEntity
  8
0
100
AcDbCircle
 10
516.388351
 20
1249.118426
 30
0.0
 40
13.299346
100
AcDbArc
 50
233.020205
 51
306.979795
  0
ARC
  5
2DA6
100
AcDbEntity
  8
0
100
AcDbCircle
 10
516.388351
 20
1235.419706
 30
0.0
 40
13.299346
100
AcDbArc
 50
53.020205
 51
126.979795
  0
LINE
  5
2DA7
100
AcDbEntity
  8
0
100
AcDbLine
 10
509.388351
 20
1249.519066
 30
0.0
 11
508.388351
 21
1246.043857
 31
0.0
  0
LINE
  5
2DA8
100
AcDbEntity
  8
0
100
AcDbLine
 10
539.388351
 20
1235.019066
 30
0.0
 11
540.388351
 21
1238.494275
 31
0.0
  0
LINE
  5
2DA9
100
AcDbEntity
  8
0
100
AcDbLine
 10
540.388351
 20
1238.494275
 30
0.0
 11
540.388351
 21
1246.043857
 31
0.0
  0
LINE
  5
2DAA
100
AcDbEntity
  8
0
100
AcDbLine
 10
539.388351
 20
1249.519066
 30
0.0
 11
540.388351
 21
1246.043857
 31
0.0
  0
TEXT
  5
2DAB
100
AcDbEntity
  8
0
100
AcDbText
 10
197.934678
 20
1394.661159
 30
0.0
 40
25.0
  1
平面
100
AcDbText
  0
POLYLINE
  5
2DAC
100
AcDbEntity
  8
0
100
AcDb2dPolyline
 66
     1
 10
0.0
 20
0.0
 30
0.0
 70
     1
  0
VERTEX
  5
3D93
100
AcDbEntity
  8
0
100
AcDbVertex
100
AcDb2dVertex
 10
508.383368
 20
1413.656927
 30
0.0
  0
VERTEX
  5
3D94
100
AcDbEntity
  8
0
100
AcDbVertex
100
AcDb2dVertex
 10
524.383368
 20
1422.894531
 30
0.0
  0
VERTEX
  5
3D95
100
AcDbEntity
  8
0
100
AcDbVertex
100
AcDb2dVertex
 10
540.383368
 20
1413.656927
 30
0.0
  0
VERTEX
  5
3D96
100
AcDbEntity
  8
0
100
AcDbVertex
100
AcDb2dVertex
 10
540.383368
 20
1395.181718
 30
0.0
  0
VERTEX
  5
3D97
100
AcDbEntity
  8
0
100
AcDbVertex
100
AcDb2dVertex
 10
524.383368
 20
1385.944114
 30
0.0
  0
VERTEX
  5
3D98
100
AcDbEntity
  8
0
100
AcDbVertex
100
AcDb2dVertex
 10
508.383368
 20
1395.181718
 30
0.0
  0
SEQEND
  5
3D99
100
AcDbEntity
  8
0
  0
CIRCLE
  5
2DAD
100
AcDbEntity
  8
0
100
AcDbCircle
 10
505.441106
 20
1404.419322
 30
0.0
 40
54.013261
  0
ELLIPSE
  5
2DAE
100
AcDbEntity
  8
0
100
AcDbEllipse
 10
465.761489
 20
1404.419322
 30
0.0
 11
-0.0000000000000028
 21
-15.08777685472523
 31
0.0
210
0.0
220
0.0
230
-1.0
 40
0.707359
 41
0.0
 42
6.283185307179586
  0
LINE
  5
2DAF
100
AcDbEntity
  8
0
100
AcDbLine
 10
525.881812
 20
1310.427091
 30
0.0
 11
516.428437
 21
1319.880466
 31
0.0
  0
LINE
  5
2DB0
100
AcDbEntity
  8
0
100
AcDbLine
 10
516.428437
 20
1291.520341
 30
0.0
 11
521.155124
 21
1286.791966
 31
0.0
  0
LINE
  5
2DB1
100
AcDbEntity
  8
0
100
AcDbLine
 10
516.428437
 20
1319.880466
 30
0.0
 11
516.428437
 21
1291.520341
 31
0.0
  0
CIRCLE
  5
2DB2
100
AcDbEntity
  8
0
100
AcDbCircle
 10
524.383368
 20
1404.419322
 30
0.0
 40
15.5
  0
ARC
  5
2DB3
100
AcDbEntity
  8
0
100
AcDbCircle
 10
504.312368
 20
1543.971251
 30
0.0
 40
15.0
100
AcDbArc
 50
180.0
 51
269.424967
  0
LINE
  5
2DB4
100
AcDbEntity
  8
0
100
AcDbLine
 10
504.161827
 20
1528.972006
 30
0.0
 11
561.726164
 21
1528.972006
 31
0.0
  0
POLYLINE
  5
2DB5
100
AcDbEntity
  8
0
100
AcDb2dPolyline
 66
     1
 10
0.0
 20
0.0
 30
0.0
  0
VERTEX
  5
3D9A
100
AcDbEntity
  8
0
100
AcDbVertex
100
AcDb2dVertex
 10
539.843871
 20
1528.971525
 30
0.0
  0
VERTEX
  5
3D9B
100
AcDbEntity
  8
0
100
AcDbVertex
100
AcDb2dVertex
 10
539.383368
 20
1528.385129
 30
0.0
  0
SEQEND
  5
3D9C
100
AcDbEntity
  8
0
  0
POLYLINE
  5
2DB6
100
AcDbEntity
  8
0
100
AcDb2dPolyline
 66
     1
 10
0.0
 20
0.0
 30
0.0
  0
VERTEX
  5
3D9D
100
AcDbEntity
  8
0
100
AcDbVertex
100
AcDb2dVertex
 10
508.922864
 20
1528.971525
 30
0.0
  0
VERTEX
  5
3D9E
100
AcDbEntity
  8
0
100
AcDbVertex
100
AcDb2dVertex
 10
509.383368
 20
1528.385129
 30
0.0
  0
SEQEND
  5
3D9F
100
AcDbEntity
  8
0
  0
LINE
  5
2DB7
100
AcDbEntity
  8
0
100
AcDbLine
 10
539.383368
 20
1528.385129
 30
0.0
 11
509.383368
 21
1528.385129
 31
0.0
  0
ARC
  5
2DB8
100
AcDbEntity
  8
0
100
AcDbCircle
 10
532.383368
 20
1523.370985
 30
0.0
 40
13.299346
100
AcDbArc
 50
233.020205
 51
306.979795
  0
LINE
  5
2DB9
100
AcDbEntity
  8
0
100
AcDbLine
 10
539.383368
 20
1509.271625
 30
0.0
 11
524.383368
 21
1509.271625
 31
0.0
  0
ARC
  5
2DBA
100
AcDbEntity
  8
0
100
AcDbCircle
 10
532.383368
 20
1509.672265
 30
0.0
 40
13.299346
100
AcDbArc
 50
53.020205
 51
126.979795
  0
LINE
  5
2DBB
100
AcDbEntity
  8
0
100
AcDbLine
 10
539.383368
 20
1523.771625
 30
0.0
 11
509.383368
 21
1523.771625
 31
0.0
  0
LINE
  5
2DBC
100
AcDbEntity
  8
0
100
AcDbLine
 10
508.383368
 20
1520.296417
 30
0.0
 11
508.383368
 21
1512.746834
 31
0.0
  0
LINE
  5
2DBD
100
AcDbEntity
  8
0
100
AcDbLine
 10
524.383368
 20
1520.296417
 30
0.0
 11
524.383368
 21
1512.746834
 31
0.0
  0
LINE
  5
2DBE
100
AcDbEntity
  8
0
100
AcDbLine
 10
509.383368
 20
1509.271625
 30
0.0
 11
508.383368
 21
1512.746834
 31
0.0
  0
LINE
  5
2DBF
100
AcDbEntity
  8
0
100
AcDbLine
 10
524.383368
 20
1509.271625
 30
0.0
 11
509.383368
 21
1509.271625
 31
0.0
  0
ARC
  5
2DC0
100
AcDbEntity
  8
0
100
AcDbCircle
 10
516.383368
 20
1523.370985
 30
0.0
 40
13.299346
100
AcDbArc
 50
233.020205
 51
306.979795
  0
LINE
  5
2DC1
100
AcDbEntity
  8
0
100
AcDbLine
 10
509.383368
 20
1523.771625
 30
0.0
 11
508.383368
 21
1520.296417
 31
0.0
  0
ARC
  5
2DC2
100
AcDbEntity
  8
0
100
AcDbCircle
 10
516.383368
 20
1509.672265
 30
0.0
 40
13.299346
100
AcDbArc
 50
53.020205
 51
126.979795
  0
LINE
  5
2DC3
100
AcDbEntity
  8
0
100
AcDbLine
 10
509.383368
 20
1523.771625
 30
0.0
 11
509.383368
 21
1528.385129
 31
0.0
  0
LINE
  5
2DC4
100
AcDbEntity
  8
0
100
AcDbLine
 10
540.383368
 20
1520.296417
 30
0.0
 11
540.383368
 21
1512.746834
 31
0.0
  0
LINE
  5
2DC5
100
AcDbEntity
  8
0
100
AcDbLine
 10
539.383368
 20
1509.271625
 30
0.0
 11
540.383368
 21
1512.746834
 31
0.0
  0
LINE
  5
2DC6
100
AcDbEntity
  8
0
100
AcDbLine
 10
539.383368
 20
1523.771625
 30
0.0
 11
540.383368
 21
1520.296417
 31
0.0
  0
LINE
  5
2DC7
100
AcDbEntity
  8
0
100
AcDbLine
 10
539.383368
 20
1523.771625
 30
0.0
 11
539.383368
 21
1528.385129
 31
0.0
  0
ARC
  5
2DC8
100
AcDbEntity
  8
0
100
AcDbCircle
 10
561.726164
 20
1543.972006
 30
0.0
 40
15.0
100
AcDbArc
 50
270.0
 51
315.0
  0
LINE
  5
2DC9
100
AcDbEntity
  8
0
100
AcDbLine
 10
572.332766
 20
1533.365405
 30
0.0
 11
593.677726
 21
1554.710364
 31
0.0
  0
ARC
  5
2DCA
100
AcDbEntity
  8
0
100
AcDbCircle
 10
584.838891
 20
1563.549199
 30
0.0
 40
12.5
100
AcDbArc
 50
315.0
 51
359.980351
  0
TEXT
  5
2DCB
100
AcDbEntity
  8
0
100
AcDbText
 10
197.934678
 20
1580.988176
 30
0.0
 40
25.0
  1
背面
100
AcDbText
  0
ARC
  5
2DCC
100
AcDbEntity
  8
0
100
AcDbCircle
 10
504.312368
 20
1634.572281
 30
0.0
 40
15.0
100
AcDbArc
 50
90.346531
 51
180.0
  0
LINE
  5
2DCD
100
AcDbEntity
  8
0
100
AcDbLine
 10
572.331766
 20
1645.178608
 30
0.0
 11
593.69327
 21
1623.817103
 31
0.0
  0
ARC
  5
2DCE
100
AcDbEntity
  8
0
100
AcDbCircle
 10
584.854436
 20
1614.978269
 30
0.0
 40
12.5
100
AcDbArc
 50
1.054778
 51
45.0
  0
LINE
  5
2DCF
100
AcDbEntity
  8
0
100
AcDbLine
 10
504.221647
 20
1649.572006
 30
0.0
 11
561.725164
 21
1649.572006
 31
0.0
  0
LINE
  5
2DD0
100
AcDbEntity
  8
0
100
AcDbLine
 10
539.383368
 20
1650.158403
 30
0.0
 11
509.383368
 21
1650.158403
 31
0.0
  0
LINE
  5
2DD1
100
AcDbEntity
  8
0
100
AcDbLine
 10
539.383368
 20
1669.271906
 30
0.0
 11
524.383368
 21
1669.271906
 31
0.0
  0
ARC
  5
2DD2
100
AcDbEntity
  8
0
100
AcDbCircle
 10
532.383368
 20
1655.172546
 30
0.0
 40
13.299346
100
AcDbArc
 50
53.020205
 51
126.979795
  0
LINE
  5
2DD3
100
AcDbEntity
  8
0
100
AcDbLine
 10
539.383368
 20
1654.771906
 30
0.0
 11
509.383368
 21
1654.771906
 31
0.0
  0
ARC
  5
2DD4
100
AcDbEntity
  8
0
100
AcDbCircle
 10
532.383368
 20
1668.871267
 30
0.0
 40
13.299346
100
AcDbArc
 50
233.020205
 51
306.979795
  0
LINE
  5
2DD5
100
AcDbEntity
  8
0
100
AcDbLine
 10
509.383368
 20
1654.771906
 30
0.0
 11
509.383368
 21
1650.158403
 31
0.0
  0
POLYLINE
  5
2DD6
100
AcDbEntity
  8
0
100
AcDb2dPolyline
 66
     1
 10
0.0
 20
0.0
 30
0.0
  0
VERTEX
  5
3DA0
100
AcDbEntity
  8
0
100
AcDbVertex
100
AcDb2dVertex
 10
508.922864
 20
1649.572006
 30
0.0
  0
VERTEX
  5
3DA1
100
AcDbEntity
  8
0
100
AcDbVertex
100
AcDb2dVertex
 10
509.383368
 20
1650.158403
 30
0.0
  0
SEQEND
  5
3DA2
100
AcDbEntity
  8
0
  0
LINE
  5
2DD7
100
AcDbEntity
  8
0
100
AcDbLine
 10
508.383368
 20
1658.247115
 30
0.0
 11
508.383368
 21
1665.796698
 31
0.0
  0
LINE
  5
2DD8
100
AcDbEntity
  8
0
100
AcDbLine
 10
509.383368
 20
1669.271906
 30
0.0
 11
508.383368
 21
1665.796698
 31
0.0
  0
LINE
  5
2DD9
100
AcDbEntity
  8
0
100
AcDbLine
 10
524.383368
 20
1658.247115
 30
0.0
 11
524.383368
 21
1665.796698
 31
0.0
  0
LINE
  5
2DDA
100
AcDbEntity
  8
0
100
AcDbLine
 10
524.383368
 20
1669.271906
 30
0.0
 11
509.383368
 21
1669.271906
 31
0.0
  0
ARC
  5
2DDB
100
AcDbEntity
  8
0
100
AcDbCircle
 10
516.383368
 20
1655.172546
 30
0.0
 40
13.299346
100
AcDbArc
 50
53.020205
 51
126.979795
  0
LINE
  5
2DDC
100
AcDbEntity
  8
0
100
AcDbLine
 10
509.383368
 20
1654.771906
 30
0.0
 11
508.383368
 21
1658.247115
 31
0.0
  0
ARC
  5
2DDD
100
AcDbEntity
  8
0
100
AcDbCircle
 10
516.383368
 20
1668.871267
 30
0.0
 40
13.299346
100
AcDbArc
 50
233.020205
 51
306.979795
  0
LINE
  5
2DDE
100
AcDbEntity
  8
0
100
AcDbLine
 10
539.383368
 20
1654.771906
 30
0.0
 11
539.383368
 21
1650.158403
 31
0.0
  0
POLYLINE
  5
2DDF
100
AcDbEntity
  8
0
100
AcDb2dPolyline
 66
     1
 10
0.0
 20
0.0
 30
0.0
  0
VERTEX
  5
3DA3
100
AcDbEntity
  8
0
100
AcDbVertex
100
AcDb2dVertex
 10
539.843871
 20
1649.572006
 30
0.0
  0
VERTEX
  5
3DA4
100
AcDbEntity
  8
0
100
AcDbVertex
100
AcDb2dVertex
 10
539.383368
 20
1650.158403
 30
0.0
  0
SEQEND
  5
3DA5
100
AcDbEntity
  8
0
  0
LINE
  5
2DE0
100
AcDbEntity
  8
0
100
AcDbLine
 10
540.383368
 20
1658.247115
 30
0.0
 11
540.383368
 21
1665.796698
 31
0.0
  0
LINE
  5
2DE1
100
AcDbEntity
  8
0
100
AcDbLine
 10
539.383368
 20
1669.271906
 30
0.0
 11
540.383368
 21
1665.796698
 31
0.0
  0
LINE
  5
2DE2
100
AcDbEntity
  8
0
100
AcDbLine
 10
539.383368
 20
1654.771906
 30
0.0
 11
540.383368
 21
1658.247115
 31
0.0
  0
ARC
  5
2DE3
100
AcDbEntity
  8
0
100
AcDbCircle
 10
561.725164
 20
1634.572006
 30
0.0
 40
15.0
100
AcDbArc
 50
45.0
 51
90.0
  0
LINE
  5
2DE4
100
AcDbEntity
  8
0
100
AcDbLine
 10
1409.707153
 20
1563.35313
 30
0.0
 11
1409.720771
 21
1615.272574
 31
0.0
  0
LINE
  5
2DE5
100
AcDbEntity
  8
0
100
AcDbLine
 10
1301.682168
 20
1543.971251
 30
0.0
 11
1301.682168
 21
1634.572281
 31
0.0
  0
ARC
  5
2DE6
100
AcDbEntity
  8
0
100
AcDbCircle
 10
697.485674
 20
1124.218411
 30
0.0
 40
15.0
100
AcDbArc
 50
270.575033
 51
0.0
  0
ARC
  5
2DE7
100
AcDbEntity
  8
0
100
AcDbCircle
 10
658.472413
 20
1107.605395
 30
0.0
 40
17.286595
100
AcDbArc
 50
237.698151
 51
302.301849
  0
LINE
  5
2DE8
100
AcDbEntity
  8
0
100
AcDbLine
 10
658.472413
 20
1089.518785
 30
0.0
 11
673.472413
 21
1089.518785
 31
0.0
  0
LINE
  5
2DE9
100
AcDbEntity
  8
0
100
AcDbLine
 10
643.377814
 20
1108.632288
 30
0.0
 11
673.377814
 21
1108.632288
 31
0.0
  0
LINE
  5
2DEA
100
AcDbEntity
  8
0
100
AcDbLine
 10
643.377814
 20
1104.018785
 30
0.0
 11
673.377814
 21
1104.018785
 31
0.0
  0
ARC
  5
2DEB
100
AcDbEntity
  8
0
100
AcDbCircle
 10
658.472413
 20
1085.932175
 30
0.0
 40
17.286595
100
AcDbArc
 50
57.698151
 51
122.301849
  0
LINE
  5
2DEC
100
AcDbEntity
  8
0
100
AcDbLine
 10
697.636215
 20
1109.219166
 30
0.0
 11
619.308611
 21
1109.219166
 31
0.0
  0
LINE
  5
2DED
100
AcDbEntity
  8
0
100
AcDbLine
 10
649.234809
 20
1100.543576
 30
0.0
 11
649.234809
 21
1092.993993
 31
0.0
  0
LINE
  5
2DEE
100
AcDbEntity
  8
0
100
AcDbLine
 10
639.997205
 20
1100.543576
 30
0.0
 11
639.997205
 21
1092.993993
 31
0.0
  0
LINE
  5
2DEF
100
AcDbEntity
  8
0
100
AcDbLine
 10
643.472413
 20
1089.518785
 30
0.0
 11
658.472413
 21
1089.518785
 31
0.0
  0
ARC
  5
2DF0
100
AcDbEntity
  8
0
100
AcDbCircle
 10
644.616007
 20
1095.643646
 30
0.0
 40
5.324847
100
AcDbArc
 50
240.158547
 51
330.158547
  0
LINE
  5
2DF1
100
AcDbEntity
  8
0
100
AcDbLine
 10
643.472413
 20
1089.518785
 30
0.0
 11
639.997205
 21
1092.993993
 31
0.0
  0
POLYLINE
  5
2DF2
100
AcDbEntity
  8
0
100
AcDb2dPolyline
 66
     1
 10
0.0
 20
0.0
 30
0.0
  0
VERTEX
  5
3DA6
100
AcDbEntity
  8
0
100
AcDbVertex
100
AcDb2dVertex
 10
642.91731
 20
1109.218685
 30
0.0
  0
VERTEX
  5
3DA7
100
AcDbEntity
  8
0
100
AcDbVertex
100
AcDb2dVertex
 10
643.377814
 20
1108.632288
 30
0.0
  0
SEQEND
  5
3DA8
100
AcDbEntity
  8
0
  0
LINE
  5
2DF3
100
AcDbEntity
  8
0
100
AcDbLine
 10
643.472413
 20
1104.018785
 30
0.0
 11
639.997205
 21
1100.543576
 31
0.0
  0
ARC
  5
2DF4
100
AcDbEntity
  8
0
100
AcDbCircle
 10
644.616007
 20
1097.893924
 30
0.0
 40
5.324847
100
AcDbArc
 50
29.841453
 51
119.841453
  0
LINE
  5
2DF5
100
AcDbEntity
  8
0
100
AcDbLine
 10
643.377814
 20
1104.018785
 30
0.0
 11
643.377814
 21
1108.632288
 31
0.0
  0
LINE
  5
2DF6
100
AcDbEntity
  8
0
100
AcDbLine
 10
667.710017
 20
1100.543576
 30
0.0
 11
667.710017
 21
1092.993993
 31
0.0
  0
LINE
  5
2DF7
100
AcDbEntity
  8
0
100
AcDbLine
 10
676.947622
 20
1100.543576
 30
0.0
 11
676.947622
 21
1092.993993
 31
0.0
  0
ARC
  5
2DF8
100
AcDbEntity
  8
0
100
AcDbCircle
 10
672.32882
 20
1095.643646
 30
0.0
 40
5.324847
100
AcDbArc
 50
209.841453
 51
299.841453
  0
LINE
  5
2DF9
100
AcDbEntity
  8
0
100
AcDbLine
 10
673.472413
 20
1089.518785
 30
0.0
 11
676.947622
 21
1092.993993
 31
0.0
  0
POLYLINE
  5
2DFA
100
AcDbEntity
  8
0
100
AcDb2dPolyline
 66
     1
 10
0.0
 20
0.0
 30
0.0
  0
VERTEX
  5
3DA9
100
AcDbEntity
  8
0
100
AcDbVertex
100
AcDb2dVertex
 10
673.838318
 20
1109.218685
 30
0.0
  0
VERTEX
  5
3DAA
100
AcDbEntity
  8
0
100
AcDbVertex
100
AcDb2dVertex
 10
673.377814
 20
1108.632288
 30
0.0
  0
SEQEND
  5
3DAB
100
AcDbEntity
  8
0
  0
LINE
  5
2DFB
100
AcDbEntity
  8
0
100
AcDbLine
 10
673.472413
 20
1104.018785
 30
0.0
 11
676.947622
 21
1100.543576
 31
0.0
  0
ARC
  5
2DFC
100
AcDbEntity
  8
0
100
AcDbCircle
 10
672.32882
 20
1097.893924
 30
0.0
 40
5.324847
100
AcDbArc
 50
60.158547
 51
150.158547
  0
LINE
  5
2DFD
100
AcDbEntity
  8
0
100
AcDbLine
 10
673.377814
 20
1104.018785
 30
0.0
 11
673.377814
 21
1108.632288
 31
0.0
  0
ARC
  5
2DFE
100
AcDbEntity
  8
0
100
AcDbCircle
 10
697.485674
 20
1214.81944
 30
0.0
 40
15.0
100
AcDbArc
 50
0.0
 51
89.653469
  0
LINE
  5
2DFF
100
AcDbEntity
  8
0
100
AcDbLine
 10
658.472413
 20
1249.519066
 30
0.0
 11
673.472413
 21
1249.519066
 31
0.0
  0
LINE
  5
2E00
100
AcDbEntity
  8
0
100
AcDbLine
 10
643.377814
 20
1230.405563
 30
0.0
 11
673.377814
 21
1230.405563
 31
0.0
  0
ARC
  5
2E01
100
AcDbEntity
  8
0
100
AcDbCircle
 10
658.472413
 20
1231.432456
 30
0.0
 40
17.286595
100
AcDbArc
 50
57.698151
 51
122.301849
  0
LINE
  5
2E02
100
AcDbEntity
  8
0
100
AcDbLine
 10
643.377814
 20
1235.019066
 30
0.0
 11
673.377814
 21
1235.019066
 31
0.0
  0
ARC
  5
2E03
100
AcDbEntity
  8
0
100
AcDbCircle
 10
658.472413
 20
1253.105676
 30
0.0
 40
17.286595
100
AcDbArc
 50
237.698151
 51
302.301849
  0
LINE
  5
2E04
100
AcDbEntity
  8
0
100
AcDbLine
 10
697.576395
 20
1229.819166
 30
0.0
 11
619.368431
 21
1229.819166
 31
0.0
  0
LINE
  5
2E05
100
AcDbEntity
  8
0
100
AcDbLine
 10
643.377814
 20
1235.019066
 30
0.0
 11
643.377814
 21
1230.405563
 31
0.0
  0
POLYLINE
  5
2E06
100
AcDbEntity
  8
0
100
AcDb2dPolyline
 66
     1
 10
0.0
 20
0.0
 30
0.0
  0
VERTEX
  5
3DAC
100
AcDbEntity
  8
0
100
AcDbVertex
100
AcDb2dVertex
 10
642.91731
 20
1229.819166
 30
0.0
  0
VERTEX
  5
3DAD
100
AcDbEntity
  8
0
100
AcDbVertex
100
AcDb2dVertex
 10
643.377814
 20
1230.405563
 30
0.0
  0
SEQEND
  5
3DAE
100
AcDbEntity
  8
0
  0
LINE
  5
2E07
100
AcDbEntity
  8
0
100
AcDbLine
 10
643.472413
 20
1249.519066
 30
0.0
 11
658.472413
 21
1249.519066
 31
0.0
  0
LINE
  5
2E08
100
AcDbEntity
  8
0
100
AcDbLine
 10
649.234809
 20
1238.494275
 30
0.0
 11
649.234809
 21
1246.043857
 31
0.0
  0
LINE
  5
2E09
100
AcDbEntity
  8
0
100
AcDbLine
 10
639.997205
 20
1238.494275
 30
0.0
 11
639.997205
 21
1246.043857
 31
0.0
  0
ARC
  5
2E0A
100
AcDbEntity
  8
0
100
AcDbCircle
 10
644.616007
 20
1241.143927
 30
0.0
 40
5.324847
100
AcDbArc
 50
240.158547
 51
330.158547
  0
LINE
  5
2E0B
100
AcDbEntity
  8
0
100
AcDbLine
 10
643.472413
 20
1235.019066
 30
0.0
 11
639.997205
 21
1238.494275
 31
0.0
  0
ARC
  5
2E0C
100
AcDbEntity
  8
0
100
AcDbCircle
 10
644.616007
 20
1243.394205
 30
0.0
 40
5.324847
100
AcDbArc
 50
29.841453
 51
119.841453
  0
LINE
  5
2E0D
100
AcDbEntity
  8
0
100
AcDbLine
 10
643.472413
 20
1249.519066
 30
0.0
 11
639.997205
 21
1246.043857
 31
0.0
  0
LINE
  5
2E0E
100
AcDbEntity
  8
0
100
AcDbLine
 10
673.377814
 20
1235.019066
 30
0.0
 11
673.377814
 21
1230.405563
 31
0.0
  0
POLYLINE
  5
2E0F
100
AcDbEntity
  8
0
100
AcDb2dPolyline
 66
     1
 10
0.0
 20
0.0
 30
0.0
  0
VERTEX
  5
3DAF
100
AcDbEntity
  8
0
100
AcDbVertex
100
AcDb2dVertex
 10
673.838318
 20
1229.819166
 30
0.0
  0
VERTEX
  5
3DB0
100
AcDbEntity
  8
0
100
AcDbVertex
100
AcDb2dVertex
 10
673.377814
 20
1230.405563
 30
0.0
  0
SEQEND
  5
3DB1
100
AcDbEntity
  8
0
  0
LINE
  5
2E10
100
AcDbEntity
  8
0
100
AcDbLine
 10
667.710017
 20
1238.494275
 30
0.0
 11
667.710017
 21
1246.043857
 31
0.0
  0
LINE
  5
2E11
100
AcDbEntity
  8
0
100
AcDbLine
 10
676.947622
 20
1238.494275
 30
0.0
 11
676.947622
 21
1246.043857
 31
0.0
  0
ARC
  5
2E12
100
AcDbEntity
  8
0
100
AcDbCircle
 10
672.32882
 20
1241.143927
 30
0.0
 40
5.324847
100
AcDbArc
 50
209.841453
 51
299.841453
  0
LINE
  5
2E13
100
AcDbEntity
  8
0
100
AcDbLine
 10
673.472413
 20
1235.019066
 30
0.0
 11
676.947622
 21
1238.494275
 31
0.0
  0
ARC
  5
2E14
100
AcDbEntity
  8
0
100
AcDbCircle
 10
672.32882
 20
1243.394205
 30
0.0
 40
5.324847
100
AcDbArc
 50
60.158547
 51
150.158547
  0
LINE
  5
2E15
100
AcDbEntity
  8
0
100
AcDbLine
 10
673.472413
 20
1249.519066
 30
0.0
 11
676.947622
 21
1246.043857
 31
0.0
  0
LINE
  5
2E16
100
AcDbEntity
  8
0
100
AcDbLine
 10
712.485674
 20
1124.218411
 30
0.0
 11
712.485674
 21
1214.81944
 31
0.0
  0
LINE
  5
2E17
100
AcDbEntity
  8
0
100
AcDbLine
 10
1336.553213
 20
1274.745768
 30
0.0
 11
1336.553213
 21
1322.014331
 31
0.0
  0
LINE
  5
2E18
100
AcDbEntity
  8
0
100
AcDbLine
 10
1331.826526
 20
1298.379206
 30
0.0
 11
1331.826526
 21
1284.405018
 31
0.0
  0
ARC
  5
2E19
100
AcDbEntity
  8
0
100
AcDbCircle
 10
1192.901806
 20
1141.33189
 30
0.0
 40
90.0
100
AcDbArc
 50
60.387001
 51
79.480225
  0
ARC
  5
2E1A
100
AcDbEntity
  8
0
100
AcDbCircle
 10
1192.885109
 20
1197.703154
 30
0.0
 40
90.0
100
AcDbArc
 50
280.531234
 51
299.61915
  0
LINE
  5
2E1B
100
AcDbEntity
  8
0
100
AcDbLine
 10
1136.930471
 20
1132.493959
 30
0.0
 11
1136.911052
 21
1206.531669
 31
0.0
  0
ARC
  5
2E1C
100
AcDbEntity
  8
0
100
AcDbCircle
 10
1181.936646
 20
1075.201366
 30
0.0
 40
20.847602
100
AcDbArc
 50
64.424231
 51
115.575769
  0
LINE
  5
2E1D
100
AcDbEntity
  8
0
100
AcDbLine
 10
1205.936646
 20
1104.025458
 30
0.0
 11
1175.936646
 21
1104.025458
 31
0.0
  0
LINE
  5
2E1E
100
AcDbEntity
  8
0
100
AcDbLine
 10
1209.334545
 20
1109.219166
 30
0.0
 11
1172.538747
 21
1109.219166
 31
0.0
  0
LINE
  5
2E1F
100
AcDbEntity
  8
0
100
AcDbLine
 10
1175.936646
 20
1108.344493
 30
0.0
 11
1205.936646
 21
1108.344493
 31
0.0
  0
LINE
  5
2E20
100
AcDbEntity
  8
0
100
AcDbLine
 10
1190.936646
 20
1076.025458
 30
0.0
 11
1173.436646
 21
1076.025458
 31
0.0
  0
ARC
  5
2E21
100
AcDbEntity
  8
0
100
AcDbCircle
 10
1181.936646
 20
1098.114921
 30
0.0
 40
20.847602
100
AcDbArc
 50
244.424231
 51
295.575769
  0
LINE
  5
2E22
100
AcDbEntity
  8
0
100
AcDbLine
 10
1175.936646
 20
1104.025458
 30
0.0
 11
1172.936646
 21
1094.00622
 31
0.0
  0
LINE
  5
2E23
100
AcDbEntity
  8
0
100
AcDbLine
 10
1172.936646
 20
1079.310067
 30
0.0
 11
1173.436646
 21
1076.025458
 31
0.0
  0
LINE
  5
2E24
100
AcDbEntity
  8
0
100
AcDbLine
 10
1172.936646
 20
1094.00622
 30
0.0
 11
1172.936646
 21
1079.310067
 31
0.0
  0
ARC
  5
2E25
100
AcDbEntity
  8
0
100
AcDbCircle
 10
1188.988183
 20
1197.703154
 30
0.0
 40
90.0
100
AcDbArc
 50
240.389392
 51
259.468766
  0
ARC
  5
2E26
100
AcDbEntity
  8
0
100
AcDbCircle
 10
1151.93047
 20
1132.497893
 30
0.0
 40
15.0
100
AcDbArc
 50
180.015028
 51
240.389392
  0
LINE
  5
2E27
100
AcDbEntity
  8
0
100
AcDbLine
 10
1175.936646
 20
1108.344493
 30
0.0
 11
1175.936646
 21
1104.025458
 31
0.0
  0
LINE
  5
2E28
100
AcDbEntity
  8
0
100
AcDbLine
 10
1175.043908
 20
1109.218685
 30
0.0
 11
1175.936646
 21
1108.344493
 31
0.0
  0
LINE
  5
2E29
100
AcDbEntity
  8
0
100
AcDbLine
 10
1205.936646
 20
1104.025458
 30
0.0
 11
1208.936646
 21
1094.00622
 31
0.0
  0
ARC
  5
2E2A
100
AcDbEntity
  8
0
100
AcDbCircle
 10
1199.936646
 20
1075.201366
 30
0.0
 40
20.847602
100
AcDbArc
 50
64.424231
 51
115.575769
  0
LINE
  5
2E2B
100
AcDbEntity
  8
0
100
AcDbLine
 10
1208.436646
 20
1076.025458
 30
0.0
 11
1190.936646
 21
1076.025458
 31
0.0
  0
ARC
  5
2E2C
100
AcDbEntity
  8
0
100
AcDbCircle
 10
1199.936646
 20
1098.114921
 30
0.0
 40
20.847602
100
AcDbArc
 50
244.424231
 51
295.575769
  0
LINE
  5
2E2D
100
AcDbEntity
  8
0
100
AcDbLine
 10
1190.936646
 20
1094.00622
 30
0.0
 11
1190.936646
 21
1079.310067
 31
0.0
  0
LINE
  5
2E2E
100
AcDbEntity
  8
0
100
AcDbLine
 10
1208.936646
 20
1079.310067
 30
0.0
 11
1208.436646
 21
1076.025458
 31
0.0
  0
LINE
  5
2E2F
100
AcDbEntity
  8
0
100
AcDbLine
 10
1208.936646
 20
1094.00622
 30
0.0
 11
1208.936646
 21
1079.310067
 31
0.0
  0
LINE
  5
2E30
100
AcDbEntity
  8
0
100
AcDbLine
 10
1205.936646
 20
1108.344493
 30
0.0
 11
1205.936646
 21
1104.025458
 31
0.0
  0
LINE
  5
2E31
100
AcDbEntity
  8
0
100
AcDbLine
 10
1206.829384
 20
1109.218685
 30
0.0
 11
1205.936646
 21
1108.344493
 31
0.0
  0
ARC
  5
2E32
100
AcDbEntity
  8
0
100
AcDbCircle
 10
1151.911051
 20
1206.535603
 30
0.0
 40
15.0
100
AcDbArc
 50
119.612999
 51
180.015028
  0
LINE
  5
2E33
100
AcDbEntity
  8
0
100
AcDbLine
 10
1190.936646
 20
1263.012393
 30
0.0
 11
1173.436646
 21
1263.012393
 31
0.0
  0
LINE
  5
2E34
100
AcDbEntity
  8
0
100
AcDbLine
 10
1209.333545
 20
1229.819166
 30
0.0
 11
1172.539747
 21
1229.819166
 31
0.0
  0
ARC
  5
2E35
100
AcDbEntity
  8
0
100
AcDbCircle
 10
1181.936646
 20
1263.836485
 30
0.0
 40
20.847602
100
AcDbArc
 50
244.424231
 51
295.575769
  0
ARC
  5
2E36
100
AcDbEntity
  8
0
100
AcDbCircle
 10
1181.936646
 20
1240.92293
 30
0.0
 40
20.847602
100
AcDbArc
 50
64.424231
 51
115.575769
  0
LINE
  5
2E37
100
AcDbEntity
  8
0
100
AcDbLine
 10
1205.936646
 20
1235.012393
 30
0.0
 11
1175.936646
 21
1235.012393
 31
0.0
  0
LINE
  5
2E38
100
AcDbEntity
  8
0
100
AcDbLine
 10
1175.936646
 20
1230.693358
 30
0.0
 11
1205.936646
 21
1230.693358
 31
0.0
  0
LINE
  5
2E39
100
AcDbEntity
  8
0
100
AcDbLine
 10
1172.936646
 20
1245.031631
 30
0.0
 11
1172.936646
 21
1259.727783
 31
0.0
  0
ARC
  5
2E3A
100
AcDbEntity
  8
0
100
AcDbCircle
 10
1188.971486
 20
1141.33189
 30
0.0
 40
90.0
100
AcDbArc
 50
100.519775
 51
119.612999
  0
LINE
  5
2E3B
100
AcDbEntity
  8
0
100
AcDbLine
 10
1175.936646
 20
1235.012393
 30
0.0
 11
1172.936646
 21
1245.031631
 31
0.0
  0
LINE
  5
2E3C
100
AcDbEntity
  8
0
100
AcDbLine
 10
1175.936646
 20
1230.693358
 30
0.0
 11
1175.936646
 21
1235.012393
 31
0.0
  0
LINE
  5
2E3D
100
AcDbEntity
  8
0
100
AcDbLine
 10
1175.043908
 20
1229.819166
 30
0.0
 11
1175.936646
 21
1230.693358
 31
0.0
  0
LINE
  5
2E3E
100
AcDbEntity
  8
0
100
AcDbLine
 10
1172.936646
 20
1259.727783
 30
0.0
 11
1173.436646
 21
1263.012393
 31
0.0
  0
LINE
  5
2E3F
100
AcDbEntity
  8
0
100
AcDbLine
 10
1190.936646
 20
1245.031631
 30
0.0
 11
1190.936646
 21
1259.727783
 31
0.0
  0
LINE
  5
2E40
100
AcDbEntity
  8
0
100
AcDbLine
 10
1208.936646
 20
1245.031631
 30
0.0
 11
1208.936646
 21
1259.727783
 31
0.0
  0
LINE
  5
2E41
100
AcDbEntity
  8
0
100
AcDbLine
 10
1205.936646
 20
1235.012393
 30
0.0
 11
1208.936646
 21
1245.031631
 31
0.0
  0
ARC
  5
2E42
100
AcDbEntity
  8
0
100
AcDbCircle
 10
1199.936646
 20
1263.836485
 30
0.0
 40
20.847602
100
AcDbArc
 50
244.424231
 51
295.575769
  0
LINE
  5
2E43
100
AcDbEntity
  8
0
100
AcDbLine
 10
1205.936646
 20
1230.693358
 30
0.0
 11
1205.936646
 21
1235.012393
 31
0.0
  0
LINE
  5
2E44
100
AcDbEntity
  8
0
100
AcDbLine
 10
1206.829384
 20
1229.819166
 30
0.0
 11
1205.936646
 21
1230.693358
 31
0.0
  0
LINE
  5
2E45
100
AcDbEntity
  8
0
100
AcDbLine
 10
1208.436646
 20
1263.012393
 30
0.0
 11
1190.936646
 21
1263.012393
 31
0.0
  0
ARC
  5
2E46
100
AcDbEntity
  8
0
100
AcDbCircle
 10
1199.936646
 20
1240.92293
 30
0.0
 40
20.847602
100
AcDbArc
 50
64.424231
 51
115.575769
  0
LINE
  5
2E47
100
AcDbEntity
  8
0
100
AcDbLine
 10
1208.936646
 20
1259.727783
 30
0.0
 11
1208.436646
 21
1263.012393
 31
0.0
  0
LINE
  5
2E48
100
AcDbEntity
  8
0
100
AcDbLine
 10
1410.87175
 20
1124.218411
 30
0.0
 11
1410.87175
 21
1214.81944
 31
0.0
  0
LINE
  5
2E49
100
AcDbEntity
  8
0
100
AcDbLine
 10
1371.825612
 20
1124.218411
 30
0.0
 11
1371.825612
 21
1214.81944
 31
0.0
  0
ARC
  5
2E4A
100
AcDbEntity
  8
0
100
AcDbCircle
 10
1276.299089
 20
1143.796359
 30
0.0
 40
12.5
100
AcDbArc
 50
180.019649
 51
225.0
  0
LINE
  5
2E4B
100
AcDbEntity
  8
0
100
AcDbLine
 10
1244.952543
 20
1132.503419
 30
0.0
 11
1244.952543
 21
1207.074891
 31
0.0
  0
LINE
  5
2E4C
100
AcDbEntity
  8
0
100
AcDbLine
 10
1321.754612
 20
1104.025939
 30
0.0
 11
1351.754612
 21
1104.025939
 31
0.0
  0
ARC
  5
2E4D
100
AcDbEntity
  8
0
100
AcDbCircle
 10
1336.754612
 20
1068.593104
 30
0.0
 40
27.456345
100
AcDbArc
 50
67.759024
 51
112.240976
  0
LINE
  5
2E4E
100
AcDbEntity
  8
0
100
AcDbLine
 10
1351.754612
 20
1108.344974
 30
0.0
 11
1321.754612
 21
1108.344974
 31
0.0
  0
ARC
  5
2E4F
100
AcDbEntity
  8
0
100
AcDbCircle
 10
1336.754612
 20
1104.724145
 30
0.0
 40
27.456345
100
AcDbArc
 50
247.759024
 51
292.240976
  0
LINE
  5
2E50
100
AcDbEntity
  8
0
100
AcDbLine
 10
1336.754612
 20
1076.025939
 30
0.0
 11
1354.254612
 21
1076.025939
 31
0.0
  0
LINE
  5
2E51
100
AcDbEntity
  8
0
100
AcDbLine
 10
1356.976153
 20
1109.219166
 30
0.0
 11
1299.411816
 21
1109.219166
 31
0.0
  0
TEXT
  5
2E52
100
AcDbEntity
  8
0
100
AcDbText
 10
1310.835825
 20
1031.868756
 30
0.0
 40
20.0
  1
20A
 41
0.8
 11
1310.835825
 21
1031.868756
 31
0.0
100
AcDbText
 73
     1
  0
LINE
  5
2E53
100
AcDbEntity
  8
0
100
AcDbLine
 10
1288.805214
 20
1113.612564
 30
0.0
 11
1267.460254
 21
1134.957524
 31
0.0
  0
ARC
  5
2E54
100
AcDbEntity
  8
0
100
AcDbCircle
 10
1229.952543
 20
1132.503419
 30
0.0
 40
15.0
100
AcDbArc
 50
299.61915
 51
0.0
  0
LINE
  5
2E55
100
AcDbEntity
  8
0
100
AcDbLine
 10
1321.754612
 20
1104.025939
 30
0.0
 11
1315.970003
 21
1094.006701
 31
0.0
  0
ARC
  5
2E56
100
AcDbEntity
  8
0
100
AcDbCircle
 10
1321.166155
 20
1088.504091
 30
0.0
 40
7.56827
100
AcDbArc
 50
46.640741
 51
133.359259
  0
LINE
  5
2E57
100
AcDbEntity
  8
0
100
AcDbLine
 10
1319.254612
 20
1076.025939
 30
0.0
 11
1336.754612
 21
1076.025939
 31
0.0
  0
ARC
  5
2E58
100
AcDbEntity
  8
0
100
AcDbCircle
 10
1321.166155
 20
1084.813158
 30
0.0
 40
7.56827
100
AcDbArc
 50
226.640741
 51
313.359259
  0
LINE
  5
2E59
100
AcDbEntity
  8
0
100
AcDbLine
 10
1315.970003
 20
1079.310549
 30
0.0
 11
1319.254612
 21
1076.025939
 31
0.0
  0
LINE
  5
2E5A
100
AcDbEntity
  8
0
100
AcDbLine
 10
1326.362307
 20
1094.006701
 30
0.0
 11
1326.362307
 21
1079.310549
 31
0.0
  0
LINE
  5
2E5B
100
AcDbEntity
  8
0
100
AcDbLine
 10
1315.970003
 20
1094.006701
 30
0.0
 11
1315.970003
 21
1079.310549
 31
0.0
  0
ARC
  5
2E5C
100
AcDbEntity
  8
0
100
AcDbCircle
 10
1299.411816
 20
1124.219166
 30
0.0
 40
15.0
100
AcDbArc
 50
225.0
 51
270.0
  0
LINE
  5
2E5D
100
AcDbEntity
  8
0
100
AcDbLine
 10
1321.754612
 20
1108.344974
 30
0.0
 11
1321.754612
 21
1104.025939
 31
0.0
  0
LINE
  5
2E5E
100
AcDbEntity
  8
0
100
AcDbLine
 10
1320.861875
 20
1109.219166
 30
0.0
 11
1321.754612
 21
1108.344974
 31
0.0
  0
LINE
  5
2E5F
100
AcDbEntity
  8
0
100
AcDbLine
 10
1351.754612
 20
1104.025939
 30
0.0
 11
1357.539222
 21
1094.006701
 31
0.0
  0
ARC
  5
2E60
100
AcDbEntity
  8
0
100
AcDbCircle
 10
1352.34307
 20
1088.504091
 30
0.0
 40
7.56827
100
AcDbArc
 50
46.640741
 51
133.359259
  0
LINE
  5
2E61
100
AcDbEntity
  8
0
100
AcDbLine
 10
1357.539222
 20
1079.310549
 30
0.0
 11
1354.254612
 21
1076.025939
 31
0.0
  0
ARC
  5
2E62
100
AcDbEntity
  8
0
100
AcDbCircle
 10
1352.34307
 20
1084.813158
 30
0.0
 40
7.56827
100
AcDbArc
 50
226.640741
 51
313.359259
  0
LINE
  5
2E63
100
AcDbEntity
  8
0
100
AcDbLine
 10
1357.539222
 20
1094.006701
 30
0.0
 11
1357.539222
 21
1079.310549
 31
0.0
  0
LINE
  5
2E64
100
AcDbEntity
  8
0
100
AcDbLine
 10
1347.146917
 20
1094.006701
 30
0.0
 11
1347.146917
 21
1079.310549
 31
0.0
  0
ARC
  5
2E65
100
AcDbEntity
  8
0
100
AcDbCircle
 10
1356.825612
 20
1124.218411
 30
0.0
 40
15.0
100
AcDbArc
 50
270.575033
 51
0.0
  0
LINE
  5
2E66
100
AcDbEntity
  8
0
100
AcDbLine
 10
1351.754612
 20
1108.344974
 30
0.0
 11
1351.754612
 21
1104.025939
 31
0.0
  0
LINE
  5
2E67
100
AcDbEntity
  8
0
100
AcDbLine
 10
1352.64735
 20
1109.219166
 30
0.0
 11
1351.754612
 21
1108.344974
 31
0.0
  0
ARC
  5
2E68
100
AcDbEntity
  8
0
100
AcDbCircle
 10
1425.87175
 20
1124.218411
 30
0.0
 40
15.0
100
AcDbArc
 50
180.0
 51
269.424967
  0
LINE
  5
2E69
100
AcDbEntity
  8
0
100
AcDbLine
 10
1336.754612
 20
1263.012393
 30
0.0
 11
1354.254612
 21
1263.012393
 31
0.0
  0
ARC
  5
2E6A
100
AcDbEntity
  8
0
100
AcDbCircle
 10
1336.754612
 20
1234.314187
 30
0.0
 40
27.456345
100
AcDbArc
 50
67.759024
 51
112.240976
  0
ARC
  5
2E6B
100
AcDbEntity
  8
0
100
AcDbCircle
 10
1336.754612
 20
1270.445227
 30
0.0
 40
27.456345
100
AcDbArc
 50
247.759024
 51
292.240976
  0
LINE
  5
2E6C
100
AcDbEntity
  8
0
100
AcDbLine
 10
1321.754612
 20
1235.012393
 30
0.0
 11
1351.754612
 21
1235.012393
 31
0.0
  0
LINE
  5
2E6D
100
AcDbEntity
  8
0
100
AcDbLine
 10
1351.754612
 20
1230.693358
 30
0.0
 11
1321.754612
 21
1230.693358
 31
0.0
  0
LINE
  5
2E6E
100
AcDbEntity
  8
0
100
AcDbLine
 10
1356.916333
 20
1229.819166
 30
0.0
 11
1299.412816
 21
1229.819166
 31
0.0
  0
LINE
  5
2E6F
100
AcDbEntity
  8
0
100
AcDbLine
 10
1288.806214
 20
1225.425768
 30
0.0
 11
1267.444709
 21
1204.064263
 31
0.0
  0
ARC
  5
2E70
100
AcDbEntity
  8
0
100
AcDbCircle
 10
1229.962241
 20
1206.535603
 30
0.0
 40
15.0
100
AcDbArc
 50
359.984972
 51
60.387001
  0
LINE
  5
2E71
100
AcDbEntity
  8
0
100
AcDbLine
 10
1263.800627
 20
1143.60029
 30
0.0
 11
1263.787009
 21
1195.519734
 31
0.0
  0
ARC
  5
2E72
100
AcDbEntity
  8
0
100
AcDbCircle
 10
1276.283544
 20
1195.225428
 30
0.0
 40
12.5
100
AcDbArc
 50
135.0
 51
178.945222
  0
LINE
  5
2E73
100
AcDbEntity
  8
0
100
AcDbLine
 10
1315.970003
 20
1245.031631
 30
0.0
 11
1315.970003
 21
1259.727783
 31
0.0
  0
LINE
  5
2E74
100
AcDbEntity
  8
0
100
AcDbLine
 10
1326.362307
 20
1245.031631
 30
0.0
 11
1326.362307
 21
1259.727783
 31
0.0
  0
ARC
  5
2E75
100
AcDbEntity
  8
0
100
AcDbCircle
 10
1299.412816
 20
1214.819166
 30
0.0
 40
15.0
100
AcDbArc
 50
90.0
 51
135.0
  0
LINE
  5
2E76
100
AcDbEntity
  8
0
100
AcDbLine
 10
1320.861875
 20
1229.819166
 30
0.0
 11
1321.754612
 21
1230.693358
 31
0.0
  0
LINE
  5
2E77
100
AcDbEntity
  8
0
100
AcDbLine
 10
1321.754612
 20
1235.012393
 30
0.0
 11
1315.970003
 21
1245.031631
 31
0.0
  0
ARC
  5
2E78
100
AcDbEntity
  8
0
100
AcDbCircle
 10
1321.166155
 20
1250.534241
 30
0.0
 40
7.56827
100
AcDbArc
 50
226.640741
 51
313.359259
  0
LINE
  5
2E79
100
AcDbEntity
  8
0
100
AcDbLine
 10
1321.754612
 20
1230.693358
 30
0.0
 11
1321.754612
 21
1235.012393
 31
0.0
  0
LINE
  5
2E7A
100
AcDbEntity
  8
0
100
AcDbLine
 10
1327.099838
 20
1284.405018
 30
0.0
 11
1336.553213
 21
1274.745768
 31
0.0
  0
LINE
  5
2E7B
100
AcDbEntity
  8
0
100
AcDbLine
 10
1331.826526
 20
1284.405018
 30
0.0
 11
1327.099838
 21
1284.405018
 31
0.0
  0
LINE
  5
2E7C
100
AcDbEntity
  8
0
100
AcDbLine
 10
1319.254612
 20
1263.012393
 30
0.0
 11
1336.754612
 21
1263.012393
 31
0.0
  0
ARC
  5
2E7D
100
AcDbEntity
  8
0
100
AcDbCircle
 10
1321.166155
 20
1254.225174
 30
0.0
 40
7.56827
100
AcDbArc
 50
46.640741
 51
133.359259
  0
LINE
  5
2E7E
100
AcDbEntity
  8
0
100
AcDbLine
 10
1315.970003
 20
1259.727783
 30
0.0
 11
1319.254612
 21
1263.012393
 31
0.0
  0
LINE
  5
2E7F
100
AcDbEntity
  8
0
100
AcDbLine
 10
1357.539222
 20
1245.031631
 30
0.0
 11
1357.539222
 21
1259.727783
 31
0.0
  0
LINE
  5
2E80
100
AcDbEntity
  8
0
100
AcDbLine
 10
1347.146917
 20
1245.031631
 30
0.0
 11
1347.146917
 21
1259.727783
 31
0.0
  0
ARC
  5
2E81
100
AcDbEntity
  8
0
100
AcDbCircle
 10
1356.825612
 20
1214.81944
 30
0.0
 40
15.0
100
AcDbArc
 50
0.0
 51
89.653469
  0
LINE
  5
2E82
100
AcDbEntity
  8
0
100
AcDbLine
 10
1352.64735
 20
1229.819166
 30
0.0
 11
1351.754612
 21
1230.693358
 31
0.0
  0
LINE
  5
2E83
100
AcDbEntity
  8
0
100
AcDbLine
 10
1351.754612
 20
1230.693358
 30
0.0
 11
1351.754612
 21
1235.012393
 31
0.0
  0
LINE
  5
2E84
100
AcDbEntity
  8
0
100
AcDbLine
 10
1351.754612
 20
1235.012393
 30
0.0
 11
1357.539222
 21
1245.031631
 31
0.0
  0
ARC
  5
2E85
100
AcDbEntity
  8
0
100
AcDbCircle
 10
1352.34307
 20
1250.534241
 30
0.0
 40
7.56827
100
AcDbArc
 50
226.640741
 51
313.359259
  0
ARC
  5
2E86
100
AcDbEntity
  8
0
100
AcDbCircle
 10
1352.34307
 20
1254.225174
 30
0.0
 40
7.56827
100
AcDbArc
 50
46.640741
 51
133.359259
  0
LINE
  5
2E87
100
AcDbEntity
  8
0
100
AcDbLine
 10
1357.539222
 20
1259.727783
 30
0.0
 11
1354.254612
 21
1263.012393
 31
0.0
  0
ARC
  5
2E88
100
AcDbEntity
  8
0
100
AcDbCircle
 10
1425.87175
 20
1214.81944
 30
0.0
 40
15.0
100
AcDbArc
 50
90.346531
 51
180.0
  0
CIRCLE
  5
2E89
100
AcDbEntity
  8
0
100
AcDbCircle
 10
1317.810907
 20
1405.393122
 30
0.0
 40
54.013261
  0
POLYLINE
  5
2E8A
100
AcDbEntity
  8
0
100
AcDb2dPolyline
 66
     1
 10
0.0
 20
0.0
 30
0.0
 70
     1
  0
VERTEX
  5
3DB2
100
AcDbEntity
  8
0
100
AcDbVertex
100
AcDb2dVertex
 10
1315.968558
 20
1405.393122
 30
0.0
  0
VERTEX
  5
3DB3
100
AcDbEntity
  8
0
100
AcDbVertex
100
AcDb2dVertex
 10
1326.360863
 20
1387.393122
 30
0.0
  0
VERTEX
  5
3DB4
100
AcDbEntity
  8
0
100
AcDbVertex
100
AcDb2dVertex
 10
1347.145473
 20
1387.393122
 30
0.0
  0
VERTEX
  5
3DB5
100
AcDbEntity
  8
0
100
AcDbVertex
100
AcDb2dVertex
 10
1357.537778
 20
1405.393122
 30
0.0
  0
VERTEX
  5
3DB6
100
AcDbEntity
  8
0
100
AcDbVertex
100
AcDb2dVertex
 10
1347.145473
 20
1423.393122
 30
0.0
  0
VERTEX
  5
3DB7
100
AcDbEntity
  8
0
100
AcDbVertex
100
AcDb2dVertex
 10
1326.360863
 20
1423.393122
 30
0.0
  0
SEQEND
  5
3DB8
100
AcDbEntity
  8
0
  0
CIRCLE
  5
2E8B
100
AcDbEntity
  8
0
100
AcDbCircle
 10
1336.753168
 20
1405.393122
 30
0.0
 40
17.5
  0
LINE
  5
2E8C
100
AcDbEntity
  8
0
100
AcDbLine
 10
1336.553213
 20
1322.014331
 30
0.0
 11
1327.099838
 21
1331.467706
 31
0.0
  0
LINE
  5
2E8D
100
AcDbEntity
  8
0
100
AcDbLine
 10
1327.099838
 20
1303.107581
 30
0.0
 11
1331.826526
 21
1298.379206
 31
0.0
  0
LINE
  5
2E8E
100
AcDbEntity
  8
0
100
AcDbLine
 10
1327.099838
 20
1331.467706
 30
0.0
 11
1327.099838
 21
1303.107581
 31
0.0
  0
ELLIPSE
  5
2E8F
100
AcDbEntity
  8
0
100
AcDbEllipse
 10
1278.13129
 20
1405.393122
 30
0.0
 11
-0.0000000000000028
 21
-15.08777685472523
 31
0.0
210
0.0
220
0.0
230
-1.0
 40
0.707359
 41
0.0
 42
6.283185307179586
  0
LINE
  5
2E90
100
AcDbEntity
  8
0
100
AcDbLine
 10
1351.753168
 20
1523.778779
 30
0.0
 11
1321.753168
 21
1523.778779
 31
0.0
  0
ARC
  5
2E91
100
AcDbEntity
  8
0
100
AcDbCircle
 10
1336.753168
 20
1488.345945
 30
0.0
 40
27.456345
100
AcDbArc
 50
67.759024
 51
112.240976
  0
ARC
  5
2E92
100
AcDbEntity
  8
0
100
AcDbCircle
 10
1336.753168
 20
1524.476985
 30
0.0
 40
27.456345
100
AcDbArc
 50
247.759024
 51
292.240976
  0
LINE
  5
2E93
100
AcDbEntity
  8
0
100
AcDbLine
 10
1354.253168
 20
1495.778779
 30
0.0
 11
1336.753168
 21
1495.778779
 31
0.0
  0
LINE
  5
2E94
100
AcDbEntity
  8
0
100
AcDbLine
 10
1321.753168
 20
1528.097815
 30
0.0
 11
1351.753168
 21
1528.097815
 31
0.0
  0
LINE
  5
2E95
100
AcDbEntity
  8
0
100
AcDbLine
 10
1316.531627
 20
1528.972006
 30
0.0
 11
1374.095965
 21
1528.972006
 31
0.0
  0
LINE
  5
2E96
100
AcDbEntity
  8
0
100
AcDbLine
 10
1315.968558
 20
1513.759541
 30
0.0
 11
1315.968558
 21
1499.063389
 31
0.0
  0
LINE
  5
2E97
100
AcDbEntity
  8
0
100
AcDbLine
 10
1326.360863
 20
1513.759541
 30
0.0
 11
1326.360863
 21
1499.063389
 31
0.0
  0
LINE
  5
2E98
100
AcDbEntity
  8
0
100
AcDbLine
 10
1315.968558
 20
1499.063389
 30
0.0
 11
1319.253168
 21
1495.778779
 31
0.0
  0
ARC
  5
2E99
100
AcDbEntity
  8
0
100
AcDbCircle
 10
1321.164711
 20
1504.565999
 30
0.0
 40
7.56827
100
AcDbArc
 50
226.640741
 51
313.359259
  0
LINE
  5
2E9A
100
AcDbEntity
  8
0
100
AcDbLine
 10
1336.753168
 20
1495.778779
 30
0.0
 11
1319.253168
 21
1495.778779
 31
0.0
  0
ARC
  5
2E9B
100
AcDbEntity
  8
0
100
AcDbCircle
 10
1316.682168
 20
1543.971251
 30
0.0
 40
15.0
100
AcDbArc
 50
180.0
 51
269.424967
  0
LINE
  5
2E9C
100
AcDbEntity
  8
0
100
AcDbLine
 10
1321.753168
 20
1528.097815
 30
0.0
 11
1321.753168
 21
1523.778779
 31
0.0
  0
ARC
  5
2E9D
100
AcDbEntity
  8
0
100
AcDbCircle
 10
1321.164711
 20
1508.256932
 30
0.0
 40
7.56827
100
AcDbArc
 50
46.640741
 51
133.359259
  0
LINE
  5
2E9E
100
AcDbEntity
  8
0
100
AcDbLine
 10
1321.753168
 20
1523.778779
 30
0.0
 11
1315.968558
 21
1513.759541
 31
0.0
  0
LINE
  5
2E9F
100
AcDbEntity
  8
0
100
AcDbLine
 10
1320.86043
 20
1528.972006
 30
0.0
 11
1321.753168
 21
1528.097815
 31
0.0
  0
LINE
  5
2EA0
100
AcDbEntity
  8
0
100
AcDbLine
 10
1347.145473
 20
1513.759541
 30
0.0
 11
1347.145473
 21
1499.063389
 31
0.0
  0
LINE
  5
2EA1
100
AcDbEntity
  8
0
100
AcDbLine
 10
1357.537778
 20
1513.759541
 30
0.0
 11
1357.537778
 21
1499.063389
 31
0.0
  0
ARC
  5
2EA2
100
AcDbEntity
  8
0
100
AcDbCircle
 10
1352.341625
 20
1504.565999
 30
0.0
 40
7.56827
100
AcDbArc
 50
226.640741
 51
313.359259
  0
LINE
  5
2EA3
100
AcDbEntity
  8
0
100
AcDbLine
 10
1357.537778
 20
1499.063389
 30
0.0
 11
1354.253168
 21
1495.778779
 31
0.0
  0
LINE
  5
2EA4
100
AcDbEntity
  8
0
100
AcDbLine
 10
1384.702566
 20
1533.365405
 30
0.0
 11
1406.047526
 21
1554.710364
 31
0.0
  0
LINE
  5
2EA5
100
AcDbEntity
  8
0
100
AcDbLine
 10
1351.753168
 20
1528.097815
 30
0.0
 11
1351.753168
 21
1523.778779
 31
0.0
  0
ARC
  5
2EA6
100
AcDbEntity
  8
0
100
AcDbCircle
 10
1352.341625
 20
1508.256932
 30
0.0
 40
7.56827
100
AcDbArc
 50
46.640741
 51
133.359259
  0
LINE
  5
2EA7
100
AcDbEntity
  8
0
100
AcDbLine
 10
1351.753168
 20
1523.778779
 30
0.0
 11
1357.537778
 21
1513.759541
 31
0.0
  0
LINE
  5
2EA8
100
AcDbEntity
  8
0
100
AcDbLine
 10
1352.645906
 20
1528.972006
 30
0.0
 11
1351.753168
 21
1528.097815
 31
0.0
  0
ARC
  5
2EA9
100
AcDbEntity
  8
0
100
AcDbCircle
 10
1374.095965
 20
1543.972006
 30
0.0
 40
15.0
100
AcDbArc
 50
270.0
 51
315.0
  0
ARC
  5
2EAA
100
AcDbEntity
  8
0
100
AcDbCircle
 10
1397.208691
 20
1563.549199
 30
0.0
 40
12.5
100
AcDbArc
 50
315.0
 51
359.980351
  0
LINE
  5
2EAB
100
AcDbEntity
  8
0
100
AcDbLine
 10
1321.753168
 20
1650.446198
 30
0.0
 11
1351.753168
 21
1650.446198
 31
0.0
  0
LINE
  5
2EAC
100
AcDbEntity
  8
0
100
AcDbLine
 10
1351.753168
 20
1654.765233
 30
0.0
 11
1321.753168
 21
1654.765233
 31
0.0
  0
ARC
  5
2EAD
100
AcDbEntity
  8
0
100
AcDbCircle
 10
1336.753168
 20
1690.198068
 30
0.0
 40
27.456345
100
AcDbArc
 50
247.759024
 51
292.240976
  0
LINE
  5
2EAE
100
AcDbEntity
  8
0
100
AcDbLine
 10
1316.591447
 20
1649.572006
 30
0.0
 11
1374.094965
 21
1649.572006
 31
0.0
  0
LINE
  5
2EAF
100
AcDbEntity
  8
0
100
AcDbLine
 10
1354.253168
 20
1682.765233
 30
0.0
 11
1336.753168
 21
1682.765233
 31
0.0
  0
ARC
  5
2EB0
100
AcDbEntity
  8
0
100
AcDbCircle
 10
1336.753168
 20
1654.067027
 30
0.0
 40
27.456345
100
AcDbArc
 50
67.759024
 51
112.240976
  0
LINE
  5
2EB1
100
AcDbEntity
  8
0
100
AcDbLine
 10
1321.753168
 20
1650.446198
 30
0.0
 11
1321.753168
 21
1654.765233
 31
0.0
  0
ARC
  5
2EB2
100
AcDbEntity
  8
0
100
AcDbCircle
 10
1316.682168
 20
1634.572281
 30
0.0
 40
15.0
100
AcDbArc
 50
90.346531
 51
180.0
  0
LINE
  5
2EB3
100
AcDbEntity
  8
0
100
AcDbLine
 10
1320.86043
 20
1649.572006
 30
0.0
 11
1321.753168
 21
1650.446198
 31
0.0
  0
LINE
  5
2EB4
100
AcDbEntity
  8
0
100
AcDbLine
 10
1315.968558
 20
1664.784471
 30
0.0
 11
1315.968558
 21
1679.480624
 31
0.0
  0
LINE
  5
2EB5
100
AcDbEntity
  8
0
100
AcDbLine
 10
1326.360863
 20
1664.784471
 30
0.0
 11
1326.360863
 21
1679.480624
 31
0.0
  0
ARC
  5
2EB6
100
AcDbEntity
  8
0
100
AcDbCircle
 10
1321.164711
 20
1670.287081
 30
0.0
 40
7.56827
100
AcDbArc
 50
226.640741
 51
313.359259
  0
LINE
  5
2EB7
100
AcDbEntity
  8
0
100
AcDbLine
 10
1321.753168
 20
1654.765233
 30
0.0
 11
1315.968558
 21
1664.784471
 31
0.0
  0
LINE
  5
2EB8
100
AcDbEntity
  8
0
100
AcDbLine
 10
1315.968558
 20
1679.480624
 30
0.0
 11
1319.253168
 21
1682.765233
 31
0.0
  0
ARC
  5
2EB9
100
AcDbEntity
  8
0
100
AcDbCircle
 10
1321.164711
 20
1673.978014
 30
0.0
 40
7.56827
100
AcDbArc
 50
46.640741
 51
133.359259
  0
LINE
  5
2EBA
100
AcDbEntity
  8
0
100
AcDbLine
 10
1336.753168
 20
1682.765233
 30
0.0
 11
1319.253168
 21
1682.765233
 31
0.0
  0
LINE
  5
2EBB
100
AcDbEntity
  8
0
100
AcDbLine
 10
1351.753168
 20
1650.446198
 30
0.0
 11
1351.753168
 21
1654.765233
 31
0.0
  0
LINE
  5
2EBC
100
AcDbEntity
  8
0
100
AcDbLine
 10
1384.701566
 20
1645.178608
 30
0.0
 11
1406.063071
 21
1623.817103
 31
0.0
  0
LINE
  5
2EBD
100
AcDbEntity
  8
0
100
AcDbLine
 10
1352.645906
 20
1649.572006
 30
0.0
 11
1351.753168
 21
1650.446198
 31
0.0
  0
ARC
  5
2EBE
100
AcDbEntity
  8
0
100
AcDbCircle
 10
1374.094965
 20
1634.572006
 30
0.0
 40
15.0
100
AcDbArc
 50
45.0
 51
90.0
  0
ARC
  5
2EBF
100
AcDbEntity
  8
0
100
AcDbCircle
 10
1397.224236
 20
1614.978269
 30
0.0
 40
12.5
100
AcDbArc
 50
1.054778
 51
45.0
  0
LINE
  5
2EC0
100
AcDbEntity
  8
0
100
AcDbLine
 10
1347.145473
 20
1664.784471
 30
0.0
 11
1347.145473
 21
1679.480624
 31
0.0
  0
LINE
  5
2EC1
100
AcDbEntity
  8
0
100
AcDbLine
 10
1357.537778
 20
1664.784471
 30
0.0
 11
1357.537778
 21
1679.480624
 31
0.0
  0
ARC
  5
2EC2
100
AcDbEntity
  8
0
100
AcDbCircle
 10
1352.341625
 20
1670.287081
 30
0.0
 40
7.56827
100
AcDbArc
 50
226.640741
 51
313.359259
  0
LINE
  5
2EC3
100
AcDbEntity
  8
0
100
AcDbLine
 10
1351.753168
 20
1654.765233
 30
0.0
 11
1357.537778
 21
1664.784471
 31
0.0
  0
ARC
  5
2EC4
100
AcDbEntity
  8
0
100
AcDbCircle
 10
1352.341625
 20
1673.978014
 30
0.0
 40
7.56827
100
AcDbArc
 50
46.640741
 51
133.359259
  0
LINE
  5
2EC5
100
AcDbEntity
  8
0
100
AcDbLine
 10
1357.537778
 20
1679.480624
 30
0.0
 11
1354.253168
 21
1682.765233
 31
0.0
  0
LINE
  5
2EC6
100
AcDbEntity
  8
0
100
AcDbLine
 10
2263.193983
 20
835.769782
 30
0.0
 11
2284.555487
 21
814.408277
 31
0.0
  0
LINE
  5
2EC7
100
AcDbEntity
  8
0
100
AcDbLine
 10
2263.194983
 20
723.956578
 30
0.0
 11
2284.539943
 21
745.301538
 31
0.0
  0
ARC
  5
2EE1
100
AcDbEntity
  8
0
100
AcDbCircle
 10
1546.733915
 20
336.612298
 30
0.0
 40
15.0
100
AcDbArc
 50
0.0
 51
89.653469
  0
ARC
  5
2EE2
100
AcDbEntity
  8
0
100
AcDbCircle
 10
1546.733915
 20
246.011268
 30
0.0
 40
15.0
100
AcDbArc
 50
270.575033
 51
0.0
  0
LINE
  5
2EE3
100
AcDbEntity
  8
0
100
AcDbLine
 10
1453.707393
 20
246.011268
 30
0.0
 11
1453.707393
 21
336.612298
 31
0.0
  0
LINE
  5
2EE5
100
AcDbEntity
  8
0
100
AcDbLine
 10
1546.884456
 20
231.012023
 30
0.0
 11
1468.556852
 21
231.012023
 31
0.0
  0
ARC
  5
2EE6
100
AcDbEntity
  8
0
100
AcDbCircle
 10
1468.707393
 20
246.011268
 30
0.0
 40
15.0
100
AcDbArc
 50
180.0
 51
269.424967
  0
LINE
  5
2EE9
100
AcDbEntity
  8
0
100
AcDbLine
 10
1522.720654
 20
353.053109
 30
0.0
 11
1492.720654
 21
353.053109
 31
0.0
  0
LINE
  5
2EEA
100
AcDbEntity
  8
0
100
AcDbLine
 10
1546.824636
 20
351.612023
 30
0.0
 11
1468.616672
 21
351.612023
 31
0.0
  0
ARC
  5
2EEB
100
AcDbEntity
  8
0
100
AcDbCircle
 10
1468.707393
 20
336.612298
 30
0.0
 40
15.0
100
AcDbArc
 50
90.346531
 51
180.0
  0
LINE
  5
2EEC
100
AcDbEntity
  8
0
100
AcDbLine
 10
1492.720654
 20
353.053109
 30
0.0
 11
1491.38309
 21
351.612023
 31
0.0
  0
LINE
  5
2EED
100
AcDbEntity
  8
0
100
AcDbLine
 10
1522.720654
 20
353.053109
 30
0.0
 11
1524.058218
 21
351.612023
 31
0.0
  0
LINE
  5
2EEE
100
AcDbEntity
  8
0
100
AcDbLine
 10
1561.733915
 20
246.011268
 30
0.0
 11
1561.733915
 21
336.612298
 31
0.0
  0
ARC
  5
2EEF
100
AcDbEntity
  8
0
100
AcDbCircle
 10
2040.840834
 20
263.118637
 30
0.0
 40
90.0
100
AcDbArc
 50
60.387001
 51
79.480225
  0
ARC
  5
2EF0
100
AcDbEntity
  8
0
100
AcDbCircle
 10
2040.824137
 20
319.4899
 30
0.0
 40
90.0
100
AcDbArc
 50
280.531234
 51
299.61915
  0
ARC
  5
2EF4
100
AcDbEntity
  8
0
100
AcDbCircle
 10
2036.92721
 20
319.4899
 30
0.0
 40
90.0
100
AcDbArc
 50
240.389392
 51
259.468766
  0
LINE
  5
2EFB
100
AcDbEntity
  8
0
100
AcDbLine
 10
2057.273573
 20
231.005912
 30
0.0
 11
2020.477774
 21
231.005912
 31
0.0
  0
LINE
  5
2EFC
100
AcDbEntity
  8
0
100
AcDbLine
 10
2021.875673
 20
228.09937
 30
0.0
 11
2055.875673
 21
228.09937
 31
0.0
  0
ARC
  5
2EFD
100
AcDbEntity
  8
0
100
AcDbCircle
 10
2027.287165
 20
234.623304
 30
0.0
 40
8.4762
100
AcDbArc
 50
203.927582
 51
230.324874
  0
ARC
  5
2EFE
100
AcDbEntity
  8
0
100
AcDbCircle
 10
2050.464181
 20
234.623304
 30
0.0
 40
8.4762
100
AcDbArc
 50
309.675126
 51
336.072418
  0
LINE
  5
2EFF
100
AcDbEntity
  8
0
100
AcDbLine
 10
1984.869498
 20
254.280705
 30
0.0
 11
1984.850079
 21
328.318415
 31
0.0
  0
ARC
  5
2F00
100
AcDbEntity
  8
0
100
AcDbCircle
 10
1999.869497
 20
254.28464
 30
0.0
 40
15.0
100
AcDbArc
 50
180.015028
 51
240.389392
  0
ARC
  5
2F01
100
AcDbEntity
  8
0
100
AcDbCircle
 10
2036.910513
 20
263.118637
 30
0.0
 40
90.0
100
AcDbArc
 50
100.519775
 51
119.612999
  0
ARC
  5
2F02
100
AcDbEntity
  8
0
100
AcDbCircle
 10
1999.850079
 20
328.32235
 30
0.0
 40
15.0
100
AcDbArc
 50
119.612999
 51
180.015028
  0
LINE
  5
2F03
100
AcDbEntity
  8
0
100
AcDbLine
 10
2057.272573
 20
351.605912
 30
0.0
 11
2020.478774
 21
351.605912
 31
0.0
  0
LINE
  5
2F04
100
AcDbEntity
  8
0
100
AcDbLine
 10
2021.875673
 20
354.512455
 30
0.0
 11
2055.875673
 21
354.512455
 31
0.0
  0
ARC
  5
2F05
100
AcDbEntity
  8
0
100
AcDbCircle
 10
2027.287165
 20
347.98852
 30
0.0
 40
8.4762
100
AcDbArc
 50
129.675126
 51
156.072434
  0
ARC
  5
2F06
100
AcDbEntity
  8
0
100
AcDbCircle
 10
2050.464181
 20
347.98852
 30
0.0
 40
8.4762
100
AcDbArc
 50
23.927566
 51
50.324874
  0
LINE
  5
2F07
100
AcDbEntity
  8
0
100
AcDbLine
 10
2167.296186
 20
235.39931
 30
0.0
 11
2145.951227
 21
256.74427
 31
0.0
  0
ARC
  5
2F08
100
AcDbEntity
  8
0
100
AcDbCircle
 10
2235.316585
 20
246.005157
 30
0.0
 40
15.0
100
AcDbArc
 50
270.575033
 51
0.0
  0
ARC
  5
2F09
100
AcDbEntity
  8
0
100
AcDbCircle
 10
2177.902788
 20
246.005912
 30
0.0
 40
15.0
100
AcDbArc
 50
225.0
 51
270.0
  0
TEXT
  5
2F0F
100
AcDbEntity
  8
0
100
AcDbText
 10
2190.862375
 20
129.403159
 30
0.0
 40
20.0
  1
25A
 41
0.8
 11
2190.862375
 21
129.403159
 31
0.0
100
AcDbText
 73
     1
  0
LINE
  5
2F10
100
AcDbEntity
  8
0
100
AcDbLine
 10
2232.245585
 20
228.09937
 30
0.0
 11
2198.245585
 21
228.09937
 31
0.0
  0
LINE
  5
2F11
100
AcDbEntity
  8
0
100
AcDbLine
 10
2235.467125
 20
231.005912
 30
0.0
 11
2177.902788
 21
231.005912
 31
0.0
  0
ARC
  5
2F15
100
AcDbEntity
  8
0
100
AcDbCircle
 10
2203.657077
 20
234.623304
 30
0.0
 40
8.4762
100
AcDbArc
 50
205.262779
 51
230.324874
  0
ARC
  5
2F19
100
AcDbEntity
  8
0
100
AcDbCircle
 10
2226.834093
 20
234.623304
 30
0.0
 40
8.4762
100
AcDbArc
 50
309.675126
 51
334.754598
  0
ARC
  5
2F1A
100
AcDbEntity
  8
0
100
AcDbCircle
 10
2177.903788
 20
336.605912
 30
0.0
 40
15.0
100
AcDbArc
 50
90.0
 51
135.0
  0
LINE
  5
2F1B
100
AcDbEntity
  8
0
100
AcDbLine
 10
2142.291599
 20
265.387036
 30
0.0
 11
2142.277982
 21
317.30648
 31
0.0
  0
LINE
  5
2F1C
100
AcDbEntity
  8
0
100
AcDbLine
 10
2092.89157
 20
254.290165
 30
0.0
 11
2092.89157
 21
328.861637
 31
0.0
  0
ARC
  5
2F1D
100
AcDbEntity
  8
0
100
AcDbCircle
 10
2077.89157
 20
254.290165
 30
0.0
 40
15.0
100
AcDbArc
 50
299.61915
 51
0.0
  0
ARC
  5
2F1E
100
AcDbEntity
  8
0
100
AcDbCircle
 10
2154.790061
 20
265.583105
 30
0.0
 40
12.5
100
AcDbArc
 50
180.019649
 51
225.0
  0
ARC
  5
2F1F
100
AcDbEntity
  8
0
100
AcDbCircle
 10
2077.901268
 20
328.32235
 30
0.0
 40
15.0
100
AcDbArc
 50
359.984972
 51
60.387001
  0
LINE
  5
2F20
100
AcDbEntity
  8
0
100
AcDbLine
 10
2167.297186
 20
347.212514
 30
0.0
 11
2145.935682
 21
325.851009
 31
0.0
  0
ARC
  5
2F21
100
AcDbEntity
  8
0
100
AcDbCircle
 10
2154.774517
 20
317.012174
 30
0.0
 40
12.5
100
AcDbArc
 50
135.0
 51
178.945222
  0
LINE
  5
2F22
100
AcDbEntity
  8
0
100
AcDbLine
 10
2250.316585
 20
246.005157
 30
0.0
 11
2250.316585
 21
336.606187
 31
0.0
  0
LINE
  5
2F23
100
AcDbEntity
  8
0
100
AcDbLine
 10
2235.407306
 20
351.605912
 30
0.0
 11
2177.903788
 21
351.605912
 31
0.0
  0
LINE
  5
2F24
100
AcDbEntity
  8
0
100
AcDbLine
 10
2232.245585
 20
354.512455
 30
0.0
 11
2198.245585
 21
354.512455
 31
0.0
  0
ARC
  5
2F25
100
AcDbEntity
  8
0
100
AcDbCircle
 10
2203.657077
 20
347.98852
 30
0.0
 40
8.4762
100
AcDbArc
 50
129.675126
 51
154.737221
  0
ARC
  5
2F26
100
AcDbEntity
  8
0
100
AcDbCircle
 10
2235.316585
 20
336.606187
 30
0.0
 40
15.0
100
AcDbArc
 50
0.0
 51
89.653469
  0
ARC
  5
2F27
100
AcDbEntity
  8
0
100
AcDbCircle
 10
2226.834093
 20
347.98852
 30
0.0
 40
8.4762
100
AcDbArc
 50
25.245402
 51
50.324874
  0
ELLIPSE
  5
2F42
100
AcDbEntity
  8
0
100
AcDbEllipse
 10
2156.623706
 20
560.775831
 30
0.0
 11
-0.0000000000000028
 21
-15.08777685472523
 31
0.0
210
0.0
220
0.0
230
-1.0
 40
0.707359
 41
0.4871707940994389
 42
2.654421859490473
  0
ARC
  5
2F44
100
AcDbEntity
  8
0
100
AcDbCircle
 10
2196.303323
 20
560.775831
 30
0.0
 40
54.013261
100
AcDbArc
 50
117.623103
 51
242.376897
  0
LINE
  5
2F4A
100
AcDbEntity
  8
0
100
AcDbLine
 10
2215.89565
 20
467.593574
 30
0.0
 11
2206.442275
 21
477.046949
 31
0.0
  0
LINE
  5
2F4B
100
AcDbEntity
  8
0
100
AcDbLine
 10
2206.442275
 20
477.046949
 30
0.0
 11
2206.442275
 21
448.686824
 31
0.0
  0
LINE
  5
2F4E
100
AcDbEntity
  8
0
100
AcDbLine
 10
2206.442275
 20
429.984261
 30
0.0
 11
2215.89565
 21
420.325011
 31
0.0
  0
LINE
  5
2F4F
100
AcDbEntity
  8
0
100
AcDbLine
 10
2215.89565
 20
420.325011
 30
0.0
 11
2215.89565
 21
467.593574
 31
0.0
  0
LINE
  5
2F50
100
AcDbEntity
  8
0
100
AcDbLine
 10
2211.168963
 20
443.958449
 30
0.0
 11
2211.168963
 21
429.984261
 31
0.0
  0
LINE
  5
2F51
100
AcDbEntity
  8
0
100
AcDbLine
 10
2211.168963
 20
429.984261
 30
0.0
 11
2206.442275
 21
429.984261
 31
0.0
  0
LINE
  5
2F52
100
AcDbEntity
  8
0
100
AcDbLine
 10
2206.442275
 20
448.686824
 30
0.0
 11
2211.168963
 21
443.958449
 31
0.0
  0
LINE
  5
2F63
100
AcDbEntity
  8
0
100
AcDbLine
 10
2180.174585
 20
734.562425
 30
0.0
 11
2180.174585
 21
825.163454
 31
0.0
  0
LINE
  5
2F64
100
AcDbEntity
  8
0
100
AcDbLine
 10
2198.245585
 20
716.656637
 30
0.0
 11
2232.245585
 21
716.656637
 31
0.0
  0
LINE
  5
2F65
100
AcDbEntity
  8
0
100
AcDbLine
 10
2195.024044
 20
719.56318
 30
0.0
 11
2252.588381
 21
719.56318
 31
0.0
  0
ARC
  5
2F66
100
AcDbEntity
  8
0
100
AcDbCircle
 10
2195.174585
 20
734.562425
 30
0.0
 40
15.0
100
AcDbArc
 50
180.0
 51
269.424967
  0
ARC
  5
2F67
100
AcDbEntity
  8
0
100
AcDbCircle
 10
2203.657077
 20
723.180572
 30
0.0
 40
8.4762
100
AcDbArc
 50
205.245402
 51
230.324874
  0
ARC
  5
2F68
100
AcDbEntity
  8
0
100
AcDbCircle
 10
2226.834093
 20
723.180572
 30
0.0
 40
8.4762
100
AcDbArc
 50
309.675126
 51
334.737221
  0
ARC
  5
2F69
100
AcDbEntity
  8
0
100
AcDbCircle
 10
2252.588381
 20
734.56318
 30
0.0
 40
15.0
100
AcDbArc
 50
270.0
 51
315.0
  0
LINE
  5
2F6A
100
AcDbEntity
  8
0
100
AcDbLine
 10
2198.245585
 20
843.069723
 30
0.0
 11
2232.245585
 21
843.069723
 31
0.0
  0
LINE
  5
2F6B
100
AcDbEntity
  8
0
100
AcDbLine
 10
2195.083864
 20
840.16318
 30
0.0
 11
2252.587381
 21
840.16318
 31
0.0
  0
ARC
  5
2F6C
100
AcDbEntity
  8
0
100
AcDbCircle
 10
2203.657077
 20
836.545788
 30
0.0
 40
8.4762
100
AcDbArc
 50
129.675126
 51
154.754598
  0
ARC
  5
2F6D
100
AcDbEntity
  8
0
100
AcDbCircle
 10
2195.174585
 20
825.163454
 30
0.0
 40
15.0
100
AcDbArc
 50
90.346531
 51
180.0
  0
ARC
  5
2F6E
100
AcDbEntity
  8
0
100
AcDbCircle
 10
2226.834093
 20
836.545788
 30
0.0
 40
8.4762
100
AcDbArc
 50
25.262779
 51
50.324874
  0
ARC
  5
2F6F
100
AcDbEntity
  8
0
100
AcDbCircle
 10
2252.587381
 20
825.16318
 30
0.0
 40
15.0
100
AcDbArc
 50
45.0
 51
90.0
  0
ARC
  5
2F7A
100
AcDbEntity
  8
0
100
AcDbCircle
 10
2430.628757
 20
246.005157
 30
0.0
 40
15.0
100
AcDbArc
 50
270.575033
 51
0.0
  0
ARC
  5
2F7B
100
AcDbEntity
  8
0
100
AcDbCircle
 10
2352.602235
 20
246.005157
 30
0.0
 40
15.0
100
AcDbArc
 50
180.0
 51
269.424967
  0
LINE
  5
2F7C
100
AcDbEntity
  8
0
100
AcDbLine
 10
2430.779298
 20
231.005912
 30
0.0
 11
2352.451694
 21
231.005912
 31
0.0
  0
LINE
  5
2F7D
100
AcDbEntity
  8
0
100
AcDbLine
 10
2408.615496
 20
228.09937
 30
0.0
 11
2374.615496
 21
228.09937
 31
0.0
  0
ARC
  5
2F85
100
AcDbEntity
  8
0
100
AcDbCircle
 10
2380.026988
 20
234.623304
 30
0.0
 40
8.4762
100
AcDbArc
 50
205.262779
 51
230.324874
  0
ARC
  5
2F88
100
AcDbEntity
  8
0
100
AcDbCircle
 10
2403.204004
 20
234.623304
 30
0.0
 40
8.4762
100
AcDbArc
 50
309.675126
 51
334.754598
  0
LINE
  5
2F8A
100
AcDbEntity
  8
0
100
AcDbLine
 10
2430.719478
 20
351.605912
 30
0.0
 11
2352.511514
 21
351.605912
 31
0.0
  0
LINE
  5
2F8B
100
AcDbEntity
  8
0
100
AcDbLine
 10
2408.615496
 20
354.512455
 30
0.0
 11
2374.615496
 21
354.512455
 31
0.0
  0
LINE
  5
2F8C
100
AcDbEntity
  8
0
100
AcDbLine
 10
2337.602235
 20
246.005157
 30
0.0
 11
2337.602235
 21
336.606187
 31
0.0
  0
ARC
  5
2F8D
100
AcDbEntity
  8
0
100
AcDbCircle
 10
2352.602235
 20
336.606187
 30
0.0
 40
15.0
100
AcDbArc
 50
90.346531
 51
180.0
  0
ARC
  5
2F8E
100
AcDbEntity
  8
0
100
AcDbCircle
 10
2380.026988
 20
347.98852
 30
0.0
 40
8.4762
100
AcDbArc
 50
129.675126
 51
154.737221
  0
LINE
  5
2F8F
100
AcDbEntity
  8
0
100
AcDbLine
 10
2445.628757
 20
246.005157
 30
0.0
 11
2445.628757
 21
336.606187
 31
0.0
  0
ARC
  5
2F90
100
AcDbEntity
  8
0
100
AcDbCircle
 10
2430.628757
 20
336.606187
 30
0.0
 40
15.0
100
AcDbArc
 50
0.0
 51
89.653469
  0
ARC
  5
2F91
100
AcDbEntity
  8
0
100
AcDbCircle
 10
2403.204004
 20
347.98852
 30
0.0
 40
8.4762
100
AcDbArc
 50
25.245402
 51
50.324874
  0
LINE
  5
2F9A
100
AcDbEntity
  8
0
100
AcDbLine
 10
2288.19957
 20
753.944304
 30
0.0
 11
2288.213188
 21
805.863748
 31
0.0
  0
ARC
  5
2F9B
100
AcDbEntity
  8
0
100
AcDbCircle
 10
2275.701108
 20
754.140373
 30
0.0
 40
12.5
100
AcDbArc
 50
315.0
 51
359.980351
  0
ARC
  5
2F9C
100
AcDbEntity
  8
0
100
AcDbCircle
 10
2275.716653
 20
805.569442
 30
0.0
 40
12.5
100
AcDbArc
 50
1.054778
 51
45.0
  0
ARC
  5
2F9D
100
AcDbEntity
  8
0
100
AcDbCircle
 10
2285.841803
 20
1634.572281
 30
0.0
 40
15.0
100
AcDbArc
 50
90.346531
 51
180.0
  0
ARC
  5
2F9E
100
AcDbEntity
  8
0
100
AcDbCircle
 10
2285.841803
 20
1543.971251
 30
0.0
 40
15.0
100
AcDbArc
 50
180.0
 51
269.424967
  0
LINE
  5
2F9F
100
AcDbEntity
  8
0
100
AcDbLine
 10
2326.074524
 20
1229.819166
 30
0.0
 11
2268.571007
 21
1229.819166
 31
0.0
  0
LINE
  5
2FA0
100
AcDbEntity
  8
0
100
AcDbLine
 10
2326.134344
 20
1109.219166
 30
0.0
 11
2268.570007
 21
1109.219166
 31
0.0
  0
CIRCLE
  5
2FA1
100
AcDbEntity
  8
0
100
AcDbCircle
 10
2286.970542
 20
1404.419322
 30
0.0
 40
54.013261
  0
LINE
  5
2FA2
100
AcDbEntity
  8
0
100
AcDbLine
 10
2270.841803
 20
1543.971251
 30
0.0
 11
2270.841803
 21
1634.572281
 31
0.0
  0
LINE
  5
2FA3
100
AcDbEntity
  8
0
100
AcDbLine
 10
1518.898273
 20
1124.218411
 30
0.0
 11
1518.898273
 21
1214.81944
 31
0.0
  0
LINE
  5
2FA4
100
AcDbEntity
  8
0
100
AcDbLine
 10
1479.885011
 20
1104.025458
 30
0.0
 11
1482.885011
 21
1094.00622
 31
0.0
  0
LINE
  5
2FA5
100
AcDbEntity
  8
0
100
AcDbLine
 10
1449.885011
 20
1104.025458
 30
0.0
 11
1446.885011
 21
1094.00622
 31
0.0
  0
ARC
  5
2FA6
100
AcDbEntity
  8
0
100
AcDbCircle
 10
1473.885011
 20
1075.201366
 30
0.0
 40
20.847602
100
AcDbArc
 50
64.424231
 51
115.575769
  0
ARC
  5
2FA7
100
AcDbEntity
  8
0
100
AcDbCircle
 10
1473.885011
 20
1098.114921
 30
0.0
 40
20.847602
100
AcDbArc
 50
244.424231
 51
295.575769
  0
LINE
  5
2FA8
100
AcDbEntity
  8
0
100
AcDbLine
 10
1464.885011
 20
1076.025458
 30
0.0
 11
1482.385011
 21
1076.025458
 31
0.0
  0
ARC
  5
2FA9
100
AcDbEntity
  8
0
100
AcDbCircle
 10
1455.885011
 20
1075.201366
 30
0.0
 40
20.847602
100
AcDbArc
 50
64.424231
 51
115.575769
  0
LINE
  5
2FAA
100
AcDbEntity
  8
0
100
AcDbLine
 10
1446.885011
 20
1079.310067
 30
0.0
 11
1447.385011
 21
1076.025458
 31
0.0
  0
ARC
  5
2FAB
100
AcDbEntity
  8
0
100
AcDbCircle
 10
1455.885011
 20
1098.114921
 30
0.0
 40
20.847602
100
AcDbArc
 50
244.424231
 51
295.575769
  0
LINE
  5
2FAC
100
AcDbEntity
  8
0
100
AcDbLine
 10
1447.385011
 20
1076.025458
 30
0.0
 11
1464.885011
 21
1076.025458
 31
0.0
  0
LINE
  5
2FAD
100
AcDbEntity
  8
0
100
AcDbLine
 10
1464.885011
 20
1094.00622
 30
0.0
 11
1464.885011
 21
1079.310067
 31
0.0
  0
LINE
  5
2FAE
100
AcDbEntity
  8
0
100
AcDbLine
 10
1446.885011
 20
1094.00622
 30
0.0
 11
1446.885011
 21
1079.310067
 31
0.0
  0
LINE
  5
2FAF
100
AcDbEntity
  8
0
100
AcDbLine
 10
1482.885011
 20
1079.310067
 30
0.0
 11
1482.385011
 21
1076.025458
 31
0.0
  0
LINE
  5
2FB0
100
AcDbEntity
  8
0
100
AcDbLine
 10
1482.885011
 20
1094.00622
 30
0.0
 11
1482.885011
 21
1079.310067
 31
0.0
  0
LINE
  5
2FB1
100
AcDbEntity
  8
0
100
AcDbLine
 10
1449.885011
 20
1104.025458
 30
0.0
 11
1479.885011
 21
1104.025458
 31
0.0
  0
LINE
  5
2FB2
100
AcDbEntity
  8
0
100
AcDbLine
 10
1479.885011
 20
1108.344493
 30
0.0
 11
1449.885011
 21
1108.344493
 31
0.0
  0
LINE
  5
2FB3
100
AcDbEntity
  8
0
100
AcDbLine
 10
1449.885011
 20
1108.344493
 30
0.0
 11
1449.885011
 21
1104.025458
 31
0.0
  0
LINE
  5
2FB4
100
AcDbEntity
  8
0
100
AcDbLine
 10
1448.992274
 20
1109.218685
 30
0.0
 11
1449.885011
 21
1108.344493
 31
0.0
  0
LINE
  5
2FB5
100
AcDbEntity
  8
0
100
AcDbLine
 10
1479.885011
 20
1108.344493
 30
0.0
 11
1479.885011
 21
1104.025458
 31
0.0
  0
LINE
  5
2FB6
100
AcDbEntity
  8
0
100
AcDbLine
 10
1480.777749
 20
1109.218685
 30
0.0
 11
1479.885011
 21
1108.344493
 31
0.0
  0
ARC
  5
2FB7
100
AcDbEntity
  8
0
100
AcDbCircle
 10
1503.898273
 20
1124.218411
 30
0.0
 40
15.0
100
AcDbArc
 50
270.575033
 51
0.0
  0
LINE
  5
2FB8
100
AcDbEntity
  8
0
100
AcDbLine
 10
1482.885011
 20
1245.031631
 30
0.0
 11
1482.885011
 21
1259.727783
 31
0.0
  0
LINE
  5
2FB9
100
AcDbEntity
  8
0
100
AcDbLine
 10
1464.885011
 20
1245.031631
 30
0.0
 11
1464.885011
 21
1259.727783
 31
0.0
  0
LINE
  5
2FBA
100
AcDbEntity
  8
0
100
AcDbLine
 10
1446.885011
 20
1245.031631
 30
0.0
 11
1446.885011
 21
1259.727783
 31
0.0
  0
LINE
  5
2FBB
100
AcDbEntity
  8
0
100
AcDbLine
 10
1479.885011
 20
1230.693358
 30
0.0
 11
1449.885011
 21
1230.693358
 31
0.0
  0
LINE
  5
2FBC
100
AcDbEntity
  8
0
100
AcDbLine
 10
1449.885011
 20
1235.012393
 30
0.0
 11
1479.885011
 21
1235.012393
 31
0.0
  0
ARC
  5
2FBD
100
AcDbEntity
  8
0
100
AcDbCircle
 10
1473.885011
 20
1263.836485
 30
0.0
 40
20.847602
100
AcDbArc
 50
244.424231
 51
295.575769
  0
LINE
  5
2FBE
100
AcDbEntity
  8
0
100
AcDbLine
 10
1448.992274
 20
1229.819166
 30
0.0
 11
1449.885011
 21
1230.693358
 31
0.0
  0
LINE
  5
2FBF
100
AcDbEntity
  8
0
100
AcDbLine
 10
1449.885011
 20
1230.693358
 30
0.0
 11
1449.885011
 21
1235.012393
 31
0.0
  0
LINE
  5
2FC0
100
AcDbEntity
  8
0
100
AcDbLine
 10
1449.885011
 20
1235.012393
 30
0.0
 11
1446.885011
 21
1245.031631
 31
0.0
  0
ARC
  5
2FC1
100
AcDbEntity
  8
0
100
AcDbCircle
 10
1455.885011
 20
1263.836485
 30
0.0
 40
20.847602
100
AcDbArc
 50
244.424231
 51
295.575769
  0
LINE
  5
2FC2
100
AcDbEntity
  8
0
100
AcDbLine
 10
1480.777749
 20
1229.819166
 30
0.0
 11
1479.885011
 21
1230.693358
 31
0.0
  0
LINE
  5
2FC3
100
AcDbEntity
  8
0
100
AcDbLine
 10
1479.885011
 20
1230.693358
 30
0.0
 11
1479.885011
 21
1235.012393
 31
0.0
  0
LINE
  5
2FC4
100
AcDbEntity
  8
0
100
AcDbLine
 10
1479.885011
 20
1235.012393
 30
0.0
 11
1482.885011
 21
1245.031631
 31
0.0
  0
LINE
  5
2FC5
100
AcDbEntity
  8
0
100
AcDbLine
 10
1464.885011
 20
1263.012393
 30
0.0
 11
1482.385011
 21
1263.012393
 31
0.0
  0
ARC
  5
2FC6
100
AcDbEntity
  8
0
100
AcDbCircle
 10
1473.885011
 20
1240.92293
 30
0.0
 40
20.847602
100
AcDbArc
 50
64.424231
 51
115.575769
  0
LINE
  5
2FC7
100
AcDbEntity
  8
0
100
AcDbLine
 10
1447.385011
 20
1263.012393
 30
0.0
 11
1464.885011
 21
1263.012393
 31
0.0
  0
ARC
  5
2FC8
100
AcDbEntity
  8
0
100
AcDbCircle
 10
1455.885011
 20
1240.92293
 30
0.0
 40
20.847602
100
AcDbArc
 50
64.424231
 51
115.575769
  0
LINE
  5
2FC9
100
AcDbEntity
  8
0
100
AcDbLine
 10
1446.885011
 20
1259.727783
 30
0.0
 11
1447.385011
 21
1263.012393
 31
0.0
  0
LINE
  5
2FCA
100
AcDbEntity
  8
0
100
AcDbLine
 10
1482.885011
 20
1259.727783
 30
0.0
 11
1482.385011
 21
1263.012393
 31
0.0
  0
ARC
  5
2FCB
100
AcDbEntity
  8
0
100
AcDbCircle
 10
1503.898273
 20
1214.81944
 30
0.0
 40
15.0
100
AcDbArc
 50
0.0
 51
89.653469
  0
ARC
  5
2FCC
100
AcDbEntity
  8
0
100
AcDbCircle
 10
2245.45728
 20
1143.796359
 30
0.0
 40
12.5
100
AcDbArc
 50
180.019649
 51
225.0
  0
LINE
  5
2FCD
100
AcDbEntity
  8
0
100
AcDbLine
 10
2187.593543
 20
1132.503419
 30
0.0
 11
2187.593543
 21
1207.074891
 31
0.0
  0
LINE
  5
2FCE
100
AcDbEntity
  8
0
100
AcDbLine
 10
2079.57147
 20
1132.493959
 30
0.0
 11
2079.552051
 21
1206.531669
 31
0.0
  0
ARC
  5
2FCF
100
AcDbEntity
  8
0
100
AcDbCircle
 10
2135.526109
 20
1197.703154
 30
0.0
 40
90.0
100
AcDbArc
 50
280.531234
 51
299.61915
  0
LINE
  5
2FD0
100
AcDbEntity
  8
0
100
AcDbLine
 10
2151.975545
 20
1109.219166
 30
0.0
 11
2115.179746
 21
1109.219166
 31
0.0
  0
LINE
  5
2FD1
100
AcDbEntity
  8
0
100
AcDbLine
 10
2118.577646
 20
1107.401759
 30
0.0
 11
2148.577646
 21
1107.401759
 31
0.0
  0
LINE
  5
2FD2
100
AcDbEntity
  8
0
100
AcDbLine
 10
2118.577646
 20
1104.018785
 30
0.0
 11
2148.577646
 21
1104.018785
 31
0.0
  0
ARC
  5
2FD3
100
AcDbEntity
  8
0
100
AcDbCircle
 10
2123.327646
 20
1074.020967
 30
0.0
 40
18.149941
100
AcDbArc
 50
55.615753
 51
124.384247
  0
LINE
  5
2FD4
100
AcDbEntity
  8
0
100
AcDbLine
 10
2113.577646
 20
1070.518785
 30
0.0
 11
2133.577646
 21
1070.518785
 31
0.0
  0
ARC
  5
2FD5
100
AcDbEntity
  8
0
100
AcDbCircle
 10
2123.327646
 20
1089.168726
 30
0.0
 40
18.149941
100
AcDbArc
 50
235.615753
 51
304.384247
  0
LINE
  5
2FD6
100
AcDbEntity
  8
0
100
AcDbLine
 10
2118.577646
 20
1104.018785
 30
0.0
 11
2118.577646
 21
1107.451859
 31
0.0
  0
LINE
  5
2FD7
100
AcDbEntity
  8
0
100
AcDbLine
 10
2113.077646
 20
1088.999547
 30
0.0
 11
2113.077646
 21
1074.190146
 31
0.0
  0
LINE
  5
2FD8
100
AcDbEntity
  8
0
100
AcDbLine
 10
2113.077646
 20
1074.190146
 30
0.0
 11
2113.577646
 21
1070.518785
 31
0.0
  0
LINE
  5
2FD9
100
AcDbEntity
  8
0
100
AcDbLine
 10
2113.077646
 20
1088.999547
 30
0.0
 11
2118.577646
 21
1104.018785
 31
0.0
  0
ARC
  5
2FDA
100
AcDbEntity
  8
0
100
AcDbCircle
 10
2131.629182
 20
1197.703154
 30
0.0
 40
90.0
100
AcDbArc
 50
240.389392
 51
259.468766
  0
ARC
  5
2FDB
100
AcDbEntity
  8
0
100
AcDbCircle
 10
2094.57147
 20
1132.497893
 30
0.0
 40
15.0
100
AcDbArc
 50
180.015028
 51
240.389392
  0
ARC
  5
2FDC
100
AcDbEntity
  8
0
100
AcDbCircle
 10
2120.507442
 20
1111.176971
 30
0.0
 40
4.239851
100
AcDbArc
 50
207.508231
 51
242.924993
  0
LINE
  5
2FDD
100
AcDbEntity
  8
0
100
AcDbLine
 10
2148.577646
 20
1104.018785
 30
0.0
 11
2148.577646
 21
1107.451859
 31
0.0
  0
ARC
  5
2FDE
100
AcDbEntity
  8
0
100
AcDbCircle
 10
2143.827646
 20
1074.020967
 30
0.0
 40
18.149941
100
AcDbArc
 50
55.615753
 51
124.384247
  0
LINE
  5
2FDF
100
AcDbEntity
  8
0
100
AcDbLine
 10
2133.577646
 20
1070.518785
 30
0.0
 11
2153.577646
 21
1070.518785
 31
0.0
  0
ARC
  5
2FE0
100
AcDbEntity
  8
0
100
AcDbCircle
 10
2143.827646
 20
1089.168726
 30
0.0
 40
18.149941
100
AcDbArc
 50
235.615753
 51
304.384247
  0
LINE
  5
2FE1
100
AcDbEntity
  8
0
100
AcDbLine
 10
2133.577646
 20
1088.999547
 30
0.0
 11
2133.577646
 21
1074.190146
 31
0.0
  0
LINE
  5
2FE2
100
AcDbEntity
  8
0
100
AcDbLine
 10
2154.077646
 20
1088.999547
 30
0.0
 11
2154.077646
 21
1074.190146
 31
0.0
  0
LINE
  5
2FE3
100
AcDbEntity
  8
0
100
AcDbLine
 10
2153.577646
 20
1070.518785
 30
0.0
 11
2154.077646
 21
1074.190146
 31
0.0
  0
LINE
  5
2FE4
100
AcDbEntity
  8
0
100
AcDbLine
 10
2154.077646
 20
1088.999547
 30
0.0
 11
2148.577646
 21
1104.018785
 31
0.0
  0
ARC
  5
2FE5
100
AcDbEntity
  8
0
100
AcDbCircle
 10
2146.64785
 20
1111.176971
 30
0.0
 40
4.239851
100
AcDbArc
 50
297.075007
 51
332.491769
  0
ARC
  5
2FE6
100
AcDbEntity
  8
0
100
AcDbCircle
 10
2172.593543
 20
1132.503419
 30
0.0
 40
15.0
100
AcDbArc
 50
299.61915
 51
0.0
  0
LINE
  5
2FE7
100
AcDbEntity
  8
0
100
AcDbLine
 10
2257.963405
 20
1113.612564
 30
0.0
 11
2236.618445
 21
1134.957524
 31
0.0
  0
ARC
  5
2FE8
100
AcDbEntity
  8
0
100
AcDbCircle
 10
2268.570007
 20
1124.219166
 30
0.0
 40
15.0
100
AcDbArc
 50
225.0
 51
270.0
  0
ARC
  5
2FE9
100
AcDbEntity
  8
0
100
AcDbCircle
 10
2135.542806
 20
1141.33189
 30
0.0
 40
90.0
100
AcDbArc
 50
60.387001
 51
79.480225
  0
ARC
  5
2FEA
100
AcDbEntity
  8
0
100
AcDbCircle
 10
2094.552051
 20
1206.535603
 30
0.0
 40
15.0
100
AcDbArc
 50
119.612999
 51
180.015028
  0
LINE
  5
2FEB
100
AcDbEntity
  8
0
100
AcDbLine
 10
2113.577646
 20
1268.519066
 30
0.0
 11
2133.577646
 21
1268.519066
 31
0.0
  0
LINE
  5
2FEC
100
AcDbEntity
  8
0
100
AcDbLine
 10
2151.974545
 20
1229.819166
 30
0.0
 11
2115.180746
 21
1229.819166
 31
0.0
  0
ARC
  5
2FED
100
AcDbEntity
  8
0
100
AcDbCircle
 10
2123.327646
 20
1249.869125
 30
0.0
 40
18.149941
100
AcDbArc
 50
55.615753
 51
124.384247
  0
ARC
  5
2FEE
100
AcDbEntity
  8
0
100
AcDbCircle
 10
2123.327646
 20
1265.016884
 30
0.0
 40
18.149941
100
AcDbArc
 50
235.615753
 51
304.384247
  0
LINE
  5
2FEF
100
AcDbEntity
  8
0
100
AcDbLine
 10
2118.577646
 20
1235.019066
 30
0.0
 11
2148.577646
 21
1235.019066
 31
0.0
  0
LINE
  5
2FF0
100
AcDbEntity
  8
0
100
AcDbLine
 10
2118.577646
 20
1231.636092
 30
0.0
 11
2148.577646
 21
1231.636092
 31
0.0
  0
LINE
  5
2FF1
100
AcDbEntity
  8
0
100
AcDbLine
 10
2113.077646
 20
1250.038304
 30
0.0
 11
2113.077646
 21
1264.847705
 31
0.0
  0
ARC
  5
2FF2
100
AcDbEntity
  8
0
100
AcDbCircle
 10
2131.612485
 20
1141.33189
 30
0.0
 40
90.0
100
AcDbArc
 50
100.519775
 51
119.612999
  0
LINE
  5
2FF3
100
AcDbEntity
  8
0
100
AcDbLine
 10
2113.077646
 20
1250.038304
 30
0.0
 11
2118.577646
 21
1235.019066
 31
0.0
  0
ARC
  5
2FF4
100
AcDbEntity
  8
0
100
AcDbCircle
 10
2120.507442
 20
1227.86088
 30
0.0
 40
4.239851
100
AcDbArc
 50
117.075007
 51
152.491769
  0
LINE
  5
2FF5
100
AcDbEntity
  8
0
100
AcDbLine
 10
2118.577646
 20
1235.019066
 30
0.0
 11
2118.577646
 21
1231.585992
 31
0.0
  0
LINE
  5
2FF6
100
AcDbEntity
  8
0
100
AcDbLine
 10
2113.077646
 20
1264.847705
 30
0.0
 11
2113.577646
 21
1268.519066
 31
0.0
  0
LINE
  5
2FF7
100
AcDbEntity
  8
0
100
AcDbLine
 10
2154.077646
 20
1250.038304
 30
0.0
 11
2154.077646
 21
1264.847705
 31
0.0
  0
LINE
  5
2FF8
100
AcDbEntity
  8
0
100
AcDbLine
 10
2133.577646
 20
1250.038304
 30
0.0
 11
2133.577646
 21
1264.847705
 31
0.0
  0
ARC
  5
2FF9
100
AcDbEntity
  8
0
100
AcDbCircle
 10
2143.827646
 20
1265.016884
 30
0.0
 40
18.149941
100
AcDbArc
 50
235.615753
 51
304.384247
  0
LINE
  5
2FFA
100
AcDbEntity
  8
0
100
AcDbLine
 10
2154.077646
 20
1250.038304
 30
0.0
 11
2148.577646
 21
1235.019066
 31
0.0
  0
ARC
  5
2FFB
100
AcDbEntity
  8
0
100
AcDbCircle
 10
2146.64785
 20
1227.86088
 30
0.0
 40
4.239851
100
AcDbArc
 50
27.508231
 51
62.924993
  0
LINE
  5
2FFC
100
AcDbEntity
  8
0
100
AcDbLine
 10
2148.577646
 20
1235.019066
 30
0.0
 11
2148.577646
 21
1231.585992
 31
0.0
  0
LINE
  5
2FFD
100
AcDbEntity
  8
0
100
AcDbLine
 10
2133.577646
 20
1268.519066
 30
0.0
 11
2153.577646
 21
1268.519066
 31
0.0
  0
ARC
  5
2FFE
100
AcDbEntity
  8
0
100
AcDbCircle
 10
2143.827646
 20
1249.869125
 30
0.0
 40
18.149941
100
AcDbArc
 50
55.615753
 51
124.384247
  0
LINE
  5
2FFF
100
AcDbEntity
  8
0
100
AcDbLine
 10
2153.577646
 20
1268.519066
 30
0.0
 11
2154.077646
 21
1264.847705
 31
0.0
  0
ARC
  5
3000
100
AcDbEntity
  8
0
100
AcDbCircle
 10
2172.60324
 20
1206.535603
 30
0.0
 40
15.0
100
AcDbArc
 50
359.984972
 51
60.387001
  0
LINE
  5
3001
100
AcDbEntity
  8
0
100
AcDbLine
 10
2257.964405
 20
1225.425768
 30
0.0
 11
2236.6029
 21
1204.064263
 31
0.0
  0
LINE
  5
3002
100
AcDbEntity
  8
0
100
AcDbLine
 10
2232.958818
 20
1143.60029
 30
0.0
 11
2232.9452
 21
1195.519734
 31
0.0
  0
ARC
  5
3003
100
AcDbEntity
  8
0
100
AcDbCircle
 10
2245.441735
 20
1195.225428
 30
0.0
 40
12.5
100
AcDbArc
 50
135.0
 51
178.945222
  0
ARC
  5
3004
100
AcDbEntity
  8
0
100
AcDbCircle
 10
2268.571007
 20
1214.819166
 30
0.0
 40
15.0
100
AcDbArc
 50
90.0
 51
135.0
  0
ELLIPSE
  5
3005
100
AcDbEntity
  8
0
100
AcDbEllipse
 10
2247.290925
 20
1404.419322
 30
0.0
 11
-0.0000000000000028
 21
-15.08777685472523
 31
0.0
210
0.0
220
0.0
230
-1.0
 40
0.707359
 41
0.0
 42
6.283185307179586
  0
LINE
  5
3006
100
AcDbEntity
  8
0
100
AcDbLine
 10
2378.866789
 20
1563.35313
 30
0.0
 11
2378.880406
 21
1615.272574
 31
0.0
  0
LINE
  5
3007
100
AcDbEntity
  8
0
100
AcDbLine
 10
2296.459428
 20
1301.270988
 30
0.0
 11
2301.186116
 21
1296.542613
 31
0.0
  0
LINE
  5
3008
100
AcDbEntity
  8
0
100
AcDbLine
 10
2305.912803
 20
1272.909176
 30
0.0
 11
2305.912803
 21
1320.177738
 31
0.0
  0
ARC
  5
3009
100
AcDbEntity
  8
0
100
AcDbCircle
 10
2480.20805
 20
1214.81944
 30
0.0
 40
15.0
100
AcDbArc
 50
0.0
 51
89.653469
  0
ARC
  5
300A
100
AcDbEntity
  8
0
100
AcDbCircle
 10
2480.20805
 20
1124.218411
 30
0.0
 40
15.0
100
AcDbArc
 50
270.575033
 51
0.0
  0
LINE
  5
300B
100
AcDbEntity
  8
0
100
AcDbLine
 10
2387.181527
 20
1124.218411
 30
0.0
 11
2387.181527
 21
1214.81944
 31
0.0
  0
LINE
  5
300C
100
AcDbEntity
  8
0
100
AcDbLine
 10
2340.983803
 20
1124.218411
 30
0.0
 11
2340.983803
 21
1214.81944
 31
0.0
  0
TEXT
  5
300D
100
AcDbEntity
  8
0
100
AcDbText
 10
2282.73052
 20
1030.70135
 30
0.0
 40
20.0
  1
25A
 41
0.8
 11
2282.73052
 21
1030.70135
 31
0.0
100
AcDbText
 73
     1
  0
ARC
  5
300E
100
AcDbEntity
  8
0
100
AcDbCircle
 10
2325.983803
 20
1124.218411
 30
0.0
 40
15.0
100
AcDbArc
 50
270.575033
 51
0.0
  0
LINE
  5
300F
100
AcDbEntity
  8
0
100
AcDbLine
 10
2320.956485
 20
1104.019266
 30
0.0
 11
2320.956485
 21
1107.40224
 31
0.0
  0
LINE
  5
3010
100
AcDbEntity
  8
0
100
AcDbLine
 10
2290.956485
 20
1104.019266
 30
0.0
 11
2290.956485
 21
1107.40224
 31
0.0
  0
LINE
  5
3011
100
AcDbEntity
  8
0
100
AcDbLine
 10
2320.956485
 20
1104.019266
 30
0.0
 11
2290.956485
 21
1104.019266
 31
0.0
  0
LINE
  5
3012
100
AcDbEntity
  8
0
100
AcDbLine
 10
2305.956485
 20
1070.519266
 30
0.0
 11
2285.956485
 21
1070.519266
 31
0.0
  0
ARC
  5
3013
100
AcDbEntity
  8
0
100
AcDbCircle
 10
2305.956485
 20
1068.500028
 30
0.0
 40
23.671361
100
AcDbArc
 50
60.0
 51
120.0
  0
ARC
  5
3014
100
AcDbEntity
  8
0
100
AcDbCircle
 10
2305.956485
 20
1094.690627
 30
0.0
 40
23.671361
100
AcDbArc
 50
240.0
 51
300.0
  0
LINE
  5
3015
100
AcDbEntity
  8
0
100
AcDbLine
 10
2294.120805
 20
1089.000028
 30
0.0
 11
2294.120805
 21
1074.190627
 31
0.0
  0
LINE
  5
3016
100
AcDbEntity
  8
0
100
AcDbLine
 10
2285.956485
 20
1070.519266
 30
0.0
 11
2282.285124
 21
1074.190627
 31
0.0
  0
ARC
  5
3017
100
AcDbEntity
  8
0
100
AcDbCircle
 10
2288.202965
 20
1078.126367
 30
0.0
 40
7.107101
100
AcDbArc
 50
213.626429
 51
326.373571
  0
ARC
  5
3018
100
AcDbEntity
  8
0
100
AcDbCircle
 10
2288.202965
 20
1085.064288
 30
0.0
 40
7.107101
100
AcDbArc
 50
33.626429
 51
146.373571
  0
LINE
  5
3019
100
AcDbEntity
  8
0
100
AcDbLine
 10
2282.285124
 20
1089.000028
 30
0.0
 11
2282.285124
 21
1074.190627
 31
0.0
  0
LINE
  5
301A
100
AcDbEntity
  8
0
100
AcDbLine
 10
2282.285124
 20
1089.000028
 30
0.0
 11
2290.956485
 21
1104.019266
 31
0.0
  0
ARC
  5
301B
100
AcDbEntity
  8
0
100
AcDbCircle
 10
2323.710006
 20
1078.126367
 30
0.0
 40
7.107101
100
AcDbArc
 50
213.626429
 51
326.373571
  0
LINE
  5
301C
100
AcDbEntity
  8
0
100
AcDbLine
 10
2329.627846
 20
1074.190627
 30
0.0
 11
2325.956485
 21
1070.519266
 31
0.0
  0
ARC
  5
301D
100
AcDbEntity
  8
0
100
AcDbCircle
 10
2323.710006
 20
1085.064288
 30
0.0
 40
7.107101
100
AcDbArc
 50
33.626429
 51
146.373571
  0
LINE
  5
301E
100
AcDbEntity
  8
0
100
AcDbLine
 10
2317.792166
 20
1089.000028
 30
0.0
 11
2317.792166
 21
1074.190627
 31
0.0
  0
LINE
  5
301F
100
AcDbEntity
  8
0
100
AcDbLine
 10
2329.627846
 20
1089.000028
 30
0.0
 11
2329.627846
 21
1074.190627
 31
0.0
  0
LINE
  5
3020
100
AcDbEntity
  8
0
100
AcDbLine
 10
2325.956485
 20
1070.519266
 30
0.0
 11
2305.956485
 21
1070.519266
 31
0.0
  0
LINE
  5
3021
100
AcDbEntity
  8
0
100
AcDbLine
 10
2329.627846
 20
1089.000028
 30
0.0
 11
2320.956485
 21
1104.019266
 31
0.0
  0
LINE
  5
3022
100
AcDbEntity
  8
0
100
AcDbLine
 10
2320.956485
 20
1107.40224
 30
0.0
 11
2290.956485
 21
1107.40224
 31
0.0
  0
ARC
  5
3023
100
AcDbEntity
  8
0
100
AcDbCircle
 10
2292.886281
 20
1111.177452
 30
0.0
 40
4.239851
100
AcDbArc
 50
207.508231
 51
242.924993
  0
ARC
  5
3024
100
AcDbEntity
  8
0
100
AcDbCircle
 10
2319.026689
 20
1111.177452
 30
0.0
 40
4.239851
100
AcDbArc
 50
297.075007
 51
332.491769
  0
LINE
  5
3025
100
AcDbEntity
  8
0
100
AcDbLine
 10
2456.194788
 20
1104.018785
 30
0.0
 11
2426.194788
 21
1104.018785
 31
0.0
  0
LINE
  5
3026
100
AcDbEntity
  8
0
100
AcDbLine
 10
2456.194788
 20
1107.401759
 30
0.0
 11
2426.194788
 21
1107.401759
 31
0.0
  0
ARC
  5
3027
100
AcDbEntity
  8
0
100
AcDbCircle
 10
2430.944788
 20
1089.168726
 30
0.0
 40
18.149941
100
AcDbArc
 50
235.615753
 51
304.384247
  0
LINE
  5
3028
100
AcDbEntity
  8
0
100
AcDbLine
 10
2441.194788
 20
1070.518785
 30
0.0
 11
2421.194788
 21
1070.518785
 31
0.0
  0
ARC
  5
3029
100
AcDbEntity
  8
0
100
AcDbCircle
 10
2430.944788
 20
1074.020967
 30
0.0
 40
18.149941
100
AcDbArc
 50
55.615753
 51
124.384247
  0
LINE
  5
302A
100
AcDbEntity
  8
0
100
AcDbLine
 10
2480.35859
 20
1109.219166
 30
0.0
 11
2402.030986
 21
1109.219166
 31
0.0
  0
LINE
  5
302B
100
AcDbEntity
  8
0
100
AcDbLine
 10
2426.194788
 20
1104.018785
 30
0.0
 11
2426.194788
 21
1107.451859
 31
0.0
  0
LINE
  5
302C
100
AcDbEntity
  8
0
100
AcDbLine
 10
2421.194788
 20
1070.518785
 30
0.0
 11
2420.694788
 21
1074.190146
 31
0.0
  0
LINE
  5
302D
100
AcDbEntity
  8
0
100
AcDbLine
 10
2420.694788
 20
1088.999547
 30
0.0
 11
2420.694788
 21
1074.190146
 31
0.0
  0
LINE
  5
302E
100
AcDbEntity
  8
0
100
AcDbLine
 10
2420.694788
 20
1088.999547
 30
0.0
 11
2426.194788
 21
1104.018785
 31
0.0
  0
ARC
  5
302F
100
AcDbEntity
  8
0
100
AcDbCircle
 10
2402.181527
 20
1124.218411
 30
0.0
 40
15.0
100
AcDbArc
 50
180.0
 51
269.424967
  0
ARC
  5
3030
100
AcDbEntity
  8
0
100
AcDbCircle
 10
2428.124584
 20
1111.176971
 30
0.0
 40
4.239851
100
AcDbArc
 50
207.508231
 51
242.924993
  0
LINE
  5
3031
100
AcDbEntity
  8
0
100
AcDbLine
 10
2456.194788
 20
1104.018785
 30
0.0
 11
2456.194788
 21
1107.451859
 31
0.0
  0
ARC
  5
3032
100
AcDbEntity
  8
0
100
AcDbCircle
 10
2451.444788
 20
1089.168726
 30
0.0
 40
18.149941
100
AcDbArc
 50
235.615753
 51
304.384247
  0
LINE
  5
3033
100
AcDbEntity
  8
0
100
AcDbLine
 10
2461.694788
 20
1074.190146
 30
0.0
 11
2461.194788
 21
1070.518785
 31
0.0
  0
ARC
  5
3034
100
AcDbEntity
  8
0
100
AcDbCircle
 10
2451.444788
 20
1074.020967
 30
0.0
 40
18.149941
100
AcDbArc
 50
55.615753
 51
124.384247
  0
LINE
  5
3035
100
AcDbEntity
  8
0
100
AcDbLine
 10
2461.694788
 20
1088.999547
 30
0.0
 11
2456.194788
 21
1104.018785
 31
0.0
  0
LINE
  5
3036
100
AcDbEntity
  8
0
100
AcDbLine
 10
2461.194788
 20
1070.518785
 30
0.0
 11
2441.194788
 21
1070.518785
 31
0.0
  0
LINE
  5
3037
100
AcDbEntity
  8
0
100
AcDbLine
 10
2441.194788
 20
1088.999547
 30
0.0
 11
2441.194788
 21
1074.190146
 31
0.0
  0
LINE
  5
3038
100
AcDbEntity
  8
0
100
AcDbLine
 10
2461.694788
 20
1088.999547
 30
0.0
 11
2461.694788
 21
1074.190146
 31
0.0
  0
ARC
  5
3039
100
AcDbEntity
  8
0
100
AcDbCircle
 10
2454.264992
 20
1111.176971
 30
0.0
 40
4.239851
100
AcDbArc
 50
297.075007
 51
332.491769
  0
ARC
  5
303A
100
AcDbEntity
  8
0
100
AcDbCircle
 10
2325.983803
 20
1214.81944
 30
0.0
 40
15.0
100
AcDbArc
 50
0.0
 51
89.653469
  0
LINE
  5
303B
100
AcDbEntity
  8
0
100
AcDbLine
 10
2282.241442
 20
1250.038304
 30
0.0
 11
2282.241442
 21
1264.847705
 31
0.0
  0
LINE
  5
303C
100
AcDbEntity
  8
0
100
AcDbLine
 10
2329.584164
 20
1250.038304
 30
0.0
 11
2329.584164
 21
1264.847705
 31
0.0
  0
LINE
  5
303D
100
AcDbEntity
  8
0
100
AcDbLine
 10
2317.748484
 20
1250.038304
 30
0.0
 11
2317.748484
 21
1264.847705
 31
0.0
  0
LINE
  5
303E
100
AcDbEntity
  8
0
100
AcDbLine
 10
2294.077123
 20
1250.038304
 30
0.0
 11
2294.077123
 21
1264.847705
 31
0.0
  0
LINE
  5
303F
100
AcDbEntity
  8
0
100
AcDbLine
 10
2320.912803
 20
1235.019066
 30
0.0
 11
2290.912803
 21
1235.019066
 31
0.0
  0
ARC
  5
3040
100
AcDbEntity
  8
0
100
AcDbCircle
 10
2305.912803
 20
1270.538304
 30
0.0
 40
23.671361
100
AcDbArc
 50
240.0
 51
300.0
  0
LINE
  5
3041
100
AcDbEntity
  8
0
100
AcDbLine
 10
2320.912803
 20
1231.636092
 30
0.0
 11
2290.912803
 21
1231.636092
 31
0.0
  0
ARC
  5
3042
100
AcDbEntity
  8
0
100
AcDbCircle
 10
2288.159282
 20
1253.974043
 30
0.0
 40
7.107101
100
AcDbArc
 50
213.626429
 51
326.373571
  0
LINE
  5
3043
100
AcDbEntity
  8
0
100
AcDbLine
 10
2282.241442
 20
1250.038304
 30
0.0
 11
2290.912803
 21
1235.019066
 31
0.0
  0
ARC
  5
3044
100
AcDbEntity
  8
0
100
AcDbCircle
 10
2292.842599
 20
1227.86088
 30
0.0
 40
4.239851
100
AcDbArc
 50
117.075007
 51
152.491769
  0
LINE
  5
3045
100
AcDbEntity
  8
0
100
AcDbLine
 10
2290.912803
 20
1235.019066
 30
0.0
 11
2290.912803
 21
1231.636092
 31
0.0
  0
LINE
  5
3046
100
AcDbEntity
  8
0
100
AcDbLine
 10
2329.584164
 20
1250.038304
 30
0.0
 11
2320.912803
 21
1235.019066
 31
0.0
  0
ARC
  5
3047
100
AcDbEntity
  8
0
100
AcDbCircle
 10
2323.666324
 20
1253.974043
 30
0.0
 40
7.107101
100
AcDbArc
 50
213.626429
 51
326.373571
  0
ARC
  5
3048
100
AcDbEntity
  8
0
100
AcDbCircle
 10
2318.983007
 20
1227.86088
 30
0.0
 40
4.239851
100
AcDbArc
 50
27.508231
 51
62.924993
  0
LINE
  5
3049
100
AcDbEntity
  8
0
100
AcDbLine
 10
2320.912803
 20
1235.019066
 30
0.0
 11
2320.912803
 21
1231.636092
 31
0.0
  0
LINE
  5
304A
100
AcDbEntity
  8
0
100
AcDbLine
 10
2296.459428
 20
1282.568426
 30
0.0
 11
2305.912803
 21
1272.909176
 31
0.0
  0
LINE
  5
304B
100
AcDbEntity
  8
0
100
AcDbLine
 10
2305.912803
 20
1268.519066
 30
0.0
 11
2285.912803
 21
1268.519066
 31
0.0
  0
ARC
  5
304C
100
AcDbEntity
  8
0
100
AcDbCircle
 10
2305.912803
 20
1244.347705
 30
0.0
 40
23.671361
100
AcDbArc
 50
60.0
 51
120.0
  0
LINE
  5
304D
100
AcDbEntity
  8
0
100
AcDbLine
 10
2301.186116
 20
1296.542613
 30
0.0
 11
2301.186116
 21
1282.568426
 31
0.0
  0
LINE
  5
304E
100
AcDbEntity
  8
0
100
AcDbLine
 10
2301.186116
 20
1282.568426
 30
0.0
 11
2296.459428
 21
1282.568426
 31
0.0
  0
ARC
  5
304F
100
AcDbEntity
  8
0
100
AcDbCircle
 10
2288.159282
 20
1260.911965
 30
0.0
 40
7.107101
100
AcDbArc
 50
33.626429
 51
146.373571
  0
LINE
  5
3050
100
AcDbEntity
  8
0
100
AcDbLine
 10
2285.912803
 20
1268.519066
 30
0.0
 11
2282.241442
 21
1264.847705
 31
0.0
  0
LINE
  5
3051
100
AcDbEntity
  8
0
100
AcDbLine
 10
2325.912803
 20
1268.519066
 30
0.0
 11
2305.912803
 21
1268.519066
 31
0.0
  0
ARC
  5
3052
100
AcDbEntity
  8
0
100
AcDbCircle
 10
2323.666324
 20
1260.911965
 30
0.0
 40
7.107101
100
AcDbArc
 50
33.626429
 51
146.373571
  0
LINE
  5
3053
100
AcDbEntity
  8
0
100
AcDbLine
 10
2329.584164
 20
1264.847705
 30
0.0
 11
2325.912803
 21
1268.519066
 31
0.0
  0
ARC
  5
3054
100
AcDbEntity
  8
0
100
AcDbCircle
 10
2402.181527
 20
1214.81944
 30
0.0
 40
15.0
100
AcDbArc
 50
90.346531
 51
180.0
  0
LINE
  5
3055
100
AcDbEntity
  8
0
100
AcDbLine
 10
2441.194788
 20
1268.519066
 30
0.0
 11
2421.194788
 21
1268.519066
 31
0.0
  0
LINE
  5
3056
100
AcDbEntity
  8
0
100
AcDbLine
 10
2456.194788
 20
1231.636092
 30
0.0
 11
2426.194788
 21
1231.636092
 31
0.0
  0
LINE
  5
3057
100
AcDbEntity
  8
0
100
AcDbLine
 10
2456.194788
 20
1235.019066
 30
0.0
 11
2426.194788
 21
1235.019066
 31
0.0
  0
ARC
  5
3058
100
AcDbEntity
  8
0
100
AcDbCircle
 10
2430.944788
 20
1265.016884
 30
0.0
 40
18.149941
100
AcDbArc
 50
235.615753
 51
304.384247
  0
ARC
  5
3059
100
AcDbEntity
  8
0
100
AcDbCircle
 10
2430.944788
 20
1249.869125
 30
0.0
 40
18.149941
100
AcDbArc
 50
55.615753
 51
124.384247
  0
LINE
  5
305A
100
AcDbEntity
  8
0
100
AcDbLine
 10
2480.298771
 20
1229.819166
 30
0.0
 11
2402.090806
 21
1229.819166
 31
0.0
  0
LINE
  5
305B
100
AcDbEntity
  8
0
100
AcDbLine
 10
2420.694788
 20
1250.038304
 30
0.0
 11
2420.694788
 21
1264.847705
 31
0.0
  0
LINE
  5
305C
100
AcDbEntity
  8
0
100
AcDbLine
 10
2426.194788
 20
1235.019066
 30
0.0
 11
2426.194788
 21
1231.585992
 31
0.0
  0
ARC
  5
305D
100
AcDbEntity
  8
0
100
AcDbCircle
 10
2428.124584
 20
1227.86088
 30
0.0
 40
4.239851
100
AcDbArc
 50
117.075007
 51
152.491769
  0
LINE
  5
305E
100
AcDbEntity
  8
0
100
AcDbLine
 10
2420.694788
 20
1250.038304
 30
0.0
 11
2426.194788
 21
1235.019066
 31
0.0
  0
LINE
  5
305F
100
AcDbEntity
  8
0
100
AcDbLine
 10
2421.194788
 20
1268.519066
 30
0.0
 11
2420.694788
 21
1264.847705
 31
0.0
  0
LINE
  5
3060
100
AcDbEntity
  8
0
100
AcDbLine
 10
2441.194788
 20
1250.038304
 30
0.0
 11
2441.194788
 21
1264.847705
 31
0.0
  0
LINE
  5
3061
100
AcDbEntity
  8
0
100
AcDbLine
 10
2461.694788
 20
1250.038304
 30
0.0
 11
2461.694788
 21
1264.847705
 31
0.0
  0
LINE
  5
3062
100
AcDbEntity
  8
0
100
AcDbLine
 10
2461.694788
 20
1250.038304
 30
0.0
 11
2456.194788
 21
1235.019066
 31
0.0
  0
ARC
  5
3063
100
AcDbEntity
  8
0
100
AcDbCircle
 10
2451.444788
 20
1265.016884
 30
0.0
 40
18.149941
100
AcDbArc
 50
235.615753
 51
304.384247
  0
LINE
  5
3064
100
AcDbEntity
  8
0
100
AcDbLine
 10
2456.194788
 20
1235.019066
 30
0.0
 11
2456.194788
 21
1231.585992
 31
0.0
  0
ARC
  5
3065
100
AcDbEntity
  8
0
100
AcDbCircle
 10
2454.264992
 20
1227.86088
 30
0.0
 40
4.239851
100
AcDbArc
 50
27.508231
 51
62.924993
  0
ARC
  5
3066
100
AcDbEntity
  8
0
100
AcDbCircle
 10
2451.444788
 20
1249.869125
 30
0.0
 40
18.149941
100
AcDbArc
 50
55.615753
 51
124.384247
  0
LINE
  5
3067
100
AcDbEntity
  8
0
100
AcDbLine
 10
2461.694788
 20
1264.847705
 30
0.0
 11
2461.194788
 21
1268.519066
 31
0.0
  0
LINE
  5
3068
100
AcDbEntity
  8
0
100
AcDbLine
 10
2461.194788
 20
1268.519066
 30
0.0
 11
2441.194788
 21
1268.519066
 31
0.0
  0
LINE
  5
3069
100
AcDbEntity
  8
0
100
AcDbLine
 10
2495.20805
 20
1124.218411
 30
0.0
 11
2495.20805
 21
1214.81944
 31
0.0
  0
LINE
  5
306A
100
AcDbEntity
  8
0
100
AcDbLine
 10
2305.912803
 20
1320.177738
 30
0.0
 11
2296.459428
 21
1329.631113
 31
0.0
  0
LINE
  5
306B
100
AcDbEntity
  8
0
100
AcDbLine
 10
2296.459428
 20
1329.631113
 30
0.0
 11
2296.459428
 21
1301.270988
 31
0.0
  0
POLYLINE
  5
306C
100
AcDbEntity
  8
0
100
AcDb2dPolyline
 66
     1
 10
0.0
 20
0.0
 30
0.0
 70
     1
  0
VERTEX
  5
3DB9
100
AcDbEntity
  8
0
100
AcDbVertex
100
AcDb2dVertex
 10
2282.241442
 20
1404.419322
 30
0.0
  0
VERTEX
  5
3DBA
100
AcDbEntity
  8
0
100
AcDbVertex
100
AcDb2dVertex
 10
2294.077123
 20
1383.919322
 30
0.0
  0
VERTEX
  5
3DBB
100
AcDbEntity
  8
0
100
AcDbVertex
100
AcDb2dVertex
 10
2317.748484
 20
1383.919322
 30
0.0
  0
VERTEX
  5
3DBC
100
AcDbEntity
  8
0
100
AcDbVertex
100
AcDb2dVertex
 10
2329.584164
 20
1404.419322
 30
0.0
  0
VERTEX
  5
3DBD
100
AcDbEntity
  8
0
100
AcDbVertex
100
AcDb2dVertex
 10
2317.748484
 20
1424.919322
 30
0.0
  0
VERTEX
  5
3DBE
100
AcDbEntity
  8
0
100
AcDbVertex
100
AcDb2dVertex
 10
2294.077123
 20
1424.919322
 30
0.0
  0
SEQEND
  5
3DBF
100
AcDbEntity
  8
0
  0
CIRCLE
  5
306D
100
AcDbEntity
  8
0
100
AcDbCircle
 10
2305.912803
 20
1404.419322
 30
0.0
 40
20.0
  0
ARC
  5
306E
100
AcDbEntity
  8
0
100
AcDbCircle
 10
2288.1156
 20
1504.817129
 30
0.0
 40
7.107101
100
AcDbArc
 50
33.626429
 51
146.373571
  0
LINE
  5
306F
100
AcDbEntity
  8
0
100
AcDbLine
 10
2282.19776
 20
1508.752868
 30
0.0
 11
2290.869121
 21
1523.772106
 31
0.0
  0
LINE
  5
3070
100
AcDbEntity
  8
0
100
AcDbLine
 10
2329.540482
 20
1508.752868
 30
0.0
 11
2320.869121
 21
1523.772106
 31
0.0
  0
ARC
  5
3071
100
AcDbEntity
  8
0
100
AcDbCircle
 10
2323.622642
 20
1504.817129
 30
0.0
 40
7.107101
100
AcDbArc
 50
33.626429
 51
146.373571
  0
ARC
  5
3072
100
AcDbEntity
  8
0
100
AcDbCircle
 10
2305.869121
 20
1488.252868
 30
0.0
 40
23.671361
100
AcDbArc
 50
60.0
 51
120.0
  0
ARC
  5
3073
100
AcDbEntity
  8
0
100
AcDbCircle
 10
2305.869121
 20
1514.443467
 30
0.0
 40
23.671361
100
AcDbArc
 50
240.0
 51
300.0
  0
LINE
  5
3074
100
AcDbEntity
  8
0
100
AcDbLine
 10
2285.869121
 20
1490.272106
 30
0.0
 11
2305.869121
 21
1490.272106
 31
0.0
  0
LINE
  5
3075
100
AcDbEntity
  8
0
100
AcDbLine
 10
2294.03344
 20
1508.752868
 30
0.0
 11
2294.03344
 21
1493.943467
 31
0.0
  0
LINE
  5
3076
100
AcDbEntity
  8
0
100
AcDbLine
 10
2282.19776
 20
1508.752868
 30
0.0
 11
2282.19776
 21
1493.943467
 31
0.0
  0
ARC
  5
3077
100
AcDbEntity
  8
0
100
AcDbCircle
 10
2288.1156
 20
1497.879207
 30
0.0
 40
7.107101
100
AcDbArc
 50
213.626429
 51
326.373571
  0
LINE
  5
3078
100
AcDbEntity
  8
0
100
AcDbLine
 10
2282.19776
 20
1493.943467
 30
0.0
 11
2285.869121
 21
1490.272106
 31
0.0
  0
LINE
  5
3079
100
AcDbEntity
  8
0
100
AcDbLine
 10
2317.704801
 20
1508.752868
 30
0.0
 11
2317.704801
 21
1493.943467
 31
0.0
  0
LINE
  5
307A
100
AcDbEntity
  8
0
100
AcDbLine
 10
2329.540482
 20
1508.752868
 30
0.0
 11
2329.540482
 21
1493.943467
 31
0.0
  0
LINE
  5
307B
100
AcDbEntity
  8
0
100
AcDbLine
 10
2305.869121
 20
1490.272106
 30
0.0
 11
2325.869121
 21
1490.272106
 31
0.0
  0
LINE
  5
307C
100
AcDbEntity
  8
0
100
AcDbLine
 10
2325.869121
 20
1490.272106
 30
0.0
 11
2329.540482
 21
1493.943467
 31
0.0
  0
ARC
  5
307D
100
AcDbEntity
  8
0
100
AcDbCircle
 10
2323.622642
 20
1497.879207
 30
0.0
 40
7.107101
100
AcDbArc
 50
213.626429
 51
326.373571
  0
LINE
  5
307E
100
AcDbEntity
  8
0
100
AcDbLine
 10
2285.691262
 20
1528.972006
 30
0.0
 11
2343.2556
 21
1528.972006
 31
0.0
  0
LINE
  5
307F
100
AcDbEntity
  8
0
100
AcDbLine
 10
2290.869121
 20
1527.15508
 30
0.0
 11
2320.869121
 21
1527.15508
 31
0.0
  0
LINE
  5
3080
100
AcDbEntity
  8
0
100
AcDbLine
 10
2290.869121
 20
1523.772106
 30
0.0
 11
2320.869121
 21
1523.772106
 31
0.0
  0
LINE
  5
3081
100
AcDbEntity
  8
0
100
AcDbLine
 10
2290.869121
 20
1523.772106
 30
0.0
 11
2290.869121
 21
1527.15508
 31
0.0
  0
ARC
  5
3082
100
AcDbEntity
  8
0
100
AcDbCircle
 10
2292.798917
 20
1530.930292
 30
0.0
 40
4.239851
100
AcDbArc
 50
207.508231
 51
242.924993
  0
LINE
  5
3083
100
AcDbEntity
  8
0
100
AcDbLine
 10
2320.869121
 20
1523.772106
 30
0.0
 11
2320.869121
 21
1527.15508
 31
0.0
  0
ARC
  5
3084
100
AcDbEntity
  8
0
100
AcDbCircle
 10
2318.939325
 20
1530.930292
 30
0.0
 40
4.239851
100
AcDbArc
 50
297.075007
 51
332.491769
  0
LINE
  5
3085
100
AcDbEntity
  8
0
100
AcDbLine
 10
2353.862201
 20
1533.365405
 30
0.0
 11
2375.207161
 21
1554.710364
 31
0.0
  0
ARC
  5
3086
100
AcDbEntity
  8
0
100
AcDbCircle
 10
2343.2556
 20
1543.972006
 30
0.0
 40
15.0
100
AcDbArc
 50
270.0
 51
315.0
  0
ARC
  5
3087
100
AcDbEntity
  8
0
100
AcDbCircle
 10
2366.368326
 20
1563.549199
 30
0.0
 40
12.5
100
AcDbArc
 50
315.0
 51
359.980351
  0
LINE
  5
3088
100
AcDbEntity
  8
0
100
AcDbLine
 10
2282.241442
 20
1669.791144
 30
0.0
 11
2290.912803
 21
1654.771906
 31
0.0
  0
LINE
  5
3089
100
AcDbEntity
  8
0
100
AcDbLine
 10
2329.584164
 20
1669.791144
 30
0.0
 11
2320.912803
 21
1654.771906
 31
0.0
  0
LINE
  5
308A
100
AcDbEntity
  8
0
100
AcDbLine
 10
2285.751082
 20
1649.572006
 30
0.0
 11
2343.2546
 21
1649.572006
 31
0.0
  0
LINE
  5
308B
100
AcDbEntity
  8
0
100
AcDbLine
 10
2290.912803
 20
1654.771906
 30
0.0
 11
2320.912803
 21
1654.771906
 31
0.0
  0
LINE
  5
308C
100
AcDbEntity
  8
0
100
AcDbLine
 10
2290.912803
 20
1651.388933
 30
0.0
 11
2320.912803
 21
1651.388933
 31
0.0
  0
ARC
  5
308D
100
AcDbEntity
  8
0
100
AcDbCircle
 10
2292.842599
 20
1647.613721
 30
0.0
 40
4.239851
100
AcDbArc
 50
117.075007
 51
152.491769
  0
LINE
  5
308E
100
AcDbEntity
  8
0
100
AcDbLine
 10
2290.912803
 20
1654.771906
 30
0.0
 11
2290.912803
 21
1651.388933
 31
0.0
  0
ARC
  5
308F
100
AcDbEntity
  8
0
100
AcDbCircle
 10
2318.983007
 20
1647.613721
 30
0.0
 40
4.239851
100
AcDbArc
 50
27.508231
 51
62.924993
  0
LINE
  5
3090
100
AcDbEntity
  8
0
100
AcDbLine
 10
2320.912803
 20
1654.771906
 30
0.0
 11
2320.912803
 21
1651.388933
 31
0.0
  0
ARC
  5
3091
100
AcDbEntity
  8
0
100
AcDbCircle
 10
2366.383871
 20
1614.978269
 30
0.0
 40
12.5
100
AcDbArc
 50
1.054778
 51
45.0
  0
LINE
  5
3092
100
AcDbEntity
  8
0
100
AcDbLine
 10
2353.861201
 20
1645.178608
 30
0.0
 11
2375.222706
 21
1623.817103
 31
0.0
  0
ARC
  5
3093
100
AcDbEntity
  8
0
100
AcDbCircle
 10
2343.2546
 20
1634.572006
 30
0.0
 40
15.0
100
AcDbArc
 50
45.0
 51
90.0
  0
ARC
  5
3094
100
AcDbEntity
  8
0
100
AcDbCircle
 10
2305.912803
 20
1690.291144
 30
0.0
 40
23.671361
100
AcDbArc
 50
240.0
 51
300.0
  0
ARC
  5
3095
100
AcDbEntity
  8
0
100
AcDbCircle
 10
2305.912803
 20
1664.100545
 30
0.0
 40
23.671361
100
AcDbArc
 50
60.0
 51
120.0
  0
LINE
  5
3096
100
AcDbEntity
  8
0
100
AcDbLine
 10
2285.912803
 20
1688.271906
 30
0.0
 11
2305.912803
 21
1688.271906
 31
0.0
  0
LINE
  5
3097
100
AcDbEntity
  8
0
100
AcDbLine
 10
2294.077123
 20
1669.791144
 30
0.0
 11
2294.077123
 21
1684.600545
 31
0.0
  0
LINE
  5
3098
100
AcDbEntity
  8
0
100
AcDbLine
 10
2282.241442
 20
1669.791144
 30
0.0
 11
2282.241442
 21
1684.600545
 31
0.0
  0
ARC
  5
3099
100
AcDbEntity
  8
0
100
AcDbCircle
 10
2288.159282
 20
1673.726884
 30
0.0
 40
7.107101
100
AcDbArc
 50
213.626429
 51
326.373571
  0
ARC
  5
309A
100
AcDbEntity
  8
0
100
AcDbCircle
 10
2288.159282
 20
1680.664806
 30
0.0
 40
7.107101
100
AcDbArc
 50
33.626429
 51
146.373571
  0
LINE
  5
309B
100
AcDbEntity
  8
0
100
AcDbLine
 10
2282.241442
 20
1684.600545
 30
0.0
 11
2285.912803
 21
1688.271906
 31
0.0
  0
LINE
  5
309C
100
AcDbEntity
  8
0
100
AcDbLine
 10
2317.748484
 20
1669.791144
 30
0.0
 11
2317.748484
 21
1684.600545
 31
0.0
  0
LINE
  5
309D
100
AcDbEntity
  8
0
100
AcDbLine
 10
2329.584164
 20
1669.791144
 30
0.0
 11
2329.584164
 21
1684.600545
 31
0.0
  0
ARC
  5
309E
100
AcDbEntity
  8
0
100
AcDbCircle
 10
2323.666324
 20
1673.726884
 30
0.0
 40
7.107101
100
AcDbArc
 50
213.626429
 51
326.373571
  0
LINE
  5
309F
100
AcDbEntity
  8
0
100
AcDbLine
 10
2305.912803
 20
1688.271906
 30
0.0
 11
2325.912803
 21
1688.271906
 31
0.0
  0
LINE
  5
30A0
100
AcDbEntity
  8
0
100
AcDbLine
 10
2325.912803
 20
1688.271906
 30
0.0
 11
2329.584164
 21
1684.600545
 31
0.0
  0
ARC
  5
30A1
100
AcDbEntity
  8
0
100
AcDbCircle
 10
2323.666324
 20
1680.664806
 30
0.0
 40
7.107101
100
AcDbArc
 50
33.626429
 51
146.373571
  0
LINE
  5
3200
100
AcDbEntity
  8
0
100
AcDbLine
 10
2374.615496
 20
363.805912
 30
0.0
 11
2408.615496
 21
363.805912
 31
0.0
  0
LINE
  5
320D
100
AcDbEntity
  8
0
100
AcDbLine
 10
2374.615496
 20
218.805912
 30
0.0
 11
2408.615496
 21
218.805912
 31
0.0
  0
LINE
  5
3238
100
AcDbEntity
  8
0
100
AcDbLine
 10
2198.245585
 20
363.805912
 30
0.0
 11
2232.245585
 21
363.805912
 31
0.0
  0
LINE
  5
3245
100
AcDbEntity
  8
0
100
AcDbLine
 10
2198.245585
 20
218.805912
 30
0.0
 11
2232.245585
 21
218.805912
 31
0.0
  0
LINE
  5
3253
100
AcDbEntity
  8
0
100
AcDbLine
 10
2021.875673
 20
363.805912
 30
0.0
 11
2055.875673
 21
363.805912
 31
0.0
  0
LINE
  5
3260
100
AcDbEntity
  8
0
100
AcDbLine
 10
2021.875673
 20
218.805912
 30
0.0
 11
2055.875673
 21
218.805912
 31
0.0
  0
LINE
  5
3299
100
AcDbEntity
  8
0
100
AcDbLine
 10
2280.245585
 20
903.86318
 30
0.0
 11
2215.245585
 21
903.86318
 31
0.0
  0
LINE
  5
32C0
100
AcDbEntity
  8
0
100
AcDbLine
 10
2152.745585
 20
903.86318
 30
0.0
 11
2215.245585
 21
903.86318
 31
0.0
  0
LINE
  5
32C1
100
AcDbEntity
  8
0
100
AcDbLine
 10
2150.245585
 20
903.86318
 30
0.0
 11
2215.245585
 21
903.86318
 31
0.0
  0
LINE
  5
32C3
100
AcDbEntity
  8
0
100
AcDbLine
 10
2198.245585
 20
843.069723
 30
0.0
 11
2198.245585
 21
878.86318
 31
0.0
  0
LINE
  5
32C4
100
AcDbEntity
  8
0
100
AcDbLine
 10
2198.245585
 20
852.36318
 30
0.0
 11
2232.245585
 21
852.36318
 31
0.0
  0
LINE
  5
32C8
100
AcDbEntity
  8
0
100
AcDbLine
 10
2232.245585
 20
843.069723
 30
0.0
 11
2232.245585
 21
878.86318
 31
0.0
  0
LINE
  5
32D8
100
AcDbEntity
  8
0
100
AcDbLine
 10
2198.245585
 20
707.36318
 30
0.0
 11
2232.245585
 21
707.36318
 31
0.0
  0
LINE
  5
3365
100
AcDbEntity
  8
0
100
AcDbLine
 10
1492.720654
 20
353.053109
 30
0.0
 11
1492.720654
 21
363.312023
 31
0.0
  0
LINE
  5
3366
100
AcDbEntity
  8
0
100
AcDbLine
 10
1494.120654
 20
364.712023
 30
0.0
 11
1521.320654
 21
364.712023
 31
0.0
  0
LINE
  5
3368
100
AcDbEntity
  8
0
100
AcDbLine
 10
1492.720654
 20
363.312023
 30
0.0
 11
1522.720654
 21
363.312023
 31
0.0
  0
LINE
  5
336C
100
AcDbEntity
  8
0
100
AcDbLine
 10
1492.720654
 20
363.312023
 30
0.0
 11
1494.120654
 21
364.712023
 31
0.0
  0
LINE
  5
336F
100
AcDbEntity
  8
0
100
AcDbLine
 10
1522.720654
 20
353.053109
 30
0.0
 11
1522.720654
 21
363.312023
 31
0.0
  0
LINE
  5
3373
100
AcDbEntity
  8
0
100
AcDbLine
 10
1522.720654
 20
363.312023
 30
0.0
 11
1521.320654
 21
364.712023
 31
0.0
  0
LINE
  5
337F
100
AcDbEntity
  8
0
100
AcDbLine
 10
1522.720654
 20
229.619929
 30
0.0
 11
1522.720654
 21
219.361015
 31
0.0
  0
LINE
  5
3380
100
AcDbEntity
  8
0
100
AcDbLine
 10
1492.720654
 20
229.619929
 30
0.0
 11
1492.720654
 21
219.361015
 31
0.0
  0
LINE
  5
3381
100
AcDbEntity
  8
0
100
AcDbLine
 10
1522.720654
 20
229.619929
 30
0.0
 11
1492.720654
 21
229.619929
 31
0.0
  0
LINE
  5
3382
100
AcDbEntity
  8
0
100
AcDbLine
 10
1492.720654
 20
229.619929
 30
0.0
 11
1491.38309
 21
231.061015
 31
0.0
  0
LINE
  5
3383
100
AcDbEntity
  8
0
100
AcDbLine
 10
1522.720654
 20
229.619929
 30
0.0
 11
1524.058218
 21
231.061015
 31
0.0
  0
LINE
  5
3384
100
AcDbEntity
  8
0
100
AcDbLine
 10
1492.720654
 20
219.361015
 30
0.0
 11
1494.120654
 21
217.961015
 31
0.0
  0
LINE
  5
3385
100
AcDbEntity
  8
0
100
AcDbLine
 10
1492.720654
 20
219.361015
 30
0.0
 11
1522.720654
 21
219.361015
 31
0.0
  0
LINE
  5
3386
100
AcDbEntity
  8
0
100
AcDbLine
 10
1494.120654
 20
217.961015
 30
0.0
 11
1521.320654
 21
217.961015
 31
0.0
  0
LINE
  5
3388
100
AcDbEntity
  8
0
100
AcDbLine
 10
1522.720654
 20
219.361015
 30
0.0
 11
1521.320654
 21
217.961015
 31
0.0
  0
LINE
  5
338E
100
AcDbEntity
  8
0
100
AcDbLine
 10
1349.097995
 20
353.053109
 30
0.0
 11
1349.097995
 21
363.312023
 31
0.0
  0
LINE
  5
338F
100
AcDbEntity
  8
0
100
AcDbLine
 10
1319.097995
 20
353.053109
 30
0.0
 11
1319.097995
 21
363.312023
 31
0.0
  0
LINE
  5
3390
100
AcDbEntity
  8
0
100
AcDbLine
 10
1319.097995
 20
363.312023
 30
0.0
 11
1320.497995
 21
364.712023
 31
0.0
  0
LINE
  5
3392
100
AcDbEntity
  8
0
100
AcDbLine
 10
1319.097995
 20
363.312023
 30
0.0
 11
1349.097995
 21
363.312023
 31
0.0
  0
LINE
  5
3396
100
AcDbEntity
  8
0
100
AcDbLine
 10
1320.497995
 20
364.712023
 30
0.0
 11
1347.697995
 21
364.712023
 31
0.0
  0
LINE
  5
3398
100
AcDbEntity
  8
0
100
AcDbLine
 10
1349.097995
 20
363.312023
 30
0.0
 11
1347.697995
 21
364.712023
 31
0.0
  0
LINE
  5
33A4
100
AcDbEntity
  8
0
100
AcDbLine
 10
1319.097995
 20
219.361015
 30
0.0
 11
1349.097995
 21
219.361015
 31
0.0
  0
LINE
  5
33A5
100
AcDbEntity
  8
0
100
AcDbLine
 10
1319.097995
 20
219.361015
 30
0.0
 11
1320.497995
 21
217.961015
 31
0.0
  0
LINE
  5
33A7
100
AcDbEntity
  8
0
100
AcDbLine
 10
1319.097995
 20
229.569325
 30
0.0
 11
1319.097995
 21
219.361015
 31
0.0
  0
LINE
  5
33A8
100
AcDbEntity
  8
0
100
AcDbLine
 10
1320.497995
 20
217.961015
 30
0.0
 11
1347.697995
 21
217.961015
 31
0.0
  0
LINE
  5
33AC
100
AcDbEntity
  8
0
100
AcDbLine
 10
1349.097995
 20
219.361015
 30
0.0
 11
1347.697995
 21
217.961015
 31
0.0
  0
LINE
  5
33AD
100
AcDbEntity
  8
0
100
AcDbLine
 10
1349.097995
 20
229.546505
 30
0.0
 11
1349.097995
 21
219.361015
 31
0.0
  0
LINE
  5
33B2
100
AcDbEntity
  8
0
100
AcDbLine
 10
1175.475335
 20
353.053109
 30
0.0
 11
1175.475335
 21
363.312023
 31
0.0
  0
LINE
  5
33B3
100
AcDbEntity
  8
0
100
AcDbLine
 10
1145.475335
 20
353.053109
 30
0.0
 11
1145.475335
 21
363.312023
 31
0.0
  0
LINE
  5
33B4
100
AcDbEntity
  8
0
100
AcDbLine
 10
1145.475335
 20
363.312023
 30
0.0
 11
1146.875335
 21
364.712023
 31
0.0
  0
LINE
  5
33B6
100
AcDbEntity
  8
0
100
AcDbLine
 10
1145.475335
 20
363.312023
 30
0.0
 11
1175.475335
 21
363.312023
 31
0.0
  0
LINE
  5
33BA
100
AcDbEntity
  8
0
100
AcDbLine
 10
1146.875335
 20
364.712023
 30
0.0
 11
1174.075335
 21
364.712023
 31
0.0
  0
LINE
  5
33BC
100
AcDbEntity
  8
0
100
AcDbLine
 10
1175.475335
 20
363.312023
 30
0.0
 11
1174.075335
 21
364.712023
 31
0.0
  0
LINE
  5
33C8
100
AcDbEntity
  8
0
100
AcDbLine
 10
1145.475335
 20
219.361015
 30
0.0
 11
1175.475335
 21
219.361015
 31
0.0
  0
LINE
  5
33C9
100
AcDbEntity
  8
0
100
AcDbLine
 10
1145.475335
 20
219.361015
 30
0.0
 11
1146.875335
 21
217.961015
 31
0.0
  0
LINE
  5
33CB
100
AcDbEntity
  8
0
100
AcDbLine
 10
1145.475335
 20
229.619929
 30
0.0
 11
1145.475335
 21
219.361015
 31
0.0
  0
LINE
  5
33CC
100
AcDbEntity
  8
0
100
AcDbLine
 10
1146.875335
 20
217.961015
 30
0.0
 11
1174.075335
 21
217.961015
 31
0.0
  0
LINE
  5
33D0
100
AcDbEntity
  8
0
100
AcDbLine
 10
1175.475335
 20
219.361015
 30
0.0
 11
1174.075335
 21
217.961015
 31
0.0
  0
LINE
  5
33D1
100
AcDbEntity
  8
0
100
AcDbLine
 10
1175.475335
 20
229.619929
 30
0.0
 11
1175.475335
 21
219.361015
 31
0.0
  0
LINE
  5
3403
100
AcDbEntity
  8
0
100
AcDbLine
 10
1394.097995
 20
895.511233
 30
0.0
 11
1334.097995
 21
895.511233
 31
0.0
  0
LINE
  5
341B
100
AcDbEntity
  8
0
100
AcDbLine
 10
1320.497995
 20
854.911233
 30
0.0
 11
1347.697995
 21
854.911233
 31
0.0
  0
LINE
  5
341D
100
AcDbEntity
  8
0
100
AcDbLine
 10
1319.097995
 20
853.511233
 30
0.0
 11
1349.097995
 21
853.511233
 31
0.0
  0
LINE
  5
341F
100
AcDbEntity
  8
0
100
AcDbLine
 10
1319.097995
 20
843.252319
 30
0.0
 11
1319.097995
 21
853.511233
 31
0.0
  0
LINE
  5
3420
100
AcDbEntity
  8
0
100
AcDbLine
 10
1274.097995
 20
895.511233
 30
0.0
 11
1334.097995
 21
895.511233
 31
0.0
  0
LINE
  5
3422
100
AcDbEntity
  8
0
100
AcDbLine
 10
1320.497995
 20
854.911233
 30
0.0
 11
1320.497995
 21
872.511233
 31
0.0
  0
LINE
  5
3425
100
AcDbEntity
  8
0
100
AcDbLine
 10
1319.097995
 20
853.511233
 30
0.0
 11
1320.497995
 21
854.911233
 31
0.0
  0
LINE
  5
3426
100
AcDbEntity
  8
0
100
AcDbLine
 10
1349.097995
 20
843.252319
 30
0.0
 11
1349.097995
 21
853.511233
 31
0.0
  0
LINE
  5
3428
100
AcDbEntity
  8
0
100
AcDbLine
 10
1347.697995
 20
854.911233
 30
0.0
 11
1347.697995
 21
872.511233
 31
0.0
  0
LINE
  5
342B
100
AcDbEntity
  8
0
100
AcDbLine
 10
1349.097995
 20
853.511233
 30
0.0
 11
1347.697995
 21
854.911233
 31
0.0
  0
LINE
  5
342E
100
AcDbEntity
  8
0
100
AcDbLine
 10
1320.497995
 20
708.160225
 30
0.0
 11
1347.697995
 21
708.160225
 31
0.0
  0
LINE
  5
342F
100
AcDbEntity
  8
0
100
AcDbLine
 10
1319.097995
 20
709.560225
 30
0.0
 11
1349.097995
 21
709.560225
 31
0.0
  0
LINE
  5
3434
100
AcDbEntity
  8
0
100
AcDbLine
 10
1319.097995
 20
719.746316
 30
0.0
 11
1319.097995
 21
709.560225
 31
0.0
  0
LINE
  5
3437
100
AcDbEntity
  8
0
100
AcDbLine
 10
1319.097995
 20
709.560225
 30
0.0
 11
1320.497995
 21
708.160225
 31
0.0
  0
LINE
  5
343A
100
AcDbEntity
  8
0
100
AcDbLine
 10
1349.097995
 20
719.769135
 30
0.0
 11
1349.097995
 21
709.560225
 31
0.0
  0
LINE
  5
343C
100
AcDbEntity
  8
0
100
AcDbLine
 10
1349.097995
 20
709.560225
 30
0.0
 11
1347.697995
 21
708.160225
 31
0.0
  0
LINE
  5
3456
100
AcDbEntity
  8
0
100
AcDbLine
 10
635.425447
 20
361.312023
 30
0.0
 11
635.425447
 21
352.579728
 31
0.0
  0
LINE
  5
345D
100
AcDbEntity
  8
0
100
AcDbLine
 10
665.425447
 20
361.312023
 30
0.0
 11
665.425447
 21
352.579728
 31
0.0
  0
LINE
  5
3470
100
AcDbEntity
  8
0
100
AcDbLine
 10
635.425447
 20
221.312023
 30
0.0
 11
635.425447
 21
230.044319
 31
0.0
  0
LINE
  5
3475
100
AcDbEntity
  8
0
100
AcDbLine
 10
665.425447
 20
221.312023
 30
0.0
 11
665.425447
 21
230.044319
 31
0.0
  0
LINE
  5
3485
100
AcDbEntity
  8
0
100
AcDbLine
 10
485.920394
 20
361.312023
 30
0.0
 11
485.920394
 21
352.579728
 31
0.0
  0
LINE
  5
348A
100
AcDbEntity
  8
0
100
AcDbLine
 10
515.920394
 20
361.312023
 30
0.0
 11
515.920394
 21
352.579728
 31
0.0
  0
LINE
  5
3498
100
AcDbEntity
  8
0
100
AcDbLine
 10
485.920394
 20
221.312023
 30
0.0
 11
485.920394
 21
230.044319
 31
0.0
  0
LINE
  5
349E
100
AcDbEntity
  8
0
100
AcDbLine
 10
515.920394
 20
221.312023
 30
0.0
 11
515.920394
 21
230.044319
 31
0.0
  0
LINE
  5
34A9
100
AcDbEntity
  8
0
100
AcDbLine
 10
336.41534
 20
361.312023
 30
0.0
 11
336.41534
 21
352.579728
 31
0.0
  0
LINE
  5
34AE
100
AcDbEntity
  8
0
100
AcDbLine
 10
366.41534
 20
361.312023
 30
0.0
 11
366.41534
 21
352.579728
 31
0.0
  0
LINE
  5
34BC
100
AcDbEntity
  8
0
100
AcDbLine
 10
336.41534
 20
221.312023
 30
0.0
 11
336.41534
 21
230.044319
 31
0.0
  0
LINE
  5
34C2
100
AcDbEntity
  8
0
100
AcDbLine
 10
366.41534
 20
221.312023
 30
0.0
 11
366.41534
 21
230.044319
 31
0.0
  0
LINE
  5
34F5
100
AcDbEntity
  8
0
100
AcDbLine
 10
558.420394
 20
883.86318
 30
0.0
 11
500.920394
 21
883.86318
 31
0.0
  0
LINE
  5
34F7
100
AcDbEntity
  8
0
100
AcDbLine
 10
485.920394
 20
849.86318
 30
0.0
 11
515.920394
 21
849.86318
 31
0.0
  0
LINE
  5
34F8
100
AcDbEntity
  8
0
100
AcDbLine
 10
490.070394
 20
854.01318
 30
0.0
 11
511.770394
 21
854.01318
 31
0.0
  0
LINE
  5
34FA
100
AcDbEntity
  8
0
100
AcDbLine
 10
490.070394
 20
860.86318
 30
0.0
 11
490.070394
 21
854.01318
 31
0.0
  0
LINE
  5
34FB
100
AcDbEntity
  8
0
100
AcDbLine
 10
485.920394
 20
849.86318
 30
0.0
 11
490.070394
 21
854.01318
 31
0.0
  0
LINE
  5
34FC
100
AcDbEntity
  8
0
100
AcDbLine
 10
485.920394
 20
849.86318
 30
0.0
 11
485.920394
 21
841.130885
 31
0.0
  0
LINE
  5
34FD
100
AcDbEntity
  8
0
100
AcDbLine
 10
443.420394
 20
883.86318
 30
0.0
 11
500.920394
 21
883.86318
 31
0.0
  0
LINE
  5
3501
100
AcDbEntity
  8
0
100
AcDbLine
 10
511.770394
 20
860.86318
 30
0.0
 11
511.770394
 21
854.01318
 31
0.0
  0
LINE
  5
3502
100
AcDbEntity
  8
0
100
AcDbLine
 10
515.920394
 20
849.86318
 30
0.0
 11
511.770394
 21
854.01318
 31
0.0
  0
LINE
  5
3503
100
AcDbEntity
  8
0
100
AcDbLine
 10
515.920394
 20
849.86318
 30
0.0
 11
515.920394
 21
841.130885
 31
0.0
  0
LINE
  5
3584
100
AcDbEntity
  8
0
100
AcDbLine
 10
443.420394
 20
863.86318
 30
0.0
 11
443.420394
 21
883.86318
 31
0.0
  0
LINE
  5
3585
100
AcDbEntity
  8
0
100
AcDbLine
 10
443.420394
 20
863.86318
 30
0.0
 11
558.420394
 21
863.86318
 31
0.0
  0
LINE
  5
3639
100
AcDbEntity
  8
0
100
AcDbLine
 10
490.070394
 20
860.86318
 30
0.0
 11
487.070394
 21
863.86318
 31
0.0
  0
LINE
  5
3650
100
AcDbEntity
  8
0
100
AcDbLine
 10
558.420394
 20
863.86318
 30
0.0
 11
558.420394
 21
883.86318
 31
0.0
  0
LINE
  5
3651
100
AcDbEntity
  8
0
100
AcDbLine
 10
511.770394
 20
860.86318
 30
0.0
 11
514.770394
 21
863.86318
 31
0.0
  0
LINE
  5
3653
100
AcDbEntity
  8
0
100
AcDbLine
 10
490.070394
 20
860.86318
 30
0.0
 11
511.770394
 21
860.86318
 31
0.0
  0
LINE
  5
3678
100
AcDbEntity
  8
0
100
AcDbLine
 10
558.420394
 20
675.86318
 30
0.0
 11
500.920394
 21
675.86318
 31
0.0
  0
LINE
  5
3679
100
AcDbEntity
  8
0
100
AcDbLine
 10
443.420394
 20
695.86318
 30
0.0
 11
558.420394
 21
695.86318
 31
0.0
  0
LINE
  5
367A
100
AcDbEntity
  8
0
100
AcDbLine
 10
443.420394
 20
695.86318
 30
0.0
 11
443.420394
 21
675.86318
 31
0.0
  0
LINE
  5
367D
100
AcDbEntity
  8
0
100
AcDbLine
 10
443.420394
 20
675.86318
 30
0.0
 11
500.920394
 21
675.86318
 31
0.0
  0
LINE
  5
367E
100
AcDbEntity
  8
0
100
AcDbLine
 10
558.420394
 20
695.86318
 30
0.0
 11
558.420394
 21
675.86318
 31
0.0
  0
CIRCLE
  5
3683
100
AcDbEntity
  8
0
100
AcDbCircle
 10
500.920394
 20
564.236927
 30
0.0
 40
57.5
  0
CIRCLE
  5
3686
100
AcDbEntity
  8
0
100
AcDbCircle
 10
529.204665
 20
592.521198
 30
0.0
 40
9.5
  0
CIRCLE
  5
3687
100
AcDbEntity
  8
0
100
AcDbCircle
 10
472.636122
 20
592.521198
 30
0.0
 40
9.5
  0
CIRCLE
  5
3688
100
AcDbEntity
  8
0
100
AcDbCircle
 10
472.636122
 20
535.952656
 30
0.0
 40
9.5
  0
CIRCLE
  5
3689
100
AcDbEntity
  8
0
100
AcDbCircle
 10
529.204665
 20
535.952656
 30
0.0
 40
9.5
  0
LINE
  5
36B3
100
AcDbEntity
  8
0
100
AcDbLine
 10
408.824945
 20
395.312023
 30
0.0
 11
351.324945
 21
395.312023
 31
0.0
  0
LINE
  5
36B4
100
AcDbEntity
  8
0
100
AcDbLine
 10
293.824945
 20
375.312023
 30
0.0
 11
408.824945
 21
375.312023
 31
0.0
  0
LINE
  5
36B7
100
AcDbEntity
  8
0
100
AcDbLine
 10
293.824945
 20
375.312023
 30
0.0
 11
293.824945
 21
395.312023
 31
0.0
  0
LINE
  5
36BC
100
AcDbEntity
  8
0
100
AcDbLine
 10
293.824945
 20
395.312023
 30
0.0
 11
351.324945
 21
395.312023
 31
0.0
  0
LINE
  5
36BD
100
AcDbEntity
  8
0
100
AcDbLine
 10
408.824945
 20
375.312023
 30
0.0
 11
408.824945
 21
395.312023
 31
0.0
  0
LINE
  5
36F0
100
AcDbEntity
  8
0
100
AcDbLine
 10
293.824945
 20
207.312023
 30
0.0
 11
408.824945
 21
207.312023
 31
0.0
  0
LINE
  5
36F1
100
AcDbEntity
  8
0
100
AcDbLine
 10
408.824945
 20
187.312023
 30
0.0
 11
351.324945
 21
187.312023
 31
0.0
  0
LINE
  5
36F2
100
AcDbEntity
  8
0
100
AcDbLine
 10
293.824945
 20
187.312023
 30
0.0
 11
351.324945
 21
187.312023
 31
0.0
  0
LINE
  5
36F6
100
AcDbEntity
  8
0
100
AcDbLine
 10
293.824945
 20
207.312023
 30
0.0
 11
293.824945
 21
187.312023
 31
0.0
  0
LINE
  5
36FF
100
AcDbEntity
  8
0
100
AcDbLine
 10
408.824945
 20
207.312023
 30
0.0
 11
408.824945
 21
187.312023
 31
0.0
  0
LINE
  5
3702
100
AcDbEntity
  8
0
100
AcDbLine
 10
443.420394
 20
375.312023
 30
0.0
 11
558.420394
 21
375.312023
 31
0.0
  0
LINE
  5
3703
100
AcDbEntity
  8
0
100
AcDbLine
 10
558.420394
 20
395.312023
 30
0.0
 11
500.920394
 21
395.312023
 31
0.0
  0
LINE
  5
3704
100
AcDbEntity
  8
0
100
AcDbLine
 10
443.420394
 20
395.312023
 30
0.0
 11
500.920394
 21
395.312023
 31
0.0
  0
LINE
  5
3708
100
AcDbEntity
  8
0
100
AcDbLine
 10
443.420394
 20
375.312023
 30
0.0
 11
443.420394
 21
395.312023
 31
0.0
  0
LINE
  5
3711
100
AcDbEntity
  8
0
100
AcDbLine
 10
558.420394
 20
375.312023
 30
0.0
 11
558.420394
 21
395.312023
 31
0.0
  0
LINE
  5
3712
100
AcDbEntity
  8
0
100
AcDbLine
 10
558.420394
 20
207.312023
 30
0.0
 11
558.420394
 21
187.312023
 31
0.0
  0
LINE
  5
3713
100
AcDbEntity
  8
0
100
AcDbLine
 10
443.420394
 20
207.312023
 30
0.0
 11
443.420394
 21
187.312023
 31
0.0
  0
LINE
  5
3714
100
AcDbEntity
  8
0
100
AcDbLine
 10
558.420394
 20
187.312023
 30
0.0
 11
500.920394
 21
187.312023
 31
0.0
  0
LINE
  5
3715
100
AcDbEntity
  8
0
100
AcDbLine
 10
443.420394
 20
187.312023
 30
0.0
 11
500.920394
 21
187.312023
 31
0.0
  0
LINE
  5
3716
100
AcDbEntity
  8
0
100
AcDbLine
 10
443.420394
 20
207.312023
 30
0.0
 11
558.420394
 21
207.312023
 31
0.0
  0
LINE
  5
3722
100
AcDbEntity
  8
0
100
AcDbLine
 10
592.925447
 20
375.312023
 30
0.0
 11
707.925447
 21
375.312023
 31
0.0
  0
LINE
  5
3723
100
AcDbEntity
  8
0
100
AcDbLine
 10
707.925447
 20
395.312023
 30
0.0
 11
650.425447
 21
395.312023
 31
0.0
  0
LINE
  5
3724
100
AcDbEntity
  8
0
100
AcDbLine
 10
592.925447
 20
395.312023
 30
0.0
 11
650.425447
 21
395.312023
 31
0.0
  0
LINE
  5
3728
100
AcDbEntity
  8
0
100
AcDbLine
 10
592.925447
 20
375.312023
 30
0.0
 11
592.925447
 21
395.312023
 31
0.0
  0
LINE
  5
3731
100
AcDbEntity
  8
0
100
AcDbLine
 10
707.925447
 20
375.312023
 30
0.0
 11
707.925447
 21
395.312023
 31
0.0
  0
LINE
  5
3732
100
AcDbEntity
  8
0
100
AcDbLine
 10
707.925447
 20
207.312023
 30
0.0
 11
707.925447
 21
187.312023
 31
0.0
  0
LINE
  5
3733
100
AcDbEntity
  8
0
100
AcDbLine
 10
592.925447
 20
207.312023
 30
0.0
 11
592.925447
 21
187.312023
 31
0.0
  0
LINE
  5
3734
100
AcDbEntity
  8
0
100
AcDbLine
 10
707.925447
 20
187.312023
 30
0.0
 11
650.425447
 21
187.312023
 31
0.0
  0
LINE
  5
3735
100
AcDbEntity
  8
0
100
AcDbLine
 10
592.925447
 20
187.312023
 30
0.0
 11
650.425447
 21
187.312023
 31
0.0
  0
LINE
  5
3736
100
AcDbEntity
  8
0
100
AcDbLine
 10
592.925447
 20
207.312023
 30
0.0
 11
707.925447
 21
207.312023
 31
0.0
  0
LINE
  5
3743
100
AcDbEntity
  8
0
100
AcDbLine
 10
1274.097995
 20
875.511233
 30
0.0
 11
1274.097995
 21
895.511233
 31
0.0
  0
LINE
  5
3744
100
AcDbEntity
  8
0
100
AcDbLine
 10
1274.097995
 20
875.511233
 30
0.0
 11
1394.097995
 21
875.511233
 31
0.0
  0
LINE
  5
3769
100
AcDbEntity
  8
0
100
AcDbLine
 10
490.070394
 20
698.86318
 30
0.0
 11
511.770394
 21
698.86318
 31
0.0
  0
LINE
  5
376A
100
AcDbEntity
  8
0
100
AcDbLine
 10
485.920394
 20
709.86318
 30
0.0
 11
515.920394
 21
709.86318
 31
0.0
  0
LINE
  5
376B
100
AcDbEntity
  8
0
100
AcDbLine
 10
490.070394
 20
705.71318
 30
0.0
 11
511.770394
 21
705.71318
 31
0.0
  0
LINE
  5
376C
100
AcDbEntity
  8
0
100
AcDbLine
 10
485.920394
 20
718.595476
 30
0.0
 11
515.920394
 21
718.595476
 31
0.0
  0
LINE
  5
376D
100
AcDbEntity
  8
0
100
AcDbLine
 10
490.070394
 20
698.86318
 30
0.0
 11
487.070394
 21
695.86318
 31
0.0
  0
LINE
  5
376E
100
AcDbEntity
  8
0
100
AcDbLine
 10
490.070394
 20
698.86318
 30
0.0
 11
490.070394
 21
705.71318
 31
0.0
  0
LINE
  5
3770
100
AcDbEntity
  8
0
100
AcDbLine
 10
485.920394
 20
709.86318
 30
0.0
 11
490.070394
 21
705.71318
 31
0.0
  0
LINE
  5
3771
100
AcDbEntity
  8
0
100
AcDbLine
 10
485.920394
 20
709.86318
 30
0.0
 11
485.920394
 21
718.595476
 31
0.0
  0
POLYLINE
  5
3772
100
AcDbEntity
  8
0
100
AcDb2dPolyline
 66
     1
 10
0.0
 20
0.0
 30
0.0
  0
VERTEX
  5
3DC0
100
AcDbEntity
  8
0
100
AcDbVertex
100
AcDb2dVertex
 10
485.094235
 20
719.56318
 30
0.0
  0
VERTEX
  5
3DC1
100
AcDbEntity
  8
0
100
AcDbVertex
100
AcDb2dVertex
 10
485.920394
 20
718.595476
 30
0.0
  0
SEQEND
  5
3DC2
100
AcDbEntity
  8
0
  0
LINE
  5
3773
100
AcDbEntity
  8
0
100
AcDbLine
 10
511.770394
 20
698.86318
 30
0.0
 11
514.770394
 21
695.86318
 31
0.0
  0
LINE
  5
3774
100
AcDbEntity
  8
0
100
AcDbLine
 10
511.770394
 20
698.86318
 30
0.0
 11
511.770394
 21
705.71318
 31
0.0
  0
LINE
  5
3776
100
AcDbEntity
  8
0
100
AcDbLine
 10
515.920394
 20
709.86318
 30
0.0
 11
511.770394
 21
705.71318
 31
0.0
  0
LINE
  5
3777
100
AcDbEntity
  8
0
100
AcDbLine
 10
515.920394
 20
709.86318
 30
0.0
 11
515.920394
 21
718.595476
 31
0.0
  0
POLYLINE
  5
3778
100
AcDbEntity
  8
0
100
AcDb2dPolyline
 66
     1
 10
0.0
 20
0.0
 30
0.0
  0
VERTEX
  5
3DC3
100
AcDbEntity
  8
0
100
AcDbVertex
100
AcDb2dVertex
 10
516.746552
 20
719.56318
 30
0.0
  0
VERTEX
  5
3DC4
100
AcDbEntity
  8
0
100
AcDbVertex
100
AcDb2dVertex
 10
515.920394
 20
718.595476
 30
0.0
  0
SEQEND
  5
3DC5
100
AcDbEntity
  8
0
  0
LINE
  5
37D0
100
AcDbEntity
  8
0
100
AcDbLine
 10
340.474945
 20
365.462023
 30
0.0
 11
362.174945
 21
365.462023
 31
0.0
  0
LINE
  5
37D1
100
AcDbEntity
  8
0
100
AcDbLine
 10
336.324945
 20
361.312023
 30
0.0
 11
366.324945
 21
361.312023
 31
0.0
  0
LINE
  5
37D2
100
AcDbEntity
  8
0
100
AcDbLine
 10
340.474945
 20
372.312023
 30
0.0
 11
362.174945
 21
372.312023
 31
0.0
  0
LINE
  5
37D3
100
AcDbEntity
  8
0
100
AcDbLine
 10
336.324945
 20
361.312023
 30
0.0
 11
340.474945
 21
365.462023
 31
0.0
  0
LINE
  5
37D5
100
AcDbEntity
  8
0
100
AcDbLine
 10
340.474945
 20
372.312023
 30
0.0
 11
340.474945
 21
365.462023
 31
0.0
  0
LINE
  5
37D6
100
AcDbEntity
  8
0
100
AcDbLine
 10
340.474945
 20
372.312023
 30
0.0
 11
337.474945
 21
375.312023
 31
0.0
  0
LINE
  5
37D7
100
AcDbEntity
  8
0
100
AcDbLine
 10
366.324945
 20
361.312023
 30
0.0
 11
362.174945
 21
365.462023
 31
0.0
  0
LINE
  5
37D9
100
AcDbEntity
  8
0
100
AcDbLine
 10
362.174945
 20
372.312023
 30
0.0
 11
362.174945
 21
365.462023
 31
0.0
  0
LINE
  5
37DA
100
AcDbEntity
  8
0
100
AcDbLine
 10
362.174945
 20
372.312023
 30
0.0
 11
365.174945
 21
375.312023
 31
0.0
  0
LINE
  5
37DB
100
AcDbEntity
  8
0
100
AcDbLine
 10
340.474945
 20
210.312023
 30
0.0
 11
362.174945
 21
210.312023
 31
0.0
  0
LINE
  5
37DC
100
AcDbEntity
  8
0
100
AcDbLine
 10
336.324945
 20
221.312023
 30
0.0
 11
366.324945
 21
221.312023
 31
0.0
  0
LINE
  5
37DD
100
AcDbEntity
  8
0
100
AcDbLine
 10
340.474945
 20
217.162023
 30
0.0
 11
362.174945
 21
217.162023
 31
0.0
  0
LINE
  5
37DF
100
AcDbEntity
  8
0
100
AcDbLine
 10
340.474945
 20
210.312023
 30
0.0
 11
340.474945
 21
217.162023
 31
0.0
  0
LINE
  5
37E0
100
AcDbEntity
  8
0
100
AcDbLine
 10
340.474945
 20
210.312023
 30
0.0
 11
337.474945
 21
207.312023
 31
0.0
  0
LINE
  5
37E1
100
AcDbEntity
  8
0
100
AcDbLine
 10
336.324945
 20
221.312023
 30
0.0
 11
340.474945
 21
217.162023
 31
0.0
  0
LINE
  5
37E3
100
AcDbEntity
  8
0
100
AcDbLine
 10
362.174945
 20
210.312023
 30
0.0
 11
362.174945
 21
217.162023
 31
0.0
  0
LINE
  5
37E4
100
AcDbEntity
  8
0
100
AcDbLine
 10
362.174945
 20
210.312023
 30
0.0
 11
365.174945
 21
207.312023
 31
0.0
  0
LINE
  5
37E5
100
AcDbEntity
  8
0
100
AcDbLine
 10
366.324945
 20
221.312023
 30
0.0
 11
362.174945
 21
217.162023
 31
0.0
  0
LINE
  5
3800
100
AcDbEntity
  8
0
100
AcDbLine
 10
490.070394
 20
365.462023
 30
0.0
 11
511.770394
 21
365.462023
 31
0.0
  0
LINE
  5
3801
100
AcDbEntity
  8
0
100
AcDbLine
 10
485.920394
 20
361.312023
 30
0.0
 11
515.920394
 21
361.312023
 31
0.0
  0
LINE
  5
3802
100
AcDbEntity
  8
0
100
AcDbLine
 10
490.070394
 20
372.312023
 30
0.0
 11
511.770394
 21
372.312023
 31
0.0
  0
LINE
  5
3803
100
AcDbEntity
  8
0
100
AcDbLine
 10
485.920394
 20
361.312023
 30
0.0
 11
490.070394
 21
365.462023
 31
0.0
  0
LINE
  5
3805
100
AcDbEntity
  8
0
100
AcDbLine
 10
490.070394
 20
372.312023
 30
0.0
 11
490.070394
 21
365.462023
 31
0.0
  0
LINE
  5
3806
100
AcDbEntity
  8
0
100
AcDbLine
 10
490.070394
 20
372.312023
 30
0.0
 11
487.070394
 21
375.312023
 31
0.0
  0
LINE
  5
3807
100
AcDbEntity
  8
0
100
AcDbLine
 10
515.920394
 20
361.312023
 30
0.0
 11
511.770394
 21
365.462023
 31
0.0
  0
LINE
  5
3809
100
AcDbEntity
  8
0
100
AcDbLine
 10
511.770394
 20
372.312023
 30
0.0
 11
511.770394
 21
365.462023
 31
0.0
  0
LINE
  5
380A
100
AcDbEntity
  8
0
100
AcDbLine
 10
511.770394
 20
372.312023
 30
0.0
 11
514.770394
 21
375.312023
 31
0.0
  0
LINE
  5
380B
100
AcDbEntity
  8
0
100
AcDbLine
 10
490.070394
 20
210.312023
 30
0.0
 11
511.770394
 21
210.312023
 31
0.0
  0
LINE
  5
380C
100
AcDbEntity
  8
0
100
AcDbLine
 10
485.920394
 20
221.312023
 30
0.0
 11
515.920394
 21
221.312023
 31
0.0
  0
LINE
  5
380D
100
AcDbEntity
  8
0
100
AcDbLine
 10
490.070394
 20
217.162023
 30
0.0
 11
511.770394
 21
217.162023
 31
0.0
  0
LINE
  5
380F
100
AcDbEntity
  8
0
100
AcDbLine
 10
490.070394
 20
210.312023
 30
0.0
 11
490.070394
 21
217.162023
 31
0.0
  0
LINE
  5
3810
100
AcDbEntity
  8
0
100
AcDbLine
 10
490.070394
 20
210.312023
 30
0.0
 11
487.070394
 21
207.312023
 31
0.0
  0
LINE
  5
3811
100
AcDbEntity
  8
0
100
AcDbLine
 10
485.920394
 20
221.312023
 30
0.0
 11
490.070394
 21
217.162023
 31
0.0
  0
LINE
  5
3813
100
AcDbEntity
  8
0
100
AcDbLine
 10
511.770394
 20
210.312023
 30
0.0
 11
511.770394
 21
217.162023
 31
0.0
  0
LINE
  5
3814
100
AcDbEntity
  8
0
100
AcDbLine
 10
511.770394
 20
210.312023
 30
0.0
 11
514.770394
 21
207.312023
 31
0.0
  0
LINE
  5
3815
100
AcDbEntity
  8
0
100
AcDbLine
 10
515.920394
 20
221.312023
 30
0.0
 11
511.770394
 21
217.162023
 31
0.0
  0
LINE
  5
3830
100
AcDbEntity
  8
0
100
AcDbLine
 10
639.575447
 20
365.462023
 30
0.0
 11
661.275447
 21
365.462023
 31
0.0
  0
LINE
  5
3831
100
AcDbEntity
  8
0
100
AcDbLine
 10
635.425447
 20
361.312023
 30
0.0
 11
665.425447
 21
361.312023
 31
0.0
  0
LINE
  5
3832
100
AcDbEntity
  8
0
100
AcDbLine
 10
639.575447
 20
372.312023
 30
0.0
 11
661.275447
 21
372.312023
 31
0.0
  0
LINE
  5
3833
100
AcDbEntity
  8
0
100
AcDbLine
 10
635.425447
 20
361.312023
 30
0.0
 11
639.575447
 21
365.462023
 31
0.0
  0
LINE
  5
3835
100
AcDbEntity
  8
0
100
AcDbLine
 10
639.575447
 20
372.312023
 30
0.0
 11
639.575447
 21
365.462023
 31
0.0
  0
LINE
  5
3836
100
AcDbEntity
  8
0
100
AcDbLine
 10
639.575447
 20
372.312023
 30
0.0
 11
636.575447
 21
375.312023
 31
0.0
  0
LINE
  5
3837
100
AcDbEntity
  8
0
100
AcDbLine
 10
665.425447
 20
361.312023
 30
0.0
 11
661.275447
 21
365.462023
 31
0.0
  0
LINE
  5
3839
100
AcDbEntity
  8
0
100
AcDbLine
 10
661.275447
 20
372.312023
 30
0.0
 11
661.275447
 21
365.462023
 31
0.0
  0
LINE
  5
383A
100
AcDbEntity
  8
0
100
AcDbLine
 10
661.275447
 20
372.312023
 30
0.0
 11
664.275447
 21
375.312023
 31
0.0
  0
LINE
  5
383B
100
AcDbEntity
  8
0
100
AcDbLine
 10
639.575447
 20
210.312023
 30
0.0
 11
661.275447
 21
210.312023
 31
0.0
  0
LINE
  5
383C
100
AcDbEntity
  8
0
100
AcDbLine
 10
635.425447
 20
221.312023
 30
0.0
 11
665.425447
 21
221.312023
 31
0.0
  0
LINE
  5
383D
100
AcDbEntity
  8
0
100
AcDbLine
 10
639.575447
 20
217.162023
 30
0.0
 11
661.275447
 21
217.162023
 31
0.0
  0
LINE
  5
383F
100
AcDbEntity
  8
0
100
AcDbLine
 10
639.575447
 20
210.312023
 30
0.0
 11
639.575447
 21
217.162023
 31
0.0
  0
LINE
  5
3840
100
AcDbEntity
  8
0
100
AcDbLine
 10
639.575447
 20
210.312023
 30
0.0
 11
636.575447
 21
207.312023
 31
0.0
  0
LINE
  5
3841
100
AcDbEntity
  8
0
100
AcDbLine
 10
635.425447
 20
221.312023
 30
0.0
 11
639.575447
 21
217.162023
 31
0.0
  0
LINE
  5
3843
100
AcDbEntity
  8
0
100
AcDbLine
 10
661.275447
 20
210.312023
 30
0.0
 11
661.275447
 21
217.162023
 31
0.0
  0
LINE
  5
3844
100
AcDbEntity
  8
0
100
AcDbLine
 10
661.275447
 20
210.312023
 30
0.0
 11
664.275447
 21
207.312023
 31
0.0
  0
LINE
  5
3845
100
AcDbEntity
  8
0
100
AcDbLine
 10
665.425447
 20
221.312023
 30
0.0
 11
661.275447
 21
217.162023
 31
0.0
  0
LINE
  5
3846
100
AcDbEntity
  8
0
100
AcDbLine
 10
1320.497995
 20
872.511233
 30
0.0
 11
1347.697995
 21
872.511233
 31
0.0
  0
LINE
  5
3847
100
AcDbEntity
  8
0
100
AcDbLine
 10
1394.097995
 20
875.511233
 30
0.0
 11
1394.097995
 21
895.511233
 31
0.0
  0
LINE
  5
3848
100
AcDbEntity
  8
0
100
AcDbLine
 10
1320.497995
 20
872.511233
 30
0.0
 11
1317.497995
 21
875.511233
 31
0.0
  0
LINE
  5
3849
100
AcDbEntity
  8
0
100
AcDbLine
 10
1347.697995
 20
872.511233
 30
0.0
 11
1350.697995
 21
875.511233
 31
0.0
  0
LINE
  5
384A
100
AcDbEntity
  8
0
100
AcDbLine
 10
1320.497995
 20
690.560225
 30
0.0
 11
1347.697995
 21
690.560225
 31
0.0
  0
LINE
  5
384B
100
AcDbEntity
  8
0
100
AcDbLine
 10
1274.097995
 20
687.560225
 30
0.0
 11
1394.097995
 21
687.560225
 31
0.0
  0
LINE
  5
384C
100
AcDbEntity
  8
0
100
AcDbLine
 10
1394.097995
 20
667.560225
 30
0.0
 11
1334.097995
 21
667.560225
 31
0.0
  0
LINE
  5
384D
100
AcDbEntity
  8
0
100
AcDbLine
 10
1274.097995
 20
667.560225
 30
0.0
 11
1334.097995
 21
667.560225
 31
0.0
  0
LINE
  5
384E
100
AcDbEntity
  8
0
100
AcDbLine
 10
1274.097995
 20
687.560225
 30
0.0
 11
1274.097995
 21
667.560225
 31
0.0
  0
LINE
  5
384F
100
AcDbEntity
  8
0
100
AcDbLine
 10
1320.497995
 20
690.560225
 30
0.0
 11
1317.497995
 21
687.560225
 31
0.0
  0
LINE
  5
3850
100
AcDbEntity
  8
0
100
AcDbLine
 10
1347.697995
 20
690.560225
 30
0.0
 11
1350.697995
 21
687.560225
 31
0.0
  0
LINE
  5
3851
100
AcDbEntity
  8
0
100
AcDbLine
 10
1394.097995
 20
687.560225
 30
0.0
 11
1394.097995
 21
667.560225
 31
0.0
  0
LINE
  5
3852
100
AcDbEntity
  8
0
100
AcDbLine
 10
1320.497995
 20
708.160225
 30
0.0
 11
1320.497995
 21
690.560225
 31
0.0
  0
LINE
  5
3853
100
AcDbEntity
  8
0
100
AcDbLine
 10
1347.697995
 20
708.160225
 30
0.0
 11
1347.697995
 21
690.560225
 31
0.0
  0
LINE
  5
3887
100
AcDbEntity
  8
0
100
AcDbLine
 10
1146.875335
 20
382.312023
 30
0.0
 11
1174.075335
 21
382.312023
 31
0.0
  0
LINE
  5
3888
100
AcDbEntity
  8
0
100
AcDbLine
 10
1100.475335
 20
385.312023
 30
0.0
 11
1220.475335
 21
385.312023
 31
0.0
  0
LINE
  5
3889
100
AcDbEntity
  8
0
100
AcDbLine
 10
1220.475335
 20
405.312023
 30
0.0
 11
1160.475335
 21
405.312023
 31
0.0
  0
LINE
  5
388A
100
AcDbEntity
  8
0
100
AcDbLine
 10
1100.475335
 20
405.312023
 30
0.0
 11
1160.475335
 21
405.312023
 31
0.0
  0
LINE
  5
388B
100
AcDbEntity
  8
0
100
AcDbLine
 10
1100.475335
 20
385.312023
 30
0.0
 11
1100.475335
 21
405.312023
 31
0.0
  0
LINE
  5
388C
100
AcDbEntity
  8
0
100
AcDbLine
 10
1146.875335
 20
382.312023
 30
0.0
 11
1143.875335
 21
385.312023
 31
0.0
  0
LINE
  5
388D
100
AcDbEntity
  8
0
100
AcDbLine
 10
1174.075335
 20
382.312023
 30
0.0
 11
1177.075335
 21
385.312023
 31
0.0
  0
LINE
  5
388E
100
AcDbEntity
  8
0
100
AcDbLine
 10
1220.475335
 20
385.312023
 30
0.0
 11
1220.475335
 21
405.312023
 31
0.0
  0
LINE
  5
388F
100
AcDbEntity
  8
0
100
AcDbLine
 10
1146.875335
 20
364.712023
 30
0.0
 11
1146.875335
 21
382.312023
 31
0.0
  0
LINE
  5
3890
100
AcDbEntity
  8
0
100
AcDbLine
 10
1174.075335
 20
364.712023
 30
0.0
 11
1174.075335
 21
382.312023
 31
0.0
  0
LINE
  5
3891
100
AcDbEntity
  8
0
100
AcDbLine
 10
1100.475335
 20
197.361015
 30
0.0
 11
1220.475335
 21
197.361015
 31
0.0
  0
LINE
  5
3892
100
AcDbEntity
  8
0
100
AcDbLine
 10
1146.875335
 20
200.361015
 30
0.0
 11
1174.075335
 21
200.361015
 31
0.0
  0
LINE
  5
3893
100
AcDbEntity
  8
0
100
AcDbLine
 10
1100.475335
 20
197.361015
 30
0.0
 11
1100.475335
 21
177.361015
 31
0.0
  0
LINE
  5
3894
100
AcDbEntity
  8
0
100
AcDbLine
 10
1146.875335
 20
217.961015
 30
0.0
 11
1146.875335
 21
200.361015
 31
0.0
  0
LINE
  5
3895
100
AcDbEntity
  8
0
100
AcDbLine
 10
1146.875335
 20
200.361015
 30
0.0
 11
1143.875335
 21
197.361015
 31
0.0
  0
LINE
  5
3896
100
AcDbEntity
  8
0
100
AcDbLine
 10
1174.075335
 20
217.961015
 30
0.0
 11
1174.075335
 21
200.361015
 31
0.0
  0
LINE
  5
3897
100
AcDbEntity
  8
0
100
AcDbLine
 10
1174.075335
 20
200.361015
 30
0.0
 11
1177.075335
 21
197.361015
 31
0.0
  0
LINE
  5
3898
100
AcDbEntity
  8
0
100
AcDbLine
 10
1220.475335
 20
197.361015
 30
0.0
 11
1220.475335
 21
177.361015
 31
0.0
  0
LINE
  5
3899
100
AcDbEntity
  8
0
100
AcDbLine
 10
1100.475335
 20
177.361015
 30
0.0
 11
1160.475335
 21
177.361015
 31
0.0
  0
LINE
  5
389A
100
AcDbEntity
  8
0
100
AcDbLine
 10
1220.475335
 20
177.361015
 30
0.0
 11
1160.475335
 21
177.361015
 31
0.0
  0
LINE
  5
38B3
100
AcDbEntity
  8
0
100
AcDbLine
 10
1320.497995
 20
382.312023
 30
0.0
 11
1347.697995
 21
382.312023
 31
0.0
  0
LINE
  5
38B4
100
AcDbEntity
  8
0
100
AcDbLine
 10
1274.097995
 20
385.312023
 30
0.0
 11
1394.097995
 21
385.312023
 31
0.0
  0
LINE
  5
38B5
100
AcDbEntity
  8
0
100
AcDbLine
 10
1394.097995
 20
405.312023
 30
0.0
 11
1334.097995
 21
405.312023
 31
0.0
  0
LINE
  5
38B6
100
AcDbEntity
  8
0
100
AcDbLine
 10
1274.097995
 20
405.312023
 30
0.0
 11
1334.097995
 21
405.312023
 31
0.0
  0
LINE
  5
38B7
100
AcDbEntity
  8
0
100
AcDbLine
 10
1274.097995
 20
385.312023
 30
0.0
 11
1274.097995
 21
405.312023
 31
0.0
  0
LINE
  5
38B8
100
AcDbEntity
  8
0
100
AcDbLine
 10
1320.497995
 20
382.312023
 30
0.0
 11
1317.497995
 21
385.312023
 31
0.0
  0
LINE
  5
38B9
100
AcDbEntity
  8
0
100
AcDbLine
 10
1347.697995
 20
382.312023
 30
0.0
 11
1350.697995
 21
385.312023
 31
0.0
  0
LINE
  5
38BA
100
AcDbEntity
  8
0
100
AcDbLine
 10
1394.097995
 20
385.312023
 30
0.0
 11
1394.097995
 21
405.312023
 31
0.0
  0
LINE
  5
38BB
100
AcDbEntity
  8
0
100
AcDbLine
 10
1320.497995
 20
364.712023
 30
0.0
 11
1320.497995
 21
382.312023
 31
0.0
  0
LINE
  5
38BC
100
AcDbEntity
  8
0
100
AcDbLine
 10
1347.697995
 20
364.712023
 30
0.0
 11
1347.697995
 21
382.312023
 31
0.0
  0
LINE
  5
38BD
100
AcDbEntity
  8
0
100
AcDbLine
 10
1274.097995
 20
197.361015
 30
0.0
 11
1394.097995
 21
197.361015
 31
0.0
  0
LINE
  5
38BE
100
AcDbEntity
  8
0
100
AcDbLine
 10
1320.497995
 20
200.361015
 30
0.0
 11
1347.697995
 21
200.361015
 31
0.0
  0
LINE
  5
38BF
100
AcDbEntity
  8
0
100
AcDbLine
 10
1274.097995
 20
197.361015
 30
0.0
 11
1274.097995
 21
177.361015
 31
0.0
  0
LINE
  5
38C0
100
AcDbEntity
  8
0
100
AcDbLine
 10
1320.497995
 20
217.961015
 30
0.0
 11
1320.497995
 21
200.361015
 31
0.0
  0
LINE
  5
38C1
100
AcDbEntity
  8
0
100
AcDbLine
 10
1320.497995
 20
200.361015
 30
0.0
 11
1317.497995
 21
197.361015
 31
0.0
  0
LINE
  5
38C2
100
AcDbEntity
  8
0
100
AcDbLine
 10
1347.697995
 20
217.961015
 30
0.0
 11
1347.697995
 21
200.361015
 31
0.0
  0
LINE
  5
38C3
100
AcDbEntity
  8
0
100
AcDbLine
 10
1347.697995
 20
200.361015
 30
0.0
 11
1350.697995
 21
197.361015
 31
0.0
  0
LINE
  5
38C4
100
AcDbEntity
  8
0
100
AcDbLine
 10
1394.097995
 20
197.361015
 30
0.0
 11
1394.097995
 21
177.361015
 31
0.0
  0
LINE
  5
38C5
100
AcDbEntity
  8
0
100
AcDbLine
 10
1274.097995
 20
177.361015
 30
0.0
 11
1334.097995
 21
177.361015
 31
0.0
  0
LINE
  5
38C6
100
AcDbEntity
  8
0
100
AcDbLine
 10
1394.097995
 20
177.361015
 30
0.0
 11
1334.097995
 21
177.361015
 31
0.0
  0
LINE
  5
38DF
100
AcDbEntity
  8
0
100
AcDbLine
 10
1494.120654
 20
382.312023
 30
0.0
 11
1521.320654
 21
382.312023
 31
0.0
  0
LINE
  5
38E0
100
AcDbEntity
  8
0
100
AcDbLine
 10
1447.720654
 20
385.312023
 30
0.0
 11
1567.720654
 21
385.312023
 31
0.0
  0
LINE
  5
38E1
100
AcDbEntity
  8
0
100
AcDbLine
 10
1567.720654
 20
405.312023
 30
0.0
 11
1507.720654
 21
405.312023
 31
0.0
  0
LINE
  5
38E2
100
AcDbEntity
  8
0
100
AcDbLine
 10
1447.720654
 20
405.312023
 30
0.0
 11
1507.720654
 21
405.312023
 31
0.0
  0
LINE
  5
38E3
100
AcDbEntity
  8
0
100
AcDbLine
 10
1447.720654
 20
385.312023
 30
0.0
 11
1447.720654
 21
405.312023
 31
0.0
  0
LINE
  5
38E4
100
AcDbEntity
  8
0
100
AcDbLine
 10
1494.120654
 20
382.312023
 30
0.0
 11
1491.120654
 21
385.312023
 31
0.0
  0
LINE
  5
38E5
100
AcDbEntity
  8
0
100
AcDbLine
 10
1521.320654
 20
382.312023
 30
0.0
 11
1524.320654
 21
385.312023
 31
0.0
  0
LINE
  5
38E6
100
AcDbEntity
  8
0
100
AcDbLine
 10
1567.720654
 20
385.312023
 30
0.0
 11
1567.720654
 21
405.312023
 31
0.0
  0
LINE
  5
38E7
100
AcDbEntity
  8
0
100
AcDbLine
 10
1494.120654
 20
364.712023
 30
0.0
 11
1494.120654
 21
382.312023
 31
0.0
  0
LINE
  5
38E8
100
AcDbEntity
  8
0
100
AcDbLine
 10
1521.320654
 20
364.712023
 30
0.0
 11
1521.320654
 21
382.312023
 31
0.0
  0
LINE
  5
38E9
100
AcDbEntity
  8
0
100
AcDbLine
 10
1447.720654
 20
197.361015
 30
0.0
 11
1567.720654
 21
197.361015
 31
0.0
  0
LINE
  5
38EA
100
AcDbEntity
  8
0
100
AcDbLine
 10
1494.120654
 20
200.361015
 30
0.0
 11
1521.320654
 21
200.361015
 31
0.0
  0
LINE
  5
38EB
100
AcDbEntity
  8
0
100
AcDbLine
 10
1447.720654
 20
197.361015
 30
0.0
 11
1447.720654
 21
177.361015
 31
0.0
  0
LINE
  5
38EC
100
AcDbEntity
  8
0
100
AcDbLine
 10
1494.120654
 20
217.961015
 30
0.0
 11
1494.120654
 21
200.361015
 31
0.0
  0
LINE
  5
38ED
100
AcDbEntity
  8
0
100
AcDbLine
 10
1494.120654
 20
200.361015
 30
0.0
 11
1491.120654
 21
197.361015
 31
0.0
  0
LINE
  5
38EE
100
AcDbEntity
  8
0
100
AcDbLine
 10
1521.320654
 20
217.961015
 30
0.0
 11
1521.320654
 21
200.361015
 31
0.0
  0
LINE
  5
38EF
100
AcDbEntity
  8
0
100
AcDbLine
 10
1521.320654
 20
200.361015
 30
0.0
 11
1524.320654
 21
197.361015
 31
0.0
  0
LINE
  5
38F0
100
AcDbEntity
  8
0
100
AcDbLine
 10
1567.720654
 20
197.361015
 30
0.0
 11
1567.720654
 21
177.361015
 31
0.0
  0
LINE
  5
38F1
100
AcDbEntity
  8
0
100
AcDbLine
 10
1447.720654
 20
177.361015
 30
0.0
 11
1507.720654
 21
177.361015
 31
0.0
  0
LINE
  5
38F2
100
AcDbEntity
  8
0
100
AcDbLine
 10
1567.720654
 20
177.361015
 30
0.0
 11
1507.720654
 21
177.361015
 31
0.0
  0
CIRCLE
  5
38F3
100
AcDbEntity
  8
0
100
AcDbCircle
 10
1334.097995
 20
562.085825
 30
0.0
 40
60.0
  0
CIRCLE
  5
38F6
100
AcDbEntity
  8
0
100
AcDbCircle
 10
1364.150033
 20
592.137863
 30
0.0
 40
9.5
  0
CIRCLE
  5
38F7
100
AcDbEntity
  8
0
100
AcDbCircle
 10
1304.045956
 20
592.137863
 30
0.0
 40
9.5
  0
CIRCLE
  5
38F8
100
AcDbEntity
  8
0
100
AcDbCircle
 10
1304.045956
 20
532.033787
 30
0.0
 40
9.5
  0
CIRCLE
  5
38F9
100
AcDbEntity
  8
0
100
AcDbCircle
 10
1364.150033
 20
532.033787
 30
0.0
 40
9.5
  0
LINE
  5
38FB
100
AcDbEntity
  8
0
100
AcDbLine
 10
2150.245585
 20
881.86318
 30
0.0
 11
2150.245585
 21
903.86318
 31
0.0
  0
LINE
  5
38FC
100
AcDbEntity
  8
0
100
AcDbLine
 10
2150.245585
 20
881.86318
 30
0.0
 11
2280.245585
 21
881.86318
 31
0.0
  0
LINE
  5
38FD
100
AcDbEntity
  8
0
100
AcDbLine
 10
2198.245585
 20
878.86318
 30
0.0
 11
2232.245585
 21
878.86318
 31
0.0
  0
LINE
  5
38FE
100
AcDbEntity
  8
0
100
AcDbLine
 10
2198.245585
 20
878.86318
 30
0.0
 11
2195.245585
 21
881.86318
 31
0.0
  0
LINE
  5
38FF
100
AcDbEntity
  8
0
100
AcDbLine
 10
2280.245585
 20
881.86318
 30
0.0
 11
2280.245585
 21
903.86318
 31
0.0
  0
LINE
  5
3900
100
AcDbEntity
  8
0
100
AcDbLine
 10
2232.245585
 20
878.86318
 30
0.0
 11
2235.245585
 21
881.86318
 31
0.0
  0
LINE
  5
3901
100
AcDbEntity
  8
0
100
AcDbLine
 10
2150.245585
 20
677.86318
 30
0.0
 11
2280.245585
 21
677.86318
 31
0.0
  0
LINE
  5
3902
100
AcDbEntity
  8
0
100
AcDbLine
 10
2150.245585
 20
655.86318
 30
0.0
 11
2215.245585
 21
655.86318
 31
0.0
  0
LINE
  5
3903
100
AcDbEntity
  8
0
100
AcDbLine
 10
2152.745585
 20
655.86318
 30
0.0
 11
2215.245585
 21
655.86318
 31
0.0
  0
LINE
  5
3904
100
AcDbEntity
  8
0
100
AcDbLine
 10
2150.245585
 20
677.86318
 30
0.0
 11
2150.245585
 21
655.86318
 31
0.0
  0
LINE
  5
3905
100
AcDbEntity
  8
0
100
AcDbLine
 10
2280.245585
 20
655.86318
 30
0.0
 11
2215.245585
 21
655.86318
 31
0.0
  0
LINE
  5
3906
100
AcDbEntity
  8
0
100
AcDbLine
 10
2198.245585
 20
680.86318
 30
0.0
 11
2232.245585
 21
680.86318
 31
0.0
  0
LINE
  5
3907
100
AcDbEntity
  8
0
100
AcDbLine
 10
2198.245585
 20
680.86318
 30
0.0
 11
2195.245585
 21
677.86318
 31
0.0
  0
LINE
  5
3908
100
AcDbEntity
  8
0
100
AcDbLine
 10
2232.245585
 20
680.86318
 30
0.0
 11
2235.245585
 21
677.86318
 31
0.0
  0
LINE
  5
3909
100
AcDbEntity
  8
0
100
AcDbLine
 10
2280.245585
 20
677.86318
 30
0.0
 11
2280.245585
 21
655.86318
 31
0.0
  0
LINE
  5
390A
100
AcDbEntity
  8
0
100
AcDbLine
 10
2232.245585
 20
716.656637
 30
0.0
 11
2232.245585
 21
680.86318
 31
0.0
  0
LINE
  5
390B
100
AcDbEntity
  8
0
100
AcDbLine
 10
2198.245585
 20
716.656637
 30
0.0
 11
2198.245585
 21
680.86318
 31
0.0
  0
LINE
  5
3943
100
AcDbEntity
  8
0
100
AcDbLine
 10
1973.875673
 20
393.305912
 30
0.0
 11
2103.875673
 21
393.305912
 31
0.0
  0
LINE
  5
3944
100
AcDbEntity
  8
0
100
AcDbLine
 10
1973.875673
 20
415.305912
 30
0.0
 11
2038.875673
 21
415.305912
 31
0.0
  0
LINE
  5
3945
100
AcDbEntity
  8
0
100
AcDbLine
 10
1976.375673
 20
415.305912
 30
0.0
 11
2038.875673
 21
415.305912
 31
0.0
  0
LINE
  5
3946
100
AcDbEntity
  8
0
100
AcDbLine
 10
1973.875673
 20
393.305912
 30
0.0
 11
1973.875673
 21
415.305912
 31
0.0
  0
LINE
  5
3947
100
AcDbEntity
  8
0
100
AcDbLine
 10
2103.875673
 20
415.305912
 30
0.0
 11
2038.875673
 21
415.305912
 31
0.0
  0
LINE
  5
3948
100
AcDbEntity
  8
0
100
AcDbLine
 10
2021.875673
 20
390.305912
 30
0.0
 11
2055.875673
 21
390.305912
 31
0.0
  0
LINE
  5
3949
100
AcDbEntity
  8
0
100
AcDbLine
 10
2021.875673
 20
390.305912
 30
0.0
 11
2018.875673
 21
393.305912
 31
0.0
  0
LINE
  5
394A
100
AcDbEntity
  8
0
100
AcDbLine
 10
2055.875673
 20
390.305912
 30
0.0
 11
2058.875673
 21
393.305912
 31
0.0
  0
LINE
  5
394B
100
AcDbEntity
  8
0
100
AcDbLine
 10
2103.875673
 20
393.305912
 30
0.0
 11
2103.875673
 21
415.305912
 31
0.0
  0
LINE
  5
394C
100
AcDbEntity
  8
0
100
AcDbLine
 10
2055.875673
 20
354.512455
 30
0.0
 11
2055.875673
 21
390.305912
 31
0.0
  0
LINE
  5
394D
100
AcDbEntity
  8
0
100
AcDbLine
 10
2021.875673
 20
354.512455
 30
0.0
 11
2021.875673
 21
390.305912
 31
0.0
  0
LINE
  5
394E
100
AcDbEntity
  8
0
100
AcDbLine
 10
1976.375673
 20
167.305912
 30
0.0
 11
2038.875673
 21
167.305912
 31
0.0
  0
LINE
  5
394F
100
AcDbEntity
  8
0
100
AcDbLine
 10
1973.875673
 20
167.305912
 30
0.0
 11
2038.875673
 21
167.305912
 31
0.0
  0
LINE
  5
3950
100
AcDbEntity
  8
0
100
AcDbLine
 10
1973.875673
 20
189.305912
 30
0.0
 11
2103.875673
 21
189.305912
 31
0.0
  0
LINE
  5
3951
100
AcDbEntity
  8
0
100
AcDbLine
 10
1973.875673
 20
189.305912
 30
0.0
 11
1973.875673
 21
167.305912
 31
0.0
  0
LINE
  5
3952
100
AcDbEntity
  8
0
100
AcDbLine
 10
2103.875673
 20
167.305912
 30
0.0
 11
2038.875673
 21
167.305912
 31
0.0
  0
LINE
  5
3953
100
AcDbEntity
  8
0
100
AcDbLine
 10
2021.875673
 20
192.305912
 30
0.0
 11
2055.875673
 21
192.305912
 31
0.0
  0
LINE
  5
3954
100
AcDbEntity
  8
0
100
AcDbLine
 10
2021.875673
 20
228.09937
 30
0.0
 11
2021.875673
 21
192.305912
 31
0.0
  0
LINE
  5
3955
100
AcDbEntity
  8
0
100
AcDbLine
 10
2021.875673
 20
192.305912
 30
0.0
 11
2018.875673
 21
189.305912
 31
0.0
  0
LINE
  5
3956
100
AcDbEntity
  8
0
100
AcDbLine
 10
2055.875673
 20
228.09937
 30
0.0
 11
2055.875673
 21
192.305912
 31
0.0
  0
LINE
  5
3957
100
AcDbEntity
  8
0
100
AcDbLine
 10
2055.875673
 20
192.305912
 30
0.0
 11
2058.875673
 21
189.305912
 31
0.0
  0
LINE
  5
3958
100
AcDbEntity
  8
0
100
AcDbLine
 10
2103.875673
 20
189.305912
 30
0.0
 11
2103.875673
 21
167.305912
 31
0.0
  0
LINE
  5
3973
100
AcDbEntity
  8
0
100
AcDbLine
 10
2150.245585
 20
393.305912
 30
0.0
 11
2280.245585
 21
393.305912
 31
0.0
  0
LINE
  5
3974
100
AcDbEntity
  8
0
100
AcDbLine
 10
2150.245585
 20
415.305912
 30
0.0
 11
2215.245585
 21
415.305912
 31
0.0
  0
LINE
  5
3975
100
AcDbEntity
  8
0
100
AcDbLine
 10
2152.745585
 20
415.305912
 30
0.0
 11
2215.245585
 21
415.305912
 31
0.0
  0
LINE
  5
3976
100
AcDbEntity
  8
0
100
AcDbLine
 10
2150.245585
 20
393.305912
 30
0.0
 11
2150.245585
 21
415.305912
 31
0.0
  0
LINE
  5
3977
100
AcDbEntity
  8
0
100
AcDbLine
 10
2280.245585
 20
415.305912
 30
0.0
 11
2215.245585
 21
415.305912
 31
0.0
  0
LINE
  5
3978
100
AcDbEntity
  8
0
100
AcDbLine
 10
2198.245585
 20
390.305912
 30
0.0
 11
2232.245585
 21
390.305912
 31
0.0
  0
LINE
  5
3979
100
AcDbEntity
  8
0
100
AcDbLine
 10
2198.245585
 20
390.305912
 30
0.0
 11
2195.245585
 21
393.305912
 31
0.0
  0
LINE
  5
397A
100
AcDbEntity
  8
0
100
AcDbLine
 10
2232.245585
 20
390.305912
 30
0.0
 11
2235.245585
 21
393.305912
 31
0.0
  0
LINE
  5
397B
100
AcDbEntity
  8
0
100
AcDbLine
 10
2280.245585
 20
393.305912
 30
0.0
 11
2280.245585
 21
415.305912
 31
0.0
  0
LINE
  5
397C
100
AcDbEntity
  8
0
100
AcDbLine
 10
2232.245585
 20
354.512455
 30
0.0
 11
2232.245585
 21
390.305912
 31
0.0
  0
LINE
  5
397D
100
AcDbEntity
  8
0
100
AcDbLine
 10
2198.245585
 20
354.512455
 30
0.0
 11
2198.245585
 21
390.305912
 31
0.0
  0
LINE
  5
397E
100
AcDbEntity
  8
0
100
AcDbLine
 10
2152.745585
 20
167.305912
 30
0.0
 11
2215.245585
 21
167.305912
 31
0.0
  0
LINE
  5
397F
100
AcDbEntity
  8
0
100
AcDbLine
 10
2150.245585
 20
167.305912
 30
0.0
 11
2215.245585
 21
167.305912
 31
0.0
  0
LINE
  5
3980
100
AcDbEntity
  8
0
100
AcDbLine
 10
2150.245585
 20
189.305912
 30
0.0
 11
2280.245585
 21
189.305912
 31
0.0
  0
LINE
  5
3981
100
AcDbEntity
  8
0
100
AcDbLine
 10
2150.245585
 20
189.305912
 30
0.0
 11
2150.245585
 21
167.305912
 31
0.0
  0
LINE
  5
3982
100
AcDbEntity
  8
0
100
AcDbLine
 10
2280.245585
 20
167.305912
 30
0.0
 11
2215.245585
 21
167.305912
 31
0.0
  0
LINE
  5
3983
100
AcDbEntity
  8
0
100
AcDbLine
 10
2198.245585
 20
192.305912
 30
0.0
 11
2232.245585
 21
192.305912
 31
0.0
  0
LINE
  5
3984
100
AcDbEntity
  8
0
100
AcDbLine
 10
2198.245585
 20
228.09937
 30
0.0
 11
2198.245585
 21
192.305912
 31
0.0
  0
LINE
  5
3985
100
AcDbEntity
  8
0
100
AcDbLine
 10
2198.245585
 20
192.305912
 30
0.0
 11
2195.245585
 21
189.305912
 31
0.0
  0
LINE
  5
3986
100
AcDbEntity
  8
0
100
AcDbLine
 10
2232.245585
 20
228.09937
 30
0.0
 11
2232.245585
 21
192.305912
 31
0.0
  0
LINE
  5
3987
100
AcDbEntity
  8
0
100
AcDbLine
 10
2232.245585
 20
192.305912
 30
0.0
 11
2235.245585
 21
189.305912
 31
0.0
  0
LINE
  5
3988
100
AcDbEntity
  8
0
100
AcDbLine
 10
2280.245585
 20
189.305912
 30
0.0
 11
2280.245585
 21
167.305912
 31
0.0
  0
LINE
  5
39A3
100
AcDbEntity
  8
0
100
AcDbLine
 10
2326.615496
 20
393.305912
 30
0.0
 11
2456.615496
 21
393.305912
 31
0.0
  0
LINE
  5
39A4
100
AcDbEntity
  8
0
100
AcDbLine
 10
2326.615496
 20
415.305912
 30
0.0
 11
2391.615496
 21
415.305912
 31
0.0
  0
LINE
  5
39A5
100
AcDbEntity
  8
0
100
AcDbLine
 10
2329.115496
 20
415.305912
 30
0.0
 11
2391.615496
 21
415.305912
 31
0.0
  0
LINE
  5
39A6
100
AcDbEntity
  8
0
100
AcDbLine
 10
2326.615496
 20
393.305912
 30
0.0
 11
2326.615496
 21
415.305912
 31
0.0
  0
LINE
  5
39A7
100
AcDbEntity
  8
0
100
AcDbLine
 10
2456.615496
 20
415.305912
 30
0.0
 11
2391.615496
 21
415.305912
 31
0.0
  0
LINE
  5
39A8
100
AcDbEntity
  8
0
100
AcDbLine
 10
2374.615496
 20
390.305912
 30
0.0
 11
2408.615496
 21
390.305912
 31
0.0
  0
LINE
  5
39A9
100
AcDbEntity
  8
0
100
AcDbLine
 10
2374.615496
 20
390.305912
 30
0.0
 11
2371.615496
 21
393.305912
 31
0.0
  0
LINE
  5
39AA
100
AcDbEntity
  8
0
100
AcDbLine
 10
2408.615496
 20
390.305912
 30
0.0
 11
2411.615496
 21
393.305912
 31
0.0
  0
LINE
  5
39AB
100
AcDbEntity
  8
0
100
AcDbLine
 10
2456.615496
 20
393.305912
 30
0.0
 11
2456.615496
 21
415.305912
 31
0.0
  0
LINE
  5
39AC
100
AcDbEntity
  8
0
100
AcDbLine
 10
2408.615496
 20
354.512455
 30
0.0
 11
2408.615496
 21
390.305912
 31
0.0
  0
LINE
  5
39AD
100
AcDbEntity
  8
0
100
AcDbLine
 10
2374.615496
 20
354.512455
 30
0.0
 11
2374.615496
 21
390.305912
 31
0.0
  0
LINE
  5
39AE
100
AcDbEntity
  8
0
100
AcDbLine
 10
2329.115496
 20
167.305912
 30
0.0
 11
2391.615496
 21
167.305912
 31
0.0
  0
LINE
  5
39AF
100
AcDbEntity
  8
0
100
AcDbLine
 10
2326.615496
 20
167.305912
 30
0.0
 11
2391.615496
 21
167.305912
 31
0.0
  0
LINE
  5
39B0
100
AcDbEntity
  8
0
100
AcDbLine
 10
2326.615496
 20
189.305912
 30
0.0
 11
2456.615496
 21
189.305912
 31
0.0
  0
LINE
  5
39B1
100
AcDbEntity
  8
0
100
AcDbLine
 10
2326.615496
 20
189.305912
 30
0.0
 11
2326.615496
 21
167.305912
 31
0.0
  0
LINE
  5
39B2
100
AcDbEntity
  8
0
100
AcDbLine
 10
2456.615496
 20
167.305912
 30
0.0
 11
2391.615496
 21
167.305912
 31
0.0
  0
LINE
  5
39B3
100
AcDbEntity
  8
0
100
AcDbLine
 10
2374.615496
 20
192.305912
 30
0.0
 11
2408.615496
 21
192.305912
 31
0.0
  0
LINE
  5
39B4
100
AcDbEntity
  8
0
100
AcDbLine
 10
2374.615496
 20
228.09937
 30
0.0
 11
2374.615496
 21
192.305912
 31
0.0
  0
LINE
  5
39B5
100
AcDbEntity
  8
0
100
AcDbLine
 10
2374.615496
 20
192.305912
 30
0.0
 11
2371.615496
 21
189.305912
 31
0.0
  0
LINE
  5
39B6
100
AcDbEntity
  8
0
100
AcDbLine
 10
2408.615496
 20
228.09937
 30
0.0
 11
2408.615496
 21
192.305912
 31
0.0
  0
LINE
  5
39B7
100
AcDbEntity
  8
0
100
AcDbLine
 10
2408.615496
 20
192.305912
 30
0.0
 11
2411.615496
 21
189.305912
 31
0.0
  0
LINE
  5
39B8
100
AcDbEntity
  8
0
100
AcDbLine
 10
2456.615496
 20
189.305912
 30
0.0
 11
2456.615496
 21
167.305912
 31
0.0
  0
CIRCLE
  5
39B9
100
AcDbEntity
  8
0
100
AcDbCircle
 10
2215.245585
 20
560.775831
 30
0.0
 40
65.0
  0
CIRCLE
  5
39BC
100
AcDbEntity
  8
0
100
AcDbCircle
 10
2248.833157
 20
594.363403
 30
0.0
 40
9.5
  0
CIRCLE
  5
39BD
100
AcDbEntity
  8
0
100
AcDbCircle
 10
2181.658012
 20
594.363403
 30
0.0
 40
9.5
  0
CIRCLE
  5
39BE
100
AcDbEntity
  8
0
100
AcDbCircle
 10
2181.658012
 20
527.188259
 30
0.0
 40
9.5
  0
CIRCLE
  5
39BF
100
AcDbEntity
  8
0
100
AcDbCircle
 10
2248.833157
 20
527.188259
 30
0.0
 40
9.5
  0
VIEWPORT
  5
41
100
AcDbEntity
 67
     1
  8
0
100
AcDbViewport
 10
117.358407
 20
73.5
 30
0.0
 40
234.716814
 41
147.0
 68
    -1
 69
     1
1001
ACAD
1000
MVIEW
1002
{
1070
    16
1010
0.0
1020
0.0
1030
0.0
1010
0.0
1020
0.0
1030
1.0
1040
0.0
1040
147.0
1040
117.358407
1040
73.5
1040
50.0
1040
0.0
1040
0.0
1070
     0
1070
   100
1070
     1
1070
     1
1070
     0
1070
     0
1070
     0
1070
     0
1040
0.0
1040
0.0
1040
0.0
1040
1.0
1040
1.0
1040
0.0
1040
0.0
1070
     0
1002
{
1002
}
1002
}
  0
ENDSEC
  0
SECTION
  2
OBJECTS
  0
DICTIONARY
  5
C
100
AcDbDictionary
  3
ACAD_GROUP
350
D
  3
ACAD_MLINESTYLE
350
E
  0
DICTIONARY
  5
D
102
{ACAD_REACTORS
330
C
102
}
100
AcDbDictionary
  0
DICTIONARY
  5
E
102
{ACAD_REACTORS
330
C
102
}
100
AcDbDictionary
  3
STANDARD
350
1B
  0
MLINESTYLE
  5
1B
102
{ACAD_REACTORS
330
E
102
}
100
AcDbMlineStyle
  2
STANDARD
 70
     0
  3

 62
     0
 51
90.0
 52
90.0
 71
     2
 49
0.5
 62
   256
  6
BYLAYER
 49
-0.5
 62
   256
  6
BYLAYER
  0
ENDSEC
  0
EOF
