  0
SECTION
  2
HEADER
  9
$ACADVER
  1
AC1012
  9
$DWGCODEPAGE
  3
dos932
  9
$INSBASE
 10
0.0
 20
0.0
 30
0.0
  9
$EXTMIN
 10
88.0
 20
40.0
 30
0.0
  9
$EXTMAX
 10
2288.0
 20
1528.0
 30
0.0
  9
$LIMMIN
 10
0.0
 20
0.0
  9
$LIMMAX
 10
2376.0
 20
1680.0
  9
$ORTHOMODE
 70
     1
  9
$REGENMODE
 70
     1
  9
$FILLMODE
 70
     1
  9
$QTEXTMODE
 70
     0
  9
$MIRRTEXT
 70
     1
  9
$DRAGMODE
 70
     2
  9
$LTSCALE
 40
32.0
  9
$OSMODE
 70
     0
  9
$ATTMODE
 70
     1
  9
$TEXTSIZE
 40
32.0
  9
$TRACEWID
 40
0.05
  9
$TEXTSTYLE
  7
STANDARD
  9
$CLAYER
  8
0
  9
$CELTYPE
  6
BYLAYER
  9
$CECOLOR
 62
   256
  9
$CELTSCALE
 40
1.0
  9
$DELOBJ
 70
     1
  9
$DISPSILH
 70
     0
  9
$DIMSCALE
 40
8.0
  9
$DIMASZ
 40
2.799999999999999
  9
$DIMEXO
 40
1.0
  9
$DIMDLI
 40
5.0
  9
$DIMRND
 40
0.1
  9
$DIMDLE
 40
0.0
  9
$DIMEXE
 40
1.0
  9
$DIMTP
 40
0.0
  9
$DIMTM
 40
0.0
  9
$DIMTXT
 40
2.5
  9
$DIMCEN
 40
0.0
  9
$DIMTSZ
 40
0.0
  9
$DIMTOL
 70
     0
  9
$DIMLIM
 70
     0
  9
$DIMTIH
 70
     0
  9
$DIMTOH
 70
     0
  9
$DIMSE1
 70
     0
  9
$DIMSE2
 70
     0
  9
$DIMTAD
 70
     3
  9
$DIMZIN
 70
     8
  9
$DIMBLK
  1

  9
$DIMASO
 70
     1
  9
$DIMSHO
 70
     1
  9
$DIMPOST
  1

  9
$DIMAPOST
  1

  9
$DIMALT
 70
     0
  9
$DIMALTD
 70
     2
  9
$DIMALTF
 40
1.0
  9
$DIMLFAC
 40
1.0
  9
$DIMTOFL
 70
     1
  9
$DIMTVP
 40
0.0
  9
$DIMTIX
 70
     0
  9
$DIMSOXD
 70
     0
  9
$DIMSAH
 70
     1
  9
$DIMBLK1
  1
OPEN
  9
$DIMBLK2
  1
OPEN
  9
$DIMSTYLE
  2
DIM1
  9
$DIMCLRD
 70
     2
  9
$DIMCLRE
 70
     2
  9
$DIMCLRT
 70
     2
  9
$DIMTFAC
 40
0.7
  9
$DIMGAP
 40
0.85
  9
$DIMJUST
 70
     0
  9
$DIMSD1
 70
     0
  9
$DIMSD2
 70
     0
  9
$DIMTOLJ
 70
     1
  9
$DIMTZIN
 70
     8
  9
$DIMALTZ
 70
     8
  9
$DIMALTTZ
 70
     8
  9
$DIMFIT
 70
     3
  9
$DIMUPT
 70
     0
  9
$DIMUNIT
 70
     2
  9
$DIMDEC
 70
     2
  9
$DIMTDEC
 70
     3
  9
$DIMALTU
 70
     2
  9
$DIMALTTD
 70
     3
  9
$DIMTXSTY
  7
DIM
  9
$DIMAUNIT
 70
     0
  9
$LUNITS
 70
     2
  9
$LUPREC
 70
     4
  9
$SKETCHINC
 40
0.1
  9
$FILLETRAD
 40
0.0
  9
$AUNITS
 70
     0
  9
$AUPREC
 70
     0
  9
$MENU
  1
C:\ACADR13\WIN\SUPPORT\ACAD.mnc
  9
$ELEVATION
 40
0.0
  9
$PELEVATION
 40
0.0
  9
$THICKNESS
 40
0.0
  9
$LIMCHECK
 70
     0
  9
$BLIPMODE
 70
     0
  9
$CHAMFERA
 40
0.0
  9
$CHAMFERB
 40
0.0
  9
$CHAMFERC
 40
0.0
  9
$CHAMFERD
 40
0.0
  9
$SKPOLY
 70
     0
  9
$TDCREATE
 40
2451564.694273889
  9
$TDUPDATE
 40
2452128.542873623
  9
$TDINDWG
 40
0.0066824653
  9
$TDUSRTIMER
 40
0.0066824653
  9
$USRTIMER
 70
     1
  9
$ANGBASE
 50
0.0
  9
$ANGDIR
 70
     0
  9
$PDMODE
 70
     0
  9
$PDSIZE
 40
0.0
  9
$PLINEWID
 40
0.0
  9
$COORDS
 70
     2
  9
$SPLFRAME
 70
     0
  9
$SPLINETYPE
 70
     6
  9
$SPLINESEGS
 70
     8
  9
$ATTDIA
 70
     0
  9
$ATTREQ
 70
     1
  9
$HANDLING
 70
-16383
  9
$HANDSEED
  5
358D
  9
$SURFTAB1
 70
     6
  9
$SURFTAB2
 70
     6
  9
$SURFTYPE
 70
     6
  9
$SURFU
 70
     6
  9
$SURFV
 70
     6
  9
$UCSNAME
  2

  9
$UCSORG
 10
0.0
 20
0.0
 30
0.0
  9
$UCSXDIR
 10
1.0
 20
0.0
 30
0.0
  9
$UCSYDIR
 10
0.0
 20
1.0
 30
0.0
  9
$PUCSNAME
  2

  9
$PUCSORG
 10
0.0
 20
0.0
 30
0.0
  9
$PUCSXDIR
 10
1.0
 20
0.0
 30
0.0
  9
$PUCSYDIR
 10
0.0
 20
1.0
 30
0.0
  9
$USERI1
 70
     0
  9
$USERI2
 70
     0
  9
$USERI3
 70
     0
  9
$USERI4
 70
     0
  9
$USERI5
 70
     0
  9
$USERR1
 40
0.0
  9
$USERR2
 40
0.0
  9
$USERR3
 40
0.0
  9
$USERR4
 40
0.0
  9
$USERR5
 40
0.0
  9
$WORLDVIEW
 70
     1
  9
$SHADEDGE
 70
     3
  9
$SHADEDIF
 70
    70
  9
$TILEMODE
 70
     1
  9
$MAXACTVP
 70
    16
  9
$PINSBASE
 10
0.0
 20
0.0
 30
0.0
  9
$PLIMCHECK
 70
     0
  9
$PEXTMIN
 10
1.000000000000000E+20
 20
1.000000000000000E+20
 30
1.000000000000000E+20
  9
$PEXTMAX
 10
-1.000000000000000E+20
 20
-1.000000000000000E+20
 30
-1.000000000000000E+20
  9
$PLIMMIN
 10
0.0
 20
0.0
  9
$PLIMMAX
 10
20.0
 20
147.0
  9
$UNITMODE
 70
     0
  9
$VISRETAIN
 70
     0
  9
$PLINEGEN
 70
     0
  9
$PSLTSCALE
 70
     1
  9
$TREEDEPTH
 70
  3020
  9
$PICKSTYLE
 70
     1
  9
$CMLSTYLE
  2
STANDARD
  9
$CMLJUST
 70
     0
  9
$CMLSCALE
 40
1.0
  9
$SAVEIMAGES
 70
     1
  0
ENDSEC
  0
SECTION
  2
CLASSES
  0
CLASS
  1
LWPOLYLINE
  2
AcDbPolyline
  3
AutoCAD 2000
 90
    32768
280
     0
281
     1
  0
CLASS
  1
ACDBDICTIONARYWDFLT
  2
AcDbDictionaryWithDefault
  3
AutoCAD 2000
 90
    32768
280
     0
281
     0
  0
CLASS
  1
ACDBPLACEHOLDER
  2
AcDbPlaceHolder
  3
AutoCAD 2000
 90
    32768
280
     0
281
     0
  0
CLASS
  1
LAYOUT
  2
AcDbLayout
  3
AutoCAD 2000
 90
    32768
280
     0
281
     0
  0
CLASS
  1
LONG_TRANSACTION
  2
AcDbLongTransaction
  3
AutoCAD 2000
 90
    32768
280
     0
281
     0
  0
CLASS
  1
LWPOLYLINE
  2
AcDbPolyline
  3
AutoCAD 2000
 90
    32768
280
     0
281
     1
  0
CLASS
  1
HATCH
  2
AcDbHatch
  3
AutoCAD 2000
 90
    32768
280
     0
281
     1
  0
CLASS
  1
XRECORD
  2
AcDbXrecord
  3
AutoCAD 2000
 90
    32768
280
     0
281
     0
  0
ENDSEC
  0
SECTION
  2
TABLES
  0
TABLE
  2
VPORT
  5
8
330
0
100
AcDbSymbolTable
 70
     3
  0
VPORT
  5
3556
330
8
100
AcDbSymbolTableRecord
100
AcDbViewportTableRecord
  2
*ACTIVE
 70
     0
 10
0.0
 20
0.0
 11
1.0
 21
1.0
 12
1228.109861609493
 22
963.4013795908334
 13
0.0
 23
0.0
 14
1.0
 24
1.0
 15
0.0
 25
0.0
 16
0.0
 26
0.0
 36
1.0
 17
0.0
 27
0.0
 37
0.0
 40
1926.802760128785
 41
1.593103448275862
 42
50.0
 43
0.0
 44
0.0
 50
0.0
 51
0.0
 71
     0
 72
   100
 73
     1
 74
     1
 75
     0
 76
     0
 77
     0
 78
     0
  0
ENDTAB
  0
TABLE
  2
LTYPE
  5
5
330
0
100
AcDbSymbolTable
 70
     1
  0
LTYPE
  5
12
330
5
100
AcDbSymbolTableRecord
100
AcDbLinetypeTableRecord
  2
BYBLOCK
 70
     0
  3

 72
    65
 73
     0
 40
0.0
  0
LTYPE
  5
13
330
5
100
AcDbSymbolTableRecord
100
AcDbLinetypeTableRecord
  2
BYLAYER
 70
     0
  3

 72
    65
 73
     0
 40
0.0
  0
LTYPE
  5
14
330
5
100
AcDbSymbolTableRecord
100
AcDbLinetypeTableRecord
  2
CONTINUOUS
 70
     0
  3
Solid line
 72
    65
 73
     0
 40
0.0
  0
ENDTAB
  0
TABLE
  2
LAYER
  5
2
330
0
100
AcDbSymbolTable
 70
     1
  0
LAYER
  5
F
330
2
100
AcDbSymbolTableRecord
100
AcDbLayerTableRecord
  2
0
 70
     0
 62
     7
  6
CONTINUOUS
  0
ENDTAB
  0
TABLE
  2
STYLE
  5
3
330
0
100
AcDbSymbolTable
 70
     3
  0
STYLE
  5
10
330
3
100
AcDbSymbolTableRecord
100
AcDbTextStyleTableRecord
  2
STANDARD
 70
     0
 40
0.0
 41
0.8
 50
0.0
 71
     0
 42
32.0
  3
simplex
  4
extfont
  0
STYLE
  5
237C
330
3
100
AcDbSymbolTableRecord
100
AcDbTextStyleTableRecord
  2
PTSH
 70
     0
 40
0.0
 41
0.9
 50
0.0
 71
     0
 42
4.0
  3
SIMPLEX
  4
EXTFONT
  0
STYLE
  5
2592
330
3
100
AcDbSymbolTableRecord
100
AcDbTextStyleTableRecord
  2
DIM
 70
     0
 40
0.0
 41
0.8
 50
0.0
 71
     0
 42
4.0
  3
simplex
  4
extfont
  0
ENDTAB
  0
TABLE
  2
VIEW
  5
6
330
0
100
AcDbSymbolTable
 70
     0
  0
ENDTAB
  0
TABLE
  2
UCS
  5
7
330
0
100
AcDbSymbolTable
 70
     0
  0
ENDTAB
  0
TABLE
  2
APPID
  5
9
330
0
100
AcDbSymbolTable
 70
     1
  0
APPID
  5
11
330
9
100
AcDbSymbolTableRecord
100
AcDbRegAppTableRecord
  2
ACAD
 70
     0
  0
ENDTAB
  0
TABLE
  2
DIMSTYLE
  5
A
330
0
100
AcDbSymbolTable
 70
     1
  0
DIMSTYLE
105
2237
330
A
100
AcDbSymbolTableRecord
100
AcDbDimStyleTableRecord
  2
DIM1
 70
     0
  3

  4

  5

  6
OPEN
  7
OPEN
 40
8.0
 41
2.799999999999999
 42
1.0
 43
5.0
 44
1.0
 45
0.1
 46
0.0
 47
0.0
 48
0.0
140
2.5
141
0.0
142
0.0
143
1.0
144
1.0
145
0.0
146
0.7
147
0.85
 71
     0
 72
     0
 73
     0
 74
     0
 75
     0
 76
     0
 77
     3
 78
     8
170
     0
171
     2
172
     1
173
     1
174
     0
175
     0
176
     2
177
     2
178
     2
270
     2
271
     2
272
     3
273
     2
274
     3
340
2592
275
     0
280
     0
281
     0
282
     0
283
     1
284
     8
285
     8
286
     8
287
     3
288
     0
  0
ENDTAB
  0
TABLE
  2
BLOCK_RECORD
  5
1
330
0
100
AcDbSymbolTable
 70
     1
  0
BLOCK_RECORD
  5
18
102
{ACAD_XDICTIONARY
360
3559
102
}
330
1
100
AcDbSymbolTableRecord
100
AcDbBlockTableRecord
  2
*MODEL_SPACE
  0
BLOCK_RECORD
  5
15
102
{ACAD_XDICTIONARY
360
3557
102
}
330
1
100
AcDbSymbolTableRecord
100
AcDbBlockTableRecord
  2
*PAPER_SPACE
  0
BLOCK_RECORD
  5
2448
330
1
100
AcDbSymbolTableRecord
100
AcDbBlockTableRecord
  2
_OPEN
  0
ENDTAB
  0
ENDSEC
  0
SECTION
  2
BLOCKS
  0
BLOCK
  5
3C
330
18
100
AcDbEntity
  8
0
100
AcDbBlockBegin
  2
*MODEL_SPACE
 70
     0
 10
0.0
 20
0.0
 30
0.0
  3
*MODEL_SPACE
  1

  0
ENDBLK
  5
3D
330
18
100
AcDbEntity
  8
0
100
AcDbBlockEnd
  0
BLOCK
  5
3A
330
15
100
AcDbEntity
 67
     1
  8
0
100
AcDbBlockBegin
  2
*PAPER_SPACE
 70
     0
 10
0.0
 20
0.0
 30
0.0
  3
*PAPER_SPACE
  1

  0
ENDBLK
  5
3B
330
15
100
AcDbEntity
 67
     1
  8
0
100
AcDbBlockEnd
  0
BLOCK
  5
2449
330
2448
100
AcDbEntity
  8
0
 48
4.0
100
AcDbBlockBegin
  2
_OPEN
 70
     0
 10
0.0
 20
0.0
 30
0.0
  3
_OPEN
  1
H1111.DWG
  0
LINE
  5
244A
330
2448
100
AcDbEntity
  8
0
  6
BYBLOCK
 62
     0
 48
4.0
100
AcDbLine
 10
-1.0
 20
0.1666666666666666
 30
0.0
 11
0.0
 21
0.0
 31
0.0
  0
LINE
  5
244B
330
2448
100
AcDbEntity
  8
0
  6
BYBLOCK
 62
     0
 48
4.0
100
AcDbLine
 10
0.0
 20
0.0
 30
0.0
 11
-1.0
 21
-0.1666666666666666
 31
0.0
  0
LINE
  5
244C
330
2448
100
AcDbEntity
  8
0
  6
BYBLOCK
 62
     0
 48
4.0
100
AcDbLine
 10
0.0
 20
0.0
 30
0.0
 11
-1.0
 21
0.0
 31
0.0
  0
ENDBLK
  5
244D
330
2448
100
AcDbEntity
  8
0
 48
4.0
100
AcDbBlockEnd
  0
ENDSEC
  0
SECTION
  2
ENTITIES
  0
MTEXT
  5
ADA
330
18
100
AcDbEntity
  8
0
100
AcDbMText
 10
3041.114238173662
 20
398.7704890897821
 30
0.0
 40
1.6
 41
377.8117187899697
 71
     1
 72
     1
  1

1001
ACAD
1000
MTEXTBEGIN
1070
    73
1070
     1
1070
    44
1040
1.0
1070
    74
1070
     0
1000
MTEXTEND
  0
MTEXT
  5
ADB
330
18
100
AcDbEntity
  8
0
100
AcDbMText
 10
3112.399465335316
 20
462.8063498631927
 30
0.0
 40
1.6
 41
363.5546733576375
 71
     1
 72
     1
  1

1001
ACAD
1000
MTEXTBEGIN
1070
    73
1070
     1
1070
    44
1040
1.0
1070
    74
1070
     0
1000
MTEXTEND
  0
MTEXT
  5
ADC
330
18
100
AcDbEntity
  8
0
100
AcDbMText
 10
3069.628329038323
 20
-383.8899712439415
 30
0.0
 40
1.6
 41
413.4543323707985
 71
     1
 72
     1
  1

1001
ACAD
1000
MTEXTBEGIN
1070
    73
1070
     1
1070
    44
1040
1.0
1070
    74
1070
     0
1000
MTEXTEND
  0
TEXT
  5
2529
330
18
100
AcDbEntity
  8
0
  6
CONTINUOUS
100
AcDbText
 10
2115.326064942109
 20
56.2909705571833
 30
0.0
 40
20.0
  1
T5N_T7N-F
 41
0.9
  7
PTSH
 72
     1
 11
2193.75463637068
 21
66.2909705571833
 31
0.0
100
AcDbText
 73
     2
  0
POLYLINE
  5
2563
330
18
100
AcDbEntity
  8
0
100
AcDb2dPolyline
 66
     1
 10
0.0
 20
0.0
 30
0.0
 70
     1
  0
VERTEX
  5
355B
330
2563
100
AcDbEntity
  8
0
100
AcDbVertex
100
AcDb2dVertex
 10
88.0
 20
40.0
 30
0.0
  0
VERTEX
  5
355C
330
2563
100
AcDbEntity
  8
0
100
AcDbVertex
100
AcDb2dVertex
 10
2288.0
 20
40.0
 30
0.0
  0
VERTEX
  5
355D
330
2563
100
AcDbEntity
  8
0
100
AcDbVertex
100
AcDb2dVertex
 10
2288.0
 20
1528.0
 30
0.0
  0
VERTEX
  5
355E
330
2563
100
AcDbEntity
  8
0
100
AcDbVertex
100
AcDb2dVertex
 10
88.0
 20
1528.0
 30
0.0
  0
SEQEND
  5
355F
330
2563
100
AcDbEntity
  8
0
  0
LINE
  5
2D10
330
18
100
AcDbEntity
  8
0
100
AcDbLine
 10
1287.105485732523
 20
737.1056988241762
 30
0.0
 11
1267.605485732523
 21
737.1056988241762
 31
0.0
  0
LINE
  5
2D11
330
18
100
AcDbEntity
  8
0
100
AcDbLine
 10
1287.105485732523
 20
681.1056988241761
 30
0.0
 11
1255.605485732523
 21
681.1056988241761
 31
0.0
  0
LINE
  5
2D12
330
18
100
AcDbEntity
  8
0
100
AcDbLine
 10
1287.105485732523
 20
524.0100862058752
 30
0.0
 11
1258.966913527423
 21
524.0100862058752
 31
0.0
  0
LINE
  5
2D13
330
18
100
AcDbEntity
  8
0
100
AcDbLine
 10
1287.105485732523
 20
468.0100862058752
 30
0.0
 11
1258.966913527423
 21
468.0100862058752
 31
0.0
  0
LINE
  5
2D14
330
18
100
AcDbEntity
  8
0
100
AcDbLine
 10
1267.605485732523
 20
298.7574157700528
 30
0.0
 11
1287.105485732523
 21
298.7574157700528
 31
0.0
  0
LINE
  5
2D15
330
18
100
AcDbEntity
  8
0
100
AcDbLine
 10
1267.605485732523
 20
242.7574157700528
 30
0.0
 11
1287.105485732523
 21
242.7574157700528
 31
0.0
  0
TEXT
  5
2D16
330
18
100
AcDbEntity
  8
0
100
AcDbText
 10
957.2075268342778
 20
123.3737958397427
 30
0.0
 40
30.0
  1
TLV  TF5N,TF7N (JIS10K)
100
AcDbText
  0
LINE
  5
2D17
330
18
100
AcDbEntity
  8
0
100
AcDbLine
 10
1253.245613639627
 20
1412.664292251892
 30
0.0
 11
1240.934969405782
 21
1412.664292251892
 31
0.0
  0
LINE
  5
2D18
330
18
100
AcDbEntity
  8
0
100
AcDbLine
 10
1256.270753043677
 20
1433.164292251892
 30
0.0
 11
1200.270753043677
 21
1433.164292251892
 31
0.0
  0
LINE
  5
2D19
330
18
100
AcDbEntity
  8
0
100
AcDbLine
 10
1260.565312847383
 20
1419.164292251892
 30
0.0
 11
1237.934969405782
 21
1419.164292251892
 31
0.0
  0
ARC
  5
2D1A
330
18
100
AcDbEntity
  8
0
100
AcDbCircle
 10
1241.664673176456
 20
1422.788868319199
 30
0.0
 40
41.12457606730651
100
AcDbArc
 50
250.992532412469
 51
289.0074675875309
  0
ARC
  5
2D1B
330
18
100
AcDbEntity
  8
0
100
AcDbCircle
 10
1241.664673176456
 20
1355.539716184586
 30
0.0
 40
41.12457606730651
100
AcDbArc
 50
70.99253241246902
 51
109.0074675875309
  0
LINE
  5
2D1C
330
18
100
AcDbEntity
  8
0
100
AcDbLine
 10
1255.058593309233
 20
1396.664292251892
 30
0.0
 11
1228.270753043677
 21
1396.664292251892
 31
0.0
  0
LINE
  5
2D1D
330
18
100
AcDbEntity
  8
0
100
AcDbLine
 10
1262.270753043677
 20
1396.664292251892
 30
0.0
 11
1194.270753043677
 21
1396.664292251892
 31
0.0
  0
LINE
  5
2D1E
330
18
100
AcDbEntity
  8
0
100
AcDbLine
 10
1262.270753043677
 20
1381.664292251892
 30
0.0
 11
1194.270753043677
 21
1381.664292251892
 31
0.0
  0
ARC
  5
2D1F
330
18
100
AcDbEntity
  8
0
100
AcDbCircle
 10
1228.270753043677
 20
1479.116272017158
 30
0.0
 40
107.3804120672946
100
AcDbArc
 50
256.2538460749289
 51
283.746153925071
  0
LINE
  5
2D20
330
18
100
AcDbEntity
  8
0
100
AcDbLine
 10
1280.270753043677
 20
1341.164292251892
 30
0.0
 11
1237.770753043677
 21
1341.164292251892
 31
0.0
  0
CIRCLE
  5
2D21
330
18
100
AcDbEntity
  8
0
100
AcDbCircle
 10
1228.270753043677
 20
1199.423402312165
 30
0.0
 40
20.24999999999999
  0
LINE
  5
2D22
330
18
100
AcDbEntity
  8
0
100
AcDbLine
 10
1253.245613639627
 20
1045.835367852072
 30
0.0
 11
1240.934969405782
 21
1045.835367852072
 31
0.0
  0
LINE
  5
2D23
330
18
100
AcDbEntity
  8
0
100
AcDbLine
 10
1200.270753043677
 20
1066.335367852072
 30
0.0
 11
1256.270753043677
 21
1066.335367852072
 31
0.0
  0
LINE
  5
2D24
330
18
100
AcDbEntity
  8
0
100
AcDbLine
 10
1260.565312847383
 20
1052.335367852072
 30
0.0
 11
1237.934969405782
 21
1052.335367852072
 31
0.0
  0
ARC
  5
2D25
330
18
100
AcDbEntity
  8
0
100
AcDbCircle
 10
1241.664673176456
 20
1055.959943919378
 30
0.0
 40
41.12457606730651
100
AcDbArc
 50
250.992532412469
 51
289.0074675875309
  0
ARC
  5
2D26
330
18
100
AcDbEntity
  8
0
100
AcDbCircle
 10
1241.664673176456
 20
988.7107917847655
 30
0.0
 40
41.12457606730651
100
AcDbArc
 50
70.99253241246902
 51
109.0074675875309
  0
LINE
  5
2D27
330
18
100
AcDbEntity
  8
0
100
AcDbLine
 10
1194.270753043677
 20
1029.835367852072
 30
0.0
 11
1262.270753043677
 21
1029.835367852072
 31
0.0
  0
LINE
  5
2D28
330
18
100
AcDbEntity
  8
0
100
AcDbLine
 10
1194.270753043677
 20
1014.835367852072
 30
0.0
 11
1262.270753043677
 21
1014.835367852072
 31
0.0
  0
ARC
  5
2D29
330
18
100
AcDbEntity
  8
0
100
AcDbCircle
 10
1248.388647463349
 20
1014.748869331985
 30
0.0
 40
8.770702025038644
100
AcDbArc
 50
263.950695905009
 51
325.952551338823
  0
ARC
  5
2D2A
330
18
100
AcDbEntity
  8
0
100
AcDbCircle
 10
1250.770753043677
 20
991.3353678520721
 30
0.0
 40
17.0
100
AcDbArc
 50
240.0000000000003
 51
270.0
  0
TEXT
  5
2D2B
330
18
100
AcDbEntity
  8
0
100
AcDbText
 10
1216.655268999425
 20
911.0272304053252
 30
0.0
 40
20.0
  1
20A
 41
0.8
 11
1216.655268999425
 21
911.0272304053252
 31
0.0
100
AcDbText
 73
     1
  0
POLYLINE
  5
2D2C
330
18
100
AcDbEntity
  8
0
100
AcDb2dPolyline
 66
     1
 10
0.0
 20
0.0
 30
0.0
 70
     1
  0
VERTEX
  5
3560
330
2D2C
100
AcDbEntity
  8
0
100
AcDbVertex
100
AcDb2dVertex
 10
1201.482912778121
 20
1172.635562046609
 30
0.0
  0
VERTEX
  5
3561
330
2D2C
100
AcDbEntity
  8
0
100
AcDbVertex
100
AcDb2dVertex
 10
1228.270753043677
 20
1161.539675301932
 30
0.0
  0
VERTEX
  5
3562
330
2D2C
100
AcDbEntity
  8
0
100
AcDbVertex
100
AcDb2dVertex
 10
1255.058593309234
 20
1172.635562046609
 30
0.0
  0
VERTEX
  5
3563
330
2D2C
100
AcDbEntity
  8
0
100
AcDbVertex
100
AcDb2dVertex
 10
1266.154480053911
 20
1199.423402312165
 30
0.0
  0
VERTEX
  5
3564
330
2D2C
100
AcDbEntity
  8
0
100
AcDbVertex
100
AcDb2dVertex
 10
1255.058593309234
 20
1226.211242577722
 30
0.0
  0
VERTEX
  5
3565
330
2D2C
100
AcDbEntity
  8
0
100
AcDbVertex
100
AcDb2dVertex
 10
1228.270753043677
 20
1237.307129322399
 30
0.0
  0
VERTEX
  5
3566
330
2D2C
100
AcDbEntity
  8
0
100
AcDbVertex
100
AcDb2dVertex
 10
1201.482912778121
 20
1226.211242577722
 30
0.0
  0
VERTEX
  5
3567
330
2D2C
100
AcDbEntity
  8
0
100
AcDbVertex
100
AcDb2dVertex
 10
1190.387026033443
 20
1199.423402312165
 30
0.0
  0
SEQEND
  5
3568
330
2D2C
100
AcDbEntity
  8
0
  0
CIRCLE
  5
2D2D
330
18
100
AcDbEntity
  8
0
100
AcDbCircle
 10
1228.270753043677
 20
1199.423402312165
 30
0.0
 40
34.0
  0
CIRCLE
  5
2D2E
330
18
100
AcDbEntity
  8
0
100
AcDbCircle
 10
1228.270753043677
 20
1199.423402312165
 30
0.0
 40
22.25
  0
LINE
  5
2D2F
330
18
100
AcDbEntity
  8
0
100
AcDbLine
 10
551.1620793623596
 20
794.1056988241762
 30
0.0
 11
495.1620793623597
 21
794.1056988241762
 31
0.0
  0
LINE
  5
2D30
330
18
100
AcDbEntity
  8
0
100
AcDbLine
 10
549.9499196279157
 20
757.6056988241762
 30
0.0
 11
523.1620793623597
 21
757.6056988241762
 31
0.0
  0
LINE
  5
2D31
330
18
100
AcDbEntity
  8
0
100
AcDbLine
 10
548.1369399583099
 20
773.6056988241762
 30
0.0
 11
535.8262957244642
 21
773.6056988241762
 31
0.0
  0
LINE
  5
2D32
330
18
100
AcDbEntity
  8
0
100
AcDbLine
 10
555.4566391660646
 20
780.1056988241762
 30
0.0
 11
532.8262957244642
 21
780.1056988241762
 31
0.0
  0
LINE
  5
2D33
330
18
100
AcDbEntity
  8
0
100
AcDbLine
 10
557.1620793623597
 20
757.6056988241762
 30
0.0
 11
489.1620793623596
 21
757.6056988241762
 31
0.0
  0
ARC
  5
2D34
330
18
100
AcDbEntity
  8
0
100
AcDbCircle
 10
536.5559994951373
 20
783.7302748914826
 30
0.0
 40
41.12457606730651
100
AcDbArc
 50
250.992532412469
 51
289.0074675875309
  0
LINE
  5
2D35
330
18
100
AcDbEntity
  8
0
100
AcDbLine
 10
557.1620793623597
 20
742.6056988241762
 30
0.0
 11
489.1620793623596
 21
742.6056988241762
 31
0.0
  0
ARC
  5
2D36
330
18
100
AcDbEntity
  8
0
100
AcDbCircle
 10
523.1620793623597
 20
811.8697223299939
 30
0.0
 40
82.00935929868574
100
AcDbArc
 50
251.4814476757237
 51
288.5185523242769
  0
ARC
  5
2D37
330
18
100
AcDbEntity
  8
0
100
AcDbCircle
 10
541.1620793623597
 20
709.1056988241762
 30
0.0
 40
25.5
100
AcDbArc
 50
238.1651577828812
 51
270.0
  0
ARC
  5
2D38
330
18
100
AcDbEntity
  8
0
100
AcDbCircle
 10
536.5559994951373
 20
716.4811227568698
 30
0.0
 40
41.12457606730651
100
AcDbArc
 50
70.99253241246902
 51
109.0074675875309
  0
CIRCLE
  5
2D39
330
18
100
AcDbEntity
  8
0
100
AcDbCircle
 10
523.1620793623597
 20
496.0100862058753
 30
0.0
 40
20.24999999999999
  0
LINE
  5
2D3A
330
18
100
AcDbEntity
  8
0
100
AcDbLine
 10
495.1620793623597
 20
355.7574157700528
 30
0.0
 11
551.1620793623596
 21
355.7574157700528
 31
0.0
  0
LINE
  5
2D3B
330
18
100
AcDbEntity
  8
0
100
AcDbLine
 10
555.4566391660655
 20
341.7574157700529
 30
0.0
 11
532.8262957244651
 21
341.7574157700528
 31
0.0
  0
LINE
  5
2D3C
330
18
100
AcDbEntity
  8
0
100
AcDbLine
 10
548.1369399583099
 20
335.2574157700529
 30
0.0
 11
535.8262957244651
 21
335.2574157700528
 31
0.0
  0
ARC
  5
2D3D
330
18
100
AcDbEntity
  8
0
100
AcDbCircle
 10
536.5559994951381
 20
345.3819918373592
 30
0.0
 40
41.12457606730651
100
AcDbArc
 50
250.992532412469
 51
289.0074675875309
  0
ARC
  5
2D3E
330
18
100
AcDbEntity
  8
0
100
AcDbCircle
 10
536.5559994951381
 20
278.1328397027463
 30
0.0
 40
41.12457606730651
100
AcDbArc
 50
70.99253241246902
 51
109.0074675875309
  0
LINE
  5
2D3F
330
18
100
AcDbEntity
  8
0
100
AcDbLine
 10
489.1620793623596
 20
319.2574157700528
 30
0.0
 11
557.1620793623597
 21
319.2574157700528
 31
0.0
  0
LINE
  5
2D40
330
18
100
AcDbEntity
  8
0
100
AcDbLine
 10
489.1620793623596
 20
304.2574157700528
 30
0.0
 11
557.1620793623597
 21
304.2574157700528
 31
0.0
  0
LINE
  5
2D41
330
18
100
AcDbEntity
  8
0
100
AcDbLine
 10
498.1620793623597
 20
287.7574157700528
 30
0.0
 11
548.1620793623597
 21
287.7574157700528
 31
0.0
  0
ARC
  5
2D42
330
18
100
AcDbEntity
  8
0
100
AcDbCircle
 10
553.1620793623597
 20
270.7574157700528
 30
0.0
 40
25.5
100
AcDbArc
 50
238.1651577828808
 51
270.0
  0
LINE
  5
2D43
330
18
100
AcDbEntity
  8
0
100
AcDbLine
 10
498.1620793623597
 20
253.7574157700528
 30
0.0
 11
548.1620793623597
 21
253.7574157700528
 31
0.0
  0
TEXT
  5
2D44
330
18
100
AcDbEntity
  8
0
100
AcDbText
 10
511.7116930613983
 20
204.7145556177288
 30
0.0
 40
20.0
  1
32A
 41
0.8
 11
511.7116930613983
 21
204.7145556177288
 31
0.0
100
AcDbText
 73
     1
  0
CIRCLE
  5
2D45
330
18
100
AcDbEntity
  8
0
100
AcDbCircle
 10
523.1620793623597
 20
496.0100862058753
 30
0.0
 40
22.25
  0
CIRCLE
  5
2D46
330
18
100
AcDbEntity
  8
0
100
AcDbCircle
 10
523.1620793623597
 20
496.0100862058753
 30
0.0
 40
34.0
  0
POLYLINE
  5
2D47
330
18
100
AcDbEntity
  8
0
100
AcDb2dPolyline
 66
     1
 10
0.0
 20
0.0
 30
0.0
 70
     1
  0
VERTEX
  5
3569
330
2D47
100
AcDbEntity
  8
0
100
AcDbVertex
100
AcDb2dVertex
 10
496.3742390968036
 20
469.222245940319
 30
0.0
  0
VERTEX
  5
356A
330
2D47
100
AcDbEntity
  8
0
100
AcDbVertex
100
AcDb2dVertex
 10
523.1620793623597
 20
458.1263591956415
 30
0.0
  0
VERTEX
  5
356B
330
2D47
100
AcDbEntity
  8
0
100
AcDbVertex
100
AcDb2dVertex
 10
549.9499196279166
 20
469.222245940319
 30
0.0
  0
VERTEX
  5
356C
330
2D47
100
AcDbEntity
  8
0
100
AcDbVertex
100
AcDb2dVertex
 10
561.0458063725936
 20
496.0100862058753
 30
0.0
  0
VERTEX
  5
356D
330
2D47
100
AcDbEntity
  8
0
100
AcDbVertex
100
AcDb2dVertex
 10
549.9499196279166
 20
522.7979264714315
 30
0.0
  0
VERTEX
  5
356E
330
2D47
100
AcDbEntity
  8
0
100
AcDbVertex
100
AcDb2dVertex
 10
523.1620793623597
 20
533.893813216109
 30
0.0
  0
VERTEX
  5
356F
330
2D47
100
AcDbEntity
  8
0
100
AcDbVertex
100
AcDb2dVertex
 10
496.3742390968036
 20
522.7979264714315
 30
0.0
  0
VERTEX
  5
3570
330
2D47
100
AcDbEntity
  8
0
100
AcDbVertex
100
AcDb2dVertex
 10
485.2783523521257
 20
496.0100862058753
 30
0.0
  0
SEQEND
  5
3571
330
2D47
100
AcDbEntity
  8
0
  0
ARC
  5
2D48
330
18
100
AcDbEntity
  8
0
100
AcDbCircle
 10
492.6620793623596
 20
298.2574157700528
 30
0.0
 40
2.0
100
AcDbArc
 50
270.0
 51
0.0
  0
LINE
  5
2D49
330
18
100
AcDbEntity
  8
0
100
AcDbLine
 10
447.985382551531
 20
301.2927551322186
 30
0.0
 11
473.1620793623597
 21
296.2574157700528
 31
0.0
  0
LINE
  5
2D4A
330
18
100
AcDbEntity
  8
0
100
AcDbLine
 10
423.1620793623596
 20
270.7574157700528
 30
0.0
 11
423.1620793623596
 21
338.2574157700528
 31
0.0
  0
LINE
  5
2D4B
330
18
100
AcDbEntity
  8
0
100
AcDbLine
 10
443.1620793623596
 20
338.2574157700528
 30
0.0
 11
443.1620793623596
 21
203.2574157700528
 31
0.0
  0
CIRCLE
  5
2D4C
330
18
100
AcDbEntity
  8
0
100
AcDbCircle
 10
260.4498650078112
 20
270.7574157700528
 30
0.0
 40
67.5
  0
CIRCLE
  5
2D4D
330
18
100
AcDbEntity
  8
0
100
AcDbCircle
 10
295.8052040671382
 20
235.4020767107253
 30
0.0
 40
7.5
  0
CIRCLE
  5
2D4E
330
18
100
AcDbEntity
  8
0
100
AcDbCircle
 10
225.0945259484842
 20
235.4020767107253
 30
0.0
 40
7.5
  0
ARC
  5
2D4F
330
18
100
AcDbEntity
  8
0
100
AcDbCircle
 10
449.1620793623597
 20
234.3385923537414
 30
0.0
 40
6.0
100
AcDbArc
 50
101.3099324740199
 51
180.0
  0
LINE
  5
2D50
330
18
100
AcDbEntity
  8
0
100
AcDbLine
 10
423.1620793623596
 20
203.2574157700528
 30
0.0
 11
423.1620793623596
 21
270.7574157700528
 31
0.0
  0
LINE
  5
2D51
330
18
100
AcDbEntity
  8
0
100
AcDbLine
 10
443.1620793623596
 20
203.2574157700528
 30
0.0
 11
423.1620793623596
 21
203.2574157700528
 31
0.0
  0
LINE
  5
2D52
330
18
100
AcDbEntity
  8
0
100
AcDbLine
 10
473.1620793623597
 20
245.2574157700528
 30
0.0
 11
505.1620793623596
 21
245.2574157700528
 31
0.0
  0
LINE
  5
2D53
330
18
100
AcDbEntity
  8
0
100
AcDbLine
 10
473.1620793623597
 20
245.2574157700528
 30
0.0
 11
447.985382551531
 21
240.222076407887
 31
0.0
  0
LINE
  5
2D54
330
18
100
AcDbEntity
  8
0
100
AcDbLine
 10
473.1620793623597
 20
296.2574157700528
 30
0.0
 11
492.6620793623596
 21
296.2574157700528
 31
0.0
  0
LINE
  5
2D55
330
18
100
AcDbEntity
  8
0
100
AcDbLine
 10
497.1620793623596
 20
286.7574157700528
 30
0.0
 11
497.1620793623596
 21
254.7574157700528
 31
0.0
  0
ARC
  5
2D56
330
18
100
AcDbEntity
  8
0
100
AcDbCircle
 10
505.1620793623596
 20
270.7574157700528
 30
0.0
 40
25.5
100
AcDbArc
 50
270.0
 51
301.8348422171186
  0
ARC
  5
2D57
330
18
100
AcDbEntity
  8
0
100
AcDbCircle
 10
498.1620793623597
 20
254.7574157700528
 30
0.0
 40
1.0
100
AcDbArc
 50
180.0
 51
270.0
  0
ARC
  5
2D58
330
18
100
AcDbEntity
  8
0
100
AcDbCircle
 10
529.1620793623597
 20
232.1018857646317
 30
0.0
 40
20.0
100
AcDbArc
 50
58.16515778288101
 51
121.8348422171189
  0
ARC
  5
2D59
330
18
100
AcDbEntity
  8
0
100
AcDbCircle
 10
498.1620793623597
 20
286.7574157700528
 30
0.0
 40
1.0
100
AcDbArc
 50
90.0
 51
180.0
  0
ARC
  5
2D5A
330
18
100
AcDbEntity
  8
0
100
AcDbCircle
 10
489.5389196873439
 20
289.5732556362313
 30
0.0
 40
7.377812890702456
100
AcDbArc
 50
356.7751236784869
 51
49.28680579494692
  0
LINE
  5
2D5B
330
18
100
AcDbEntity
  8
0
100
AcDbLine
 10
443.1620793623596
 20
563.5100862058752
 30
0.0
 11
443.1620793623596
 21
428.5100862058753
 31
0.0
  0
LINE
  5
2D5C
330
18
100
AcDbEntity
  8
0
100
AcDbLine
 10
423.1620793623596
 20
496.0100862058753
 30
0.0
 11
423.1620793623596
 21
563.5100862058752
 31
0.0
  0
CIRCLE
  5
2D5D
330
18
100
AcDbEntity
  8
0
100
AcDbCircle
 10
295.8052040671382
 20
306.1127548293802
 30
0.0
 40
7.5
  0
ARC
  5
2D5E
330
18
100
AcDbEntity
  8
0
100
AcDbCircle
 10
288.4498650078112
 20
349.7574157700528
 30
0.0
 40
6.0
100
AcDbArc
 50
0.000000000000007
 51
90.0
  0
TEXT
  5
2D5F
330
18
100
AcDbEntity
  8
0
100
AcDbText
 10
125.7510702036461
 20
320.6796098249451
 30
0.0
 40
20.0
  1
正面
100
AcDbText
  0
LINE
  5
2D60
330
18
100
AcDbEntity
  8
0
100
AcDbLine
 10
288.4498650078112
 20
355.7574157700528
 30
0.0
 11
232.4498650078112
 21
355.7574157700528
 31
0.0
  0
LINE
  5
2D61
330
18
100
AcDbEntity
  8
0
100
AcDbLine
 10
228.1553052041053
 20
341.7574157700529
 30
0.0
 11
250.7856486457058
 21
341.7574157700528
 31
0.0
  0
LINE
  5
2D62
330
18
100
AcDbEntity
  8
0
100
AcDbLine
 10
226.4498650078112
 20
349.7574157700528
 30
0.0
 11
226.4498650078112
 21
329.0690784114147
 31
0.0
  0
CIRCLE
  5
2D63
330
18
100
AcDbEntity
  8
0
100
AcDbCircle
 10
225.0945259484842
 20
306.1127548293802
 30
0.0
 40
7.5
  0
ARC
  5
2D64
330
18
100
AcDbEntity
  8
0
100
AcDbCircle
 10
232.4498650078112
 20
349.7574157700528
 30
0.0
 40
6.0
100
AcDbArc
 50
90.0
 51
180.0
  0
LINE
  5
2D65
330
18
100
AcDbEntity
  8
0
100
AcDbLine
 10
229.7191040824736
 20
337.7046955875125
 30
0.0
 11
228.1553052041053
 21
339.0933718733663
 31
0.0
  0
LINE
  5
2D66
330
18
100
AcDbEntity
  8
0
100
AcDbLine
 10
230.3911069167043
 20
336.2092279256388
 30
0.0
 11
230.3911069167043
 21
331.1951611120188
 31
0.0
  0
LINE
  5
2D67
330
18
100
AcDbEntity
  8
0
100
AcDbLine
 10
232.47500441186
 20
332.2574157700529
 30
0.0
 11
232.47500441186
 21
332.1875156774849
 31
0.0
  0
LINE
  5
2D68
330
18
100
AcDbEntity
  8
0
100
AcDbLine
 10
235.4750044118609
 20
335.2574157700529
 30
0.0
 11
240.5501162656792
 21
335.2574157700528
 31
0.0
  0
ARC
  5
2D69
330
18
100
AcDbEntity
  8
0
100
AcDbCircle
 10
235.47500441186
 20
332.2574157700529
 30
0.0
 40
3.0
100
AcDbArc
 50
89.99999999999987
 51
180.0
  0
ARC
  5
2D6A
330
18
100
AcDbEntity
  8
0
100
AcDbCircle
 10
228.3911069167043
 20
336.2092279256388
 30
0.0
 40
2.0
100
AcDbArc
 50
0.000000000000007
 51
48.39445480393422
  0
ARC
  5
2D6B
330
18
100
AcDbEntity
  8
0
100
AcDbCircle
 10
228.1553052041053
 20
338.7574157700529
 30
0.0
 40
3.0
100
AcDbArc
 50
89.99999999999991
 51
124.6443039619388
  0
LINE
  5
2D6C
330
18
100
AcDbEntity
  8
0
100
AcDbLine
 10
294.4498650078112
 20
349.7574157700528
 30
0.0
 11
294.4498650078112
 21
329.0690784114147
 31
0.0
  0
LINE
  5
2D6D
330
18
100
AcDbEntity
  8
0
100
AcDbLine
 10
292.7444248115161
 20
341.7574157700528
 30
0.0
 11
270.1140813699157
 21
341.7574157700528
 31
0.0
  0
LINE
  5
2D6E
330
18
100
AcDbEntity
  8
0
100
AcDbLine
 10
268.9791821854059
 20
337.7163640031604
 30
0.0
 11
268.4986967545319
 21
338.7574157700528
 31
0.0
  0
LINE
  5
2D6F
330
18
100
AcDbEntity
  8
0
100
AcDbLine
 10
267.1140813699157
 20
338.7574157700528
 30
0.0
 11
267.1140813699157
 21
337.9276340239714
 31
0.0
  0
ARC
  5
2D70
330
18
100
AcDbEntity
  8
0
100
AcDbCircle
 10
270.1140813699157
 20
338.7574157700528
 30
0.0
 40
3.0
100
AcDbArc
 50
90.00000000000003
 51
180.0
  0
LINE
  5
2D71
330
18
100
AcDbEntity
  8
0
100
AcDbLine
 10
251.9205478302164
 20
337.7163640031604
 30
0.0
 11
252.4010332610905
 21
338.7574157700528
 31
0.0
  0
LINE
  5
2D72
330
18
100
AcDbEntity
  8
0
100
AcDbLine
 10
253.7856486457058
 20
338.7574157700528
 30
0.0
 11
253.7856486457067
 21
337.9276340239714
 31
0.0
  0
ARC
  5
2D73
330
18
100
AcDbEntity
  8
0
100
AcDbCircle
 10
250.7856486457058
 20
338.7574157700528
 30
0.0
 40
3.0
100
AcDbArc
 50
359.9999999999998
 51
89.99999999999991
  0
LINE
  5
2D74
330
18
100
AcDbEntity
  8
0
100
AcDbLine
 10
291.1806259331488
 20
337.7046955875125
 30
0.0
 11
292.7444248115161
 21
339.0933718733663
 31
0.0
  0
LINE
  5
2D75
330
18
100
AcDbEntity
  8
0
100
AcDbLine
 10
290.5086230989173
 20
336.2092279256388
 30
0.0
 11
290.5086230989181
 21
331.1951611120188
 31
0.0
  0
LINE
  5
2D76
330
18
100
AcDbEntity
  8
0
100
AcDbLine
 10
288.4247256037615
 20
332.2574157700528
 30
0.0
 11
288.4247256037615
 21
332.1875156774854
 31
0.0
  0
LINE
  5
2D77
330
18
100
AcDbEntity
  8
0
100
AcDbLine
 10
285.4247256037615
 20
335.2574157700528
 30
0.0
 11
280.3496137499442
 21
335.2574157700528
 31
0.0
  0
ARC
  5
2D78
330
18
100
AcDbEntity
  8
0
100
AcDbCircle
 10
285.4247256037615
 20
332.2574157700528
 30
0.0
 40
3.0
100
AcDbArc
 50
359.9999999999998
 51
90.00000000000005
  0
ARC
  5
2D79
330
18
100
AcDbEntity
  8
0
100
AcDbCircle
 10
292.5086230989172
 20
336.2092279256388
 30
0.0
 40
2.0
100
AcDbArc
 50
131.6055451960656
 51
179.9999999999998
  0
ARC
  5
2D7A
330
18
100
AcDbEntity
  8
0
100
AcDbCircle
 10
292.7444248115161
 20
338.7574157700528
 30
0.0
 40
3.0
100
AcDbArc
 50
55.35569603806104
 51
90.00000000000003
  0
TEXT
  5
2D7B
330
18
100
AcDbEntity
  8
0
100
AcDbText
 10
125.7510702036461
 20
482.5485368572531
 30
0.0
 40
20.0
  1
平面
100
AcDbText
  0
LINE
  5
2D7C
330
18
100
AcDbEntity
  8
0
100
AcDbLine
 10
423.1620793623596
 20
428.5100862058753
 30
0.0
 11
423.1620793623596
 21
496.0100862058753
 31
0.0
  0
ARC
  5
2D7D
330
18
100
AcDbEntity
  8
0
100
AcDbCircle
 10
449.1620793623597
 20
307.1762391863642
 30
0.0
 40
6.0
100
AcDbArc
 50
180.0
 51
258.69006752598
  0
LINE
  5
2D7E
330
18
100
AcDbEntity
  8
0
100
AcDbLine
 10
423.1620793623596
 20
338.2574157700528
 30
0.0
 11
443.1620793623596
 21
338.2574157700528
 31
0.0
  0
LINE
  5
2D7F
330
18
100
AcDbEntity
  8
0
100
AcDbLine
 10
443.1620793623596
 20
428.5100862058753
 30
0.0
 11
423.1620793623596
 21
428.5100862058753
 31
0.0
  0
LINE
  5
2D80
330
18
100
AcDbEntity
  8
0
100
AcDbLine
 10
490.8675195586547
 20
341.7574157700528
 30
0.0
 11
513.4978630002551
 21
341.7574157700528
 31
0.0
  0
ARC
  5
2D81
330
18
100
AcDbEntity
  8
0
100
AcDbCircle
 10
490.8262957244651
 20
311.2727750202959
 30
0.0
 40
7.98464074975686
100
AcDbArc
 50
45.9865730962944
 51
105.9865730962936
  0
ARC
  5
2D82
330
18
100
AcDbEntity
  8
0
100
AcDbCircle
 10
490.8262957244651
 20
312.2420565198095
 30
0.0
 40
7.98464074975686
100
AcDbArc
 50
254.0134269037064
 51
314.0134269037055
  0
ARC
  5
2D83
330
18
100
AcDbEntity
  8
0
100
AcDbCircle
 10
495.1620793623597
 20
349.7574157700528
 30
0.0
 40
6.0
100
AcDbArc
 50
90.0
 51
180.0
  0
LINE
  5
2D84
330
18
100
AcDbEntity
  8
0
100
AcDbLine
 10
493.1033212712536
 20
336.2092279256388
 30
0.0
 11
493.1033212712536
 21
322.2574157700528
 31
0.0
  0
LINE
  5
2D85
330
18
100
AcDbEntity
  8
0
100
AcDbLine
 10
489.1620793623596
 20
349.7574157700528
 30
0.0
 11
489.1620793623596
 21
319.2574157700528
 31
0.0
  0
LINE
  5
2D86
330
18
100
AcDbEntity
  8
0
100
AcDbLine
 10
485.2783523521257
 20
317.0151449352353
 30
0.0
 11
485.2783523521257
 21
306.4996866048701
 31
0.0
  0
LINE
  5
2D87
330
18
100
AcDbEntity
  8
0
100
AcDbLine
 10
485.2783523521257
 20
306.4996866048702
 30
0.0
 11
489.1620793623596
 21
304.2574157700527
 31
0.0
  0
LINE
  5
2D88
330
18
100
AcDbEntity
  8
0
100
AcDbLine
 10
485.2783523521257
 20
306.4996866048703
 30
0.0
 11
489.1620793623596
 21
304.2574157700528
 31
0.0
  0
ARC
  5
2D89
330
18
100
AcDbEntity
  8
0
100
AcDbCircle
 10
490.8675195586547
 20
322.2574157700528
 30
0.0
 40
3.0
100
AcDbArc
 50
235.355696038061
 51
270.0
  0
LINE
  5
2D8A
330
18
100
AcDbEntity
  8
0
100
AcDbLine
 10
485.2783523521257
 20
317.0151449352353
 30
0.0
 11
489.1620793623596
 21
319.2574157700528
 31
0.0
  0
ARC
  5
2D8B
330
18
100
AcDbEntity
  8
0
100
AcDbCircle
 10
491.1033212712537
 20
336.2092279256388
 30
0.0
 40
2.0
100
AcDbArc
 50
0.0000000000001018
 51
48.39445480393429
  0
ARC
  5
2D8C
330
18
100
AcDbEntity
  8
0
100
AcDbCircle
 10
490.8675195586547
 20
338.7574157700528
 30
0.0
 40
3.0
100
AcDbArc
 50
89.99999999999998
 51
124.6443039619389
  0
LINE
  5
2D8D
330
18
100
AcDbEntity
  8
0
100
AcDbLine
 10
492.4313184370221
 20
337.7046955875125
 30
0.0
 11
490.8675195586547
 21
339.0933718733663
 31
0.0
  0
LINE
  5
2D8E
330
18
100
AcDbEntity
  8
0
100
AcDbLine
 10
532.8262957244651
 20
332.2574157700528
 30
0.0
 11
532.8262957244651
 21
322.2574157700528
 31
0.0
  0
LINE
  5
2D8F
330
18
100
AcDbEntity
  8
0
100
AcDbLine
 10
513.4978630002551
 20
332.2574157700528
 30
0.0
 11
513.4978630002551
 21
322.2574157700528
 31
0.0
  0
LINE
  5
2D90
330
18
100
AcDbEntity
  8
0
100
AcDbLine
 10
516.4978630002551
 20
338.7574157700528
 30
0.0
 11
516.4978630002551
 21
322.2574157700528
 31
0.0
  0
LINE
  5
2D91
330
18
100
AcDbEntity
  8
0
100
AcDbLine
 10
529.8262957244651
 20
338.7574157700528
 30
0.0
 11
529.8262957244651
 21
322.2574157700528
 31
0.0
  0
LINE
  5
2D92
330
18
100
AcDbEntity
  8
0
100
AcDbLine
 10
495.1872187664093
 20
332.2574157700528
 30
0.0
 11
495.1872187664093
 21
322.2574157700528
 31
0.0
  0
ARC
  5
2D93
330
18
100
AcDbEntity
  8
0
100
AcDbCircle
 10
509.768159229582
 20
345.3819918373592
 30
0.0
 40
41.12457606730651
100
AcDbArc
 50
250.992532412469
 51
289.0074675875309
  0
ARC
  5
2D94
330
18
100
AcDbEntity
  8
0
100
AcDbCircle
 10
509.768159229582
 20
278.1328397027463
 30
0.0
 40
41.12457606730651
100
AcDbArc
 50
70.992532412469
 51
109.0074675875309
  0
LINE
  5
2D95
330
18
100
AcDbEntity
  8
0
100
AcDbLine
 10
496.3742390968036
 20
319.2574157700528
 30
0.0
 11
523.1620793623597
 21
319.2574157700528
 31
0.0
  0
LINE
  5
2D96
330
18
100
AcDbEntity
  8
0
100
AcDbLine
 10
496.3742390968036
 20
317.0151449352353
 30
0.0
 11
496.3742390968036
 21
306.4996866048702
 31
0.0
  0
LINE
  5
2D97
330
18
100
AcDbEntity
  8
0
100
AcDbLine
 10
494.6620793623597
 20
304.2574157700528
 30
0.0
 11
494.6620793623597
 21
298.2574157700528
 31
0.0
  0
ARC
  5
2D98
330
18
100
AcDbEntity
  8
0
100
AcDbCircle
 10
510.4978630002551
 20
322.2574157700528
 30
0.0
 40
3.0
100
AcDbArc
 50
270.0
 51
0.0
  0
ARC
  5
2D99
330
18
100
AcDbEntity
  8
0
100
AcDbCircle
 10
498.1872187664094
 20
322.2574157700528
 30
0.0
 40
3.0
100
AcDbArc
 50
179.9999999999998
 51
270.0
  0
ARC
  5
2D9A
330
18
100
AcDbEntity
  8
0
100
AcDbCircle
 10
513.4978630002551
 20
322.2574157700528
 30
0.0
 40
3.0
100
AcDbArc
 50
270.0
 51
0.0
  0
LINE
  5
2D9B
330
18
100
AcDbEntity
  8
0
100
AcDbLine
 10
523.1620793623597
 20
317.0151449352353
 30
0.0
 11
523.1620793623597
 21
306.4996866048703
 31
0.0
  0
ARC
  5
2D9C
330
18
100
AcDbEntity
  8
0
100
AcDbCircle
 10
532.8262957244651
 20
322.2574157700528
 30
0.0
 40
3.0
100
AcDbArc
 50
180.0000000000001
 51
270.0000000000001
  0
ARC
  5
2D9D
330
18
100
AcDbEntity
  8
0
100
AcDbCircle
 10
535.8262957244651
 20
322.2574157700528
 30
0.0
 40
3.0
100
AcDbArc
 50
180.0000000000001
 51
270.0
  0
ARC
  5
2D9E
330
18
100
AcDbEntity
  8
0
100
AcDbCircle
 10
510.4978630002551
 20
332.2574157700528
 30
0.0
 40
3.0
100
AcDbArc
 50
0.0
 51
89.99999999999994
  0
LINE
  5
2D9F
330
18
100
AcDbEntity
  8
0
100
AcDbLine
 10
513.4978630002551
 20
335.2574157700528
 30
0.0
 11
515.113247615639
 21
338.7574157700528
 31
0.0
  0
ARC
  5
2DA0
330
18
100
AcDbEntity
  8
0
100
AcDbCircle
 10
498.1872187664094
 20
332.2574157700528
 30
0.0
 40
3.0
100
AcDbArc
 50
89.99999999999994
 51
180.0000000000001
  0
LINE
  5
2DA1
330
18
100
AcDbEntity
  8
0
100
AcDbLine
 10
498.1872187664094
 20
335.2574157700528
 30
0.0
 11
510.4978630002551
 21
335.2574157700528
 31
0.0
  0
ARC
  5
2DA2
330
18
100
AcDbEntity
  8
0
100
AcDbCircle
 10
513.4978630002551
 20
338.7574157700528
 30
0.0
 40
3.0
100
AcDbArc
 50
0.0
 51
89.99999999999998
  0
ARC
  5
2DA3
330
18
100
AcDbEntity
  8
0
100
AcDbCircle
 10
535.8262957244651
 20
332.2574157700528
 30
0.0
 40
3.0
100
AcDbArc
 50
90.00000000000014
 51
180.0000000000001
  0
LINE
  5
2DA4
330
18
100
AcDbEntity
  8
0
100
AcDbLine
 10
532.8262957244651
 20
335.2574157700528
 30
0.0
 11
531.2109111090803
 21
338.7574157700528
 31
0.0
  0
ARC
  5
2DA5
330
18
100
AcDbEntity
  8
0
100
AcDbCircle
 10
532.8262957244651
 20
338.7574157700528
 30
0.0
 40
3.0
100
AcDbArc
 50
90.00000000000012
 51
180.0000000000001
  0
ARC
  5
2DA6
330
18
100
AcDbEntity
  8
0
100
AcDbCircle
 10
449.1620793623597
 20
532.4289096221864
 30
0.0
 40
6.0
100
AcDbArc
 50
180.0
 51
258.69006752598
  0
ARC
  5
2DA7
330
18
100
AcDbEntity
  8
0
100
AcDbCircle
 10
449.1620793623597
 20
459.5912627895638
 30
0.0
 40
6.0
100
AcDbArc
 50
101.3099324740199
 51
180.0
  0
LINE
  5
2DA8
330
18
100
AcDbEntity
  8
0
100
AcDbLine
 10
473.1620793623597
 20
470.5100862058753
 30
0.0
 11
495.8407981926402
 21
470.5100862058753
 31
0.0
  0
LINE
  5
2DA9
330
18
100
AcDbEntity
  8
0
100
AcDbLine
 10
473.1620793623597
 20
470.5100862058753
 30
0.0
 11
447.985382551531
 21
465.4747468437094
 31
0.0
  0
LINE
  5
2DAA
330
18
100
AcDbEntity
  8
0
100
AcDbLine
 10
473.1620793623597
 20
521.5100862058752
 30
0.0
 11
495.8407981926402
 21
521.5100862058752
 31
0.0
  0
LINE
  5
2DAB
330
18
100
AcDbEntity
  8
0
100
AcDbLine
 10
447.985382551531
 20
526.5454255680411
 30
0.0
 11
473.1620793623597
 21
521.5100862058752
 31
0.0
  0
TEXT
  5
2DAC
330
18
100
AcDbEntity
  8
0
100
AcDbText
 10
125.7510702036461
 20
647.5046211348049
 30
0.0
 40
20.0
  1
背面
100
AcDbText
  0
LINE
  5
2DAD
330
18
100
AcDbEntity
  8
0
100
AcDbLine
 10
423.1620793623596
 20
641.6056988241762
 30
0.0
 11
423.1620793623596
 21
709.1056988241762
 31
0.0
  0
LINE
  5
2DAE
330
18
100
AcDbEntity
  8
0
100
AcDbLine
 10
443.1620793623596
 20
776.6056988241762
 30
0.0
 11
443.1620793623596
 21
641.6056988241762
 31
0.0
  0
ARC
  5
2DAF
330
18
100
AcDbEntity
  8
0
100
AcDbCircle
 10
449.1620793623597
 20
672.686875407865
 30
0.0
 40
6.0
100
AcDbArc
 50
101.3099324740199
 51
180.0
  0
LINE
  5
2DB0
330
18
100
AcDbEntity
  8
0
100
AcDbLine
 10
423.1620793623596
 20
563.5100862058752
 30
0.0
 11
443.1620793623596
 21
563.5100862058752
 31
0.0
  0
LINE
  5
2DB1
330
18
100
AcDbEntity
  8
0
100
AcDbLine
 10
443.1620793623596
 20
641.6056988241762
 30
0.0
 11
423.1620793623596
 21
641.6056988241762
 31
0.0
  0
ARC
  5
2DB2
330
18
100
AcDbEntity
  8
0
100
AcDbCircle
 10
493.1620793623596
 20
709.1056988241762
 30
0.0
 40
25.5
100
AcDbArc
 50
270.0
 51
301.8348422171191
  0
LINE
  5
2DB3
330
18
100
AcDbEntity
  8
0
100
AcDbLine
 10
473.1620793623597
 20
683.6056988241762
 30
0.0
 11
447.9853825515301
 21
678.5703594620104
 31
0.0
  0
LINE
  5
2DB4
330
18
100
AcDbEntity
  8
0
100
AcDbLine
 10
493.1620793623596
 20
683.6056988241762
 30
0.0
 11
473.1620793623597
 21
683.6056988241762
 31
0.0
  0
ARC
  5
2DB5
330
18
100
AcDbEntity
  8
0
100
AcDbCircle
 10
517.1620793623596
 20
670.4501688187551
 30
0.0
 40
20.0
100
AcDbArc
 50
58.16515778288103
 51
121.8348422171189
  0
ARC
  5
2DB6
330
18
100
AcDbEntity
  8
0
100
AcDbCircle
 10
449.1620793623597
 20
745.5245222404876
 30
0.0
 40
6.0
100
AcDbArc
 50
180.0
 51
258.69006752598
  0
LINE
  5
2DB7
330
18
100
AcDbEntity
  8
0
100
AcDbLine
 10
423.1620793623596
 20
709.1056988241762
 30
0.0
 11
423.1620793623596
 21
776.6056988241762
 31
0.0
  0
LINE
  5
2DB8
330
18
100
AcDbEntity
  8
0
100
AcDbLine
 10
423.1620793623596
 20
776.6056988241762
 30
0.0
 11
443.1620793623596
 21
776.6056988241762
 31
0.0
  0
ARC
  5
2DB9
330
18
100
AcDbEntity
  8
0
100
AcDbCircle
 10
535.8262957244642
 20
760.6056988241761
 30
0.0
 40
3.0
100
AcDbArc
 50
180.0
 51
269.9999999999999
  0
ARC
  5
2DBA
330
18
100
AcDbEntity
  8
0
100
AcDbCircle
 10
532.8262957244642
 20
760.6056988241761
 30
0.0
 40
3.0
100
AcDbArc
 50
180.0
 51
270.0
  0
ARC
  5
2DBB
330
18
100
AcDbEntity
  8
0
100
AcDbCircle
 10
490.8675195586538
 20
760.6056988241761
 30
0.0
 40
3.0
100
AcDbArc
 50
235.3556960380609
 51
269.9999999999998
  0
ARC
  5
2DBC
330
18
100
AcDbEntity
  8
0
100
AcDbCircle
 10
510.4978630002542
 20
760.6056988241761
 30
0.0
 40
3.0
100
AcDbArc
 50
269.9999999999999
 51
359.9999999999998
  0
ARC
  5
2DBD
330
18
100
AcDbEntity
  8
0
100
AcDbCircle
 10
498.1872187664085
 20
760.6056988241761
 30
0.0
 40
3.0
100
AcDbArc
 50
179.9999999999998
 51
269.9999999999999
  0
ARC
  5
2DBE
330
18
100
AcDbEntity
  8
0
100
AcDbCircle
 10
513.4978630002542
 20
760.6056988241761
 30
0.0
 40
3.0
100
AcDbArc
 50
269.9999999999998
 51
359.9999999999998
  0
ARC
  5
2DBF
330
18
100
AcDbEntity
  8
0
100
AcDbCircle
 10
490.8262957244642
 20
749.6210580744193
 30
0.0
 40
7.98464074975686
100
AcDbArc
 50
45.9865730962944
 51
105.9865730962936
  0
LINE
  5
2DC0
330
18
100
AcDbEntity
  8
0
100
AcDbLine
 10
485.2783523521257
 20
755.3634279893586
 30
0.0
 11
489.1620793623596
 21
757.6056988241762
 31
0.0
  0
ARC
  5
2DC1
330
18
100
AcDbEntity
  8
0
100
AcDbCircle
 10
509.7681592295812
 20
716.4811227568698
 30
0.0
 40
41.12457606730651
100
AcDbArc
 50
70.99253241246905
 51
109.0074675875309
  0
ARC
  5
2DC2
330
18
100
AcDbEntity
  8
0
100
AcDbCircle
 10
490.8262957244642
 20
750.5903395739328
 30
0.0
 40
7.98464074975686
100
AcDbArc
 50
254.0134269037064
 51
314.0134269037056
  0
ARC
  5
2DC3
330
18
100
AcDbEntity
  8
0
100
AcDbCircle
 10
492.6620793623596
 20
736.6056988241762
 30
0.0
 40
2.0
100
AcDbArc
 50
270.0
 51
0.0
  0
LINE
  5
2DC4
330
18
100
AcDbEntity
  8
0
100
AcDbLine
 10
447.9853825515301
 20
739.641038186342
 30
0.0
 11
473.1620793623597
 21
734.6056988241762
 31
0.0
  0
LINE
  5
2DC5
330
18
100
AcDbEntity
  8
0
100
AcDbLine
 10
492.6620793623596
 20
734.6056988241762
 30
0.0
 11
473.1620793623597
 21
734.6056988241762
 31
0.0
  0
LINE
  5
2DC6
330
18
100
AcDbEntity
  8
0
100
AcDbLine
 10
485.2783523521257
 20
744.8479696589936
 30
0.0
 11
489.1620793623596
 21
742.6056988241762
 31
0.0
  0
LINE
  5
2DC7
330
18
100
AcDbEntity
  8
0
100
AcDbLine
 10
485.2783523521257
 20
744.8479696589938
 30
0.0
 11
489.1620793623596
 21
742.6056988241762
 31
0.0
  0
LINE
  5
2DC8
330
18
100
AcDbEntity
  8
0
100
AcDbLine
 10
485.2783523521257
 20
755.3634279893586
 30
0.0
 11
485.2783523521257
 21
744.8479696589934
 31
0.0
  0
ARC
  5
2DC9
330
18
100
AcDbEntity
  8
0
100
AcDbCircle
 10
509.7681592295812
 20
783.7302748914826
 30
0.0
 40
41.12457606730651
100
AcDbArc
 50
250.992532412469
 51
289.0074675875309
  0
LINE
  5
2DCA
330
18
100
AcDbEntity
  8
0
100
AcDbLine
 10
494.6620793623597
 20
742.6056988241762
 30
0.0
 11
494.6620793623597
 21
736.6056988241762
 31
0.0
  0
LINE
  5
2DCB
330
18
100
AcDbEntity
  8
0
100
AcDbLine
 10
496.3742390968027
 20
755.3634279893586
 30
0.0
 11
496.3742390968027
 21
744.8479696589936
 31
0.0
  0
LINE
  5
2DCC
330
18
100
AcDbEntity
  8
0
100
AcDbLine
 10
523.1620793623597
 20
755.3634279893586
 30
0.0
 11
523.1620793623597
 21
744.8479696589938
 31
0.0
  0
ARC
  5
2DCD
330
18
100
AcDbEntity
  8
0
100
AcDbCircle
 10
495.1620793623597
 20
788.1056988241762
 30
0.0
 40
6.0
100
AcDbArc
 50
90.0
 51
180.0
  0
LINE
  5
2DCE
330
18
100
AcDbEntity
  8
0
100
AcDbLine
 10
490.8675195586538
 20
780.1056988241762
 30
0.0
 11
513.4978630002542
 21
780.1056988241762
 31
0.0
  0
ARC
  5
2DCF
330
18
100
AcDbEntity
  8
0
100
AcDbCircle
 10
491.1033212712527
 20
774.5575109797623
 30
0.0
 40
2.0
100
AcDbArc
 50
0.0
 51
48.39445480393422
  0
ARC
  5
2DD0
330
18
100
AcDbEntity
  8
0
100
AcDbCircle
 10
490.8675195586538
 20
777.1056988241761
 30
0.0
 40
3.0
100
AcDbArc
 50
89.99999999999991
 51
124.6443039619388
  0
LINE
  5
2DD1
330
18
100
AcDbEntity
  8
0
100
AcDbLine
 10
492.4313184370221
 20
776.0529786416359
 30
0.0
 11
490.8675195586538
 21
777.4416549274897
 31
0.0
  0
LINE
  5
2DD2
330
18
100
AcDbEntity
  8
0
100
AcDbLine
 10
493.1033212712527
 20
774.5575109797623
 30
0.0
 11
493.1033212712527
 21
760.6056988241761
 31
0.0
  0
LINE
  5
2DD3
330
18
100
AcDbEntity
  8
0
100
AcDbLine
 10
489.1620793623596
 20
788.1056988241762
 30
0.0
 11
489.1620793623596
 21
757.6056988241762
 31
0.0
  0
LINE
  5
2DD4
330
18
100
AcDbEntity
  8
0
100
AcDbLine
 10
516.4978630002543
 20
777.1056988241761
 30
0.0
 11
516.4978630002543
 21
760.6056988241761
 31
0.0
  0
LINE
  5
2DD5
330
18
100
AcDbEntity
  8
0
100
AcDbLine
 10
513.4978630002542
 20
770.6056988241762
 30
0.0
 11
513.4978630002542
 21
760.6056988241761
 31
0.0
  0
LINE
  5
2DD6
330
18
100
AcDbEntity
  8
0
100
AcDbLine
 10
495.1872187664084
 20
770.6056988241762
 30
0.0
 11
495.1872187664093
 21
760.6056988241761
 31
0.0
  0
ARC
  5
2DD7
330
18
100
AcDbEntity
  8
0
100
AcDbCircle
 10
510.4978630002542
 20
770.6056988241762
 30
0.0
 40
3.0
100
AcDbArc
 50
359.9999999999998
 51
89.99999999999984
  0
LINE
  5
2DD8
330
18
100
AcDbEntity
  8
0
100
AcDbLine
 10
513.4978630002542
 20
773.6056988241762
 30
0.0
 11
515.113247615639
 21
777.1056988241761
 31
0.0
  0
ARC
  5
2DD9
330
18
100
AcDbEntity
  8
0
100
AcDbCircle
 10
498.1872187664085
 20
770.6056988241762
 30
0.0
 40
3.0
100
AcDbArc
 50
89.99999999999984
 51
180.0
  0
LINE
  5
2DDA
330
18
100
AcDbEntity
  8
0
100
AcDbLine
 10
498.1872187664094
 20
773.6056988241762
 30
0.0
 11
510.4978630002542
 21
773.6056988241762
 31
0.0
  0
ARC
  5
2DDB
330
18
100
AcDbEntity
  8
0
100
AcDbCircle
 10
513.4978630002542
 20
777.1056988241761
 30
0.0
 40
3.0
100
AcDbArc
 50
359.9999999999998
 51
89.99999999999991
  0
LINE
  5
2DDC
330
18
100
AcDbEntity
  8
0
100
AcDbLine
 10
532.8262957244642
 20
770.6056988241762
 30
0.0
 11
532.8262957244642
 21
760.6056988241761
 31
0.0
  0
LINE
  5
2DDD
330
18
100
AcDbEntity
  8
0
100
AcDbLine
 10
529.8262957244642
 20
777.1056988241761
 30
0.0
 11
529.8262957244642
 21
760.6056988241761
 31
0.0
  0
ARC
  5
2DDE
330
18
100
AcDbEntity
  8
0
100
AcDbCircle
 10
532.8262957244642
 20
777.1056988241761
 30
0.0
 40
3.0
100
AcDbArc
 50
90.00000000000003
 51
180.0
  0
ARC
  5
2DDF
330
18
100
AcDbEntity
  8
0
100
AcDbCircle
 10
535.8262957244642
 20
770.6056988241762
 30
0.0
 40
3.0
100
AcDbArc
 50
90.00000000000005
 51
180.0
  0
LINE
  5
2DE0
330
18
100
AcDbEntity
  8
0
100
AcDbLine
 10
532.8262957244642
 20
773.6056988241762
 30
0.0
 11
531.2109111090803
 21
777.1056988241761
 31
0.0
  0
ARC
  5
2DE1
330
18
100
AcDbEntity
  8
0
100
AcDbCircle
 10
1267.605485732523
 20
302.7574157700528
 30
0.0
 40
4.0
100
AcDbArc
 50
180.0
 51
270.0
  0
ARC
  5
2DE2
330
18
100
AcDbEntity
  8
0
100
AcDbCircle
 10
1202.605485732523
 20
302.7574157700528
 30
0.0
 40
4.0
100
AcDbArc
 50
270.0
 51
0.0
  0
ARC
  5
2DE3
330
18
100
AcDbEntity
  8
0
100
AcDbCircle
 10
1188.478082093473
 20
288.8075488140234
 30
0.0
 40
20.60028444551369
100
AcDbArc
 50
4.640719689632391
 51
26.54258861412453
  0
ARC
  5
2DE4
330
18
100
AcDbEntity
  8
0
100
AcDbCircle
 10
1281.732889371573
 20
288.8075488140234
 30
0.0
 40
20.60028444551369
100
AcDbArc
 50
153.4574113858872
 51
175.3592803103676
  0
LINE
  5
2DE5
330
18
100
AcDbEntity
  8
0
100
AcDbLine
 10
1135.105485732523
 20
270.7574157700528
 30
0.0
 11
1135.105485732523
 21
340.7574157700528
 31
0.0
  0
LINE
  5
2DE6
330
18
100
AcDbEntity
  8
0
100
AcDbLine
 10
1155.105485732523
 20
340.7574157700528
 30
0.0
 11
1155.105485732523
 21
200.7574157700528
 31
0.0
  0
CIRCLE
  5
2DE7
330
18
100
AcDbEntity
  8
0
100
AcDbCircle
 10
982.708404201977
 20
270.7574157700528
 30
0.0
 40
70.0
  0
ARC
  5
2DE8
330
18
100
AcDbEntity
  8
0
100
AcDbCircle
 10
553.6620793623597
 20
298.2574157700528
 30
0.0
 40
2.0
100
AcDbArc
 50
180.0
 51
270.0
  0
LINE
  5
2DE9
330
18
100
AcDbEntity
  8
0
100
AcDbLine
 10
598.3387761731892
 20
301.2927551322186
 30
0.0
 11
573.1620793623597
 21
296.2574157700528
 31
0.0
  0
LINE
  5
2DEA
330
18
100
AcDbEntity
  8
0
100
AcDbLine
 10
603.1620793623597
 20
338.2574157700528
 30
0.0
 11
603.1620793623597
 21
203.2574157700528
 31
0.0
  0
LINE
  5
2DEB
330
18
100
AcDbEntity
  8
0
100
AcDbLine
 10
623.1620793623597
 20
270.7574157700528
 30
0.0
 11
623.1620793623597
 21
338.2574157700528
 31
0.0
  0
CIRCLE
  5
2DEC
330
18
100
AcDbEntity
  8
0
100
AcDbCircle
 10
726.2178289514313
 20
270.7574157700528
 30
0.0
 40
67.5
  0
LINE
  5
2DED
330
18
100
AcDbEntity
  8
0
100
AcDbLine
 10
623.1620793623597
 20
203.2574157700528
 30
0.0
 11
623.1620793623597
 21
270.7574157700528
 31
0.0
  0
LINE
  5
2DEE
330
18
100
AcDbEntity
  8
0
100
AcDbLine
 10
603.1620793623597
 20
203.2574157700528
 30
0.0
 11
623.1620793623597
 21
203.2574157700528
 31
0.0
  0
LINE
  5
2DEF
330
18
100
AcDbEntity
  8
0
100
AcDbLine
 10
573.1620793623597
 20
245.2574157700528
 30
0.0
 11
598.3387761731892
 21
240.222076407887
 31
0.0
  0
LINE
  5
2DF0
330
18
100
AcDbEntity
  8
0
100
AcDbLine
 10
549.1620793623597
 20
286.7574157700528
 30
0.0
 11
549.1620793623597
 21
254.7574157700528
 31
0.0
  0
LINE
  5
2DF1
330
18
100
AcDbEntity
  8
0
100
AcDbLine
 10
553.1620793623597
 20
245.2574157700528
 30
0.0
 11
573.1620793623597
 21
245.2574157700528
 31
0.0
  0
ARC
  5
2DF2
330
18
100
AcDbEntity
  8
0
100
AcDbCircle
 10
548.1620793623597
 20
254.7574157700528
 30
0.0
 40
1.0
100
AcDbArc
 50
270.0
 51
0.0
  0
LINE
  5
2DF3
330
18
100
AcDbEntity
  8
0
100
AcDbLine
 10
553.6620793623597
 20
296.2574157700528
 30
0.0
 11
573.1620793623597
 21
296.2574157700528
 31
0.0
  0
ARC
  5
2DF4
330
18
100
AcDbEntity
  8
0
100
AcDbCircle
 10
548.1620793623597
 20
286.7574157700528
 30
0.0
 40
1.0
100
AcDbArc
 50
0.0
 51
90.0
  0
ARC
  5
2DF5
330
18
100
AcDbEntity
  8
0
100
AcDbCircle
 10
556.7852390373764
 20
289.5732556362331
 30
0.0
 40
7.377812890702456
100
AcDbArc
 50
130.7131942050561
 51
183.224876321516
  0
ARC
  5
2DF6
330
18
100
AcDbEntity
  8
0
100
AcDbCircle
 10
597.1620793623596
 20
234.3385923537414
 30
0.0
 40
6.0
100
AcDbArc
 50
0.0
 51
78.69006752598004
  0
CIRCLE
  5
2DF7
330
18
100
AcDbEntity
  8
0
100
AcDbCircle
 10
690.8624898921043
 20
235.4020767107253
 30
0.0
 40
7.5
  0
CIRCLE
  5
2DF8
330
18
100
AcDbEntity
  8
0
100
AcDbCircle
 10
761.5731680107582
 20
235.4020767107253
 30
0.0
 40
7.5
  0
CIRCLE
  5
2DF9
330
18
100
AcDbEntity
  8
0
100
AcDbCircle
 10
945.5852981896832
 20
233.6343097577587
 30
0.0
 40
7.5
  0
CIRCLE
  5
2DFA
330
18
100
AcDbEntity
  8
0
100
AcDbCircle
 10
1019.83151021427
 20
233.6343097577587
 30
0.0
 40
7.5
  0
LINE
  5
2DFB
330
18
100
AcDbEntity
  8
0
100
AcDbLine
 10
1183.105485732523
 20
242.7574157700528
 30
0.0
 11
1155.105485732523
 21
236.7574157700528
 31
0.0
  0
LINE
  5
2DFC
330
18
100
AcDbEntity
  8
0
100
AcDbLine
 10
1135.105485732523
 20
200.7574157700528
 30
0.0
 11
1135.105485732523
 21
270.7574157700528
 31
0.0
  0
LINE
  5
2DFD
330
18
100
AcDbEntity
  8
0
100
AcDbLine
 10
1155.105485732523
 20
200.7574157700528
 30
0.0
 11
1135.105485732523
 21
200.7574157700528
 31
0.0
  0
TEXT
  5
2DFE
330
18
100
AcDbEntity
  8
0
100
AcDbText
 10
1221.466543431226
 20
189.1517686221709
 30
0.0
 40
20.0
  1
40A
 41
0.8
 11
1221.466543431226
 21
189.1517686221709
 31
0.0
100
AcDbText
 73
     1
  0
ARC
  5
2DFF
330
18
100
AcDbEntity
  8
0
100
AcDbCircle
 10
1241.105485732523
 20
224.8580693694778
 30
0.0
 40
25.0
100
AcDbArc
 50
59.99999999999996
 51
120.0
  0
LINE
  5
2E00
330
18
100
AcDbEntity
  8
0
100
AcDbLine
 10
1210.105485732523
 20
253.7574157700528
 30
0.0
 11
1260.105485732523
 21
253.7574157700528
 31
0.0
  0
LINE
  5
2E01
330
18
100
AcDbEntity
  8
0
100
AcDbLine
 10
1210.105485732523
 20
287.7574157700528
 30
0.0
 11
1260.105485732523
 21
287.7574157700528
 31
0.0
  0
LINE
  5
2E02
330
18
100
AcDbEntity
  8
0
100
AcDbLine
 10
1209.105485732523
 20
286.7574157700528
 30
0.0
 11
1209.105485732523
 21
254.7574157700528
 31
0.0
  0
LINE
  5
2E03
330
18
100
AcDbEntity
  8
0
100
AcDbLine
 10
1183.105485732523
 20
242.7574157700528
 30
0.0
 11
1214.605485732523
 21
242.7574157700528
 31
0.0
  0
ARC
  5
2E04
330
18
100
AcDbEntity
  8
0
100
AcDbCircle
 10
1210.105485732523
 20
254.7574157700528
 30
0.0
 40
1.0
100
AcDbArc
 50
180.0
 51
270.0
  0
ARC
  5
2E05
330
18
100
AcDbEntity
  8
0
100
AcDbCircle
 10
1214.605485732523
 20
270.7574157700528
 30
0.0
 40
28.0
100
AcDbArc
 50
270.0
 51
300.0
  0
ARC
  5
2E06
330
18
100
AcDbEntity
  8
0
100
AcDbCircle
 10
1210.105485732523
 20
286.7574157700528
 30
0.0
 40
1.0
100
AcDbArc
 50
90.0
 51
180.0
  0
LINE
  5
2E07
330
18
100
AcDbEntity
  8
0
100
AcDbLine
 10
1261.105485732523
 20
286.7574157700528
 30
0.0
 11
1261.105485732523
 21
254.7574157700528
 31
0.0
  0
ARC
  5
2E08
330
18
100
AcDbEntity
  8
0
100
AcDbCircle
 10
1260.105485732523
 20
254.7574157700528
 30
0.0
 40
1.0
100
AcDbArc
 50
270.0
 51
0.0
  0
ARC
  5
2E09
330
18
100
AcDbEntity
  8
0
100
AcDbCircle
 10
1267.605485732523
 20
270.7574157700528
 30
0.0
 40
28.0
100
AcDbArc
 50
239.9999999999991
 51
270.0
  0
ARC
  5
2E0A
330
18
100
AcDbEntity
  8
0
100
AcDbCircle
 10
1260.105485732523
 20
286.7574157700528
 30
0.0
 40
1.0
100
AcDbArc
 50
0.0
 51
90.0
  0
LINE
  5
2E0B
330
18
100
AcDbEntity
  8
0
100
AcDbLine
 10
603.1620793623597
 20
563.5100862058752
 30
0.0
 11
603.1620793623597
 21
428.5100862058753
 31
0.0
  0
LINE
  5
2E0C
330
18
100
AcDbEntity
  8
0
100
AcDbLine
 10
623.1620793623597
 20
496.0100862058753
 30
0.0
 11
623.1620793623597
 21
563.5100862058752
 31
0.0
  0
LINE
  5
2E0D
330
18
100
AcDbEntity
  8
0
100
AcDbLine
 10
698.2178289514313
 20
355.7574157700528
 30
0.0
 11
754.2178289514313
 21
355.7574157700528
 31
0.0
  0
LINE
  5
2E0E
330
18
100
AcDbEntity
  8
0
100
AcDbLine
 10
623.1620793623597
 20
428.5100862058753
 30
0.0
 11
623.1620793623597
 21
496.0100862058753
 31
0.0
  0
LINE
  5
2E0F
330
18
100
AcDbEntity
  8
0
100
AcDbLine
 10
551.1369399583109
 20
332.2574157700529
 30
0.0
 11
551.13693995831
 21
322.2574157700528
 31
0.0
  0
LINE
  5
2E10
330
18
100
AcDbEntity
  8
0
100
AcDbLine
 10
553.2208374534666
 20
336.2092279256388
 30
0.0
 11
553.2208374534666
 21
322.2574157700528
 31
0.0
  0
LINE
  5
2E11
330
18
100
AcDbEntity
  8
0
100
AcDbLine
 10
557.1620793623597
 20
349.7574157700528
 30
0.0
 11
557.1620793623597
 21
319.2574157700528
 31
0.0
  0
LINE
  5
2E12
330
18
100
AcDbEntity
  8
0
100
AcDbLine
 10
561.0458063725936
 20
317.0151449352353
 30
0.0
 11
561.0458063725936
 21
306.4996866048701
 31
0.0
  0
LINE
  5
2E13
330
18
100
AcDbEntity
  8
0
100
AcDbLine
 10
549.9499196279166
 20
317.015144935235
 30
0.0
 11
549.9499196279166
 21
306.4996866048702
 31
0.0
  0
LINE
  5
2E14
330
18
100
AcDbEntity
  8
0
100
AcDbLine
 10
561.0458063725936
 20
306.4996866048702
 30
0.0
 11
557.1620793623597
 21
304.2574157700527
 31
0.0
  0
LINE
  5
2E15
330
18
100
AcDbEntity
  8
0
100
AcDbLine
 10
561.0458063725936
 20
306.4996866048703
 30
0.0
 11
557.1620793623597
 21
304.2574157700528
 31
0.0
  0
LINE
  5
2E16
330
18
100
AcDbEntity
  8
0
100
AcDbLine
 10
551.6620793623596
 20
304.2574157700528
 30
0.0
 11
551.6620793623596
 21
298.2574157700528
 31
0.0
  0
ARC
  5
2E17
330
18
100
AcDbEntity
  8
0
100
AcDbCircle
 10
555.4978630002551
 20
312.2420565198095
 30
0.0
 40
7.98464074975686
100
AcDbArc
 50
225.9865730962943
 51
285.9865730962935
  0
LINE
  5
2E18
330
18
100
AcDbEntity
  8
0
100
AcDbLine
 10
561.0458063725936
 20
317.0151449352353
 30
0.0
 11
557.1620793623597
 21
319.2574157700528
 31
0.0
  0
ARC
  5
2E19
330
18
100
AcDbEntity
  8
0
100
AcDbCircle
 10
555.4566391660655
 20
322.2574157700528
 30
0.0
 40
3.0
100
AcDbArc
 50
270.0000000000001
 51
304.644303961939
  0
ARC
  5
2E1A
330
18
100
AcDbEntity
  8
0
100
AcDbCircle
 10
548.1369399583108
 20
322.2574157700528
 30
0.0
 40
3.0
100
AcDbArc
 50
270.0
 51
0.000000000000191
  0
ARC
  5
2E1B
330
18
100
AcDbEntity
  8
0
100
AcDbCircle
 10
555.4978630002551
 20
311.2727750202959
 30
0.0
 40
7.98464074975686
100
AcDbArc
 50
74.0134269037064
 51
134.0134269037056
  0
ARC
  5
2E1C
330
18
100
AcDbEntity
  8
0
100
AcDbCircle
 10
555.4566391660655
 20
338.7574157700529
 30
0.0
 40
3.0
100
AcDbArc
 50
55.35569603806112
 51
90.00000000000012
  0
ARC
  5
2E1D
330
18
100
AcDbEntity
  8
0
100
AcDbCircle
 10
555.2208374534666
 20
336.2092279256388
 30
0.0
 40
2.0
100
AcDbArc
 50
131.6055451960657
 51
180.0
  0
ARC
  5
2E1E
330
18
100
AcDbEntity
  8
0
100
AcDbCircle
 10
548.1369399583108
 20
332.2574157700529
 30
0.0
 40
3.0
100
AcDbArc
 50
359.9999999999999
 51
90.00000000000014
  0
LINE
  5
2E1F
330
18
100
AcDbEntity
  8
0
100
AcDbLine
 10
553.8928402876972
 20
337.7046955875125
 30
0.0
 11
555.4566391660655
 21
339.0933718733663
 31
0.0
  0
ARC
  5
2E20
330
18
100
AcDbEntity
  8
0
100
AcDbCircle
 10
551.1620793623596
 20
349.7574157700528
 30
0.0
 40
6.0
100
AcDbArc
 50
0.0
 51
90.0
  0
ARC
  5
2E21
330
18
100
AcDbEntity
  8
0
100
AcDbCircle
 10
597.1620793623596
 20
307.1762391863642
 30
0.0
 40
6.0
100
AcDbArc
 50
281.3099324740199
 51
0.0
  0
LINE
  5
2E22
330
18
100
AcDbEntity
  8
0
100
AcDbLine
 10
623.1620793623597
 20
338.2574157700528
 30
0.0
 11
603.1620793623597
 21
338.2574157700528
 31
0.0
  0
LINE
  5
2E23
330
18
100
AcDbEntity
  8
0
100
AcDbLine
 10
603.1620793623597
 20
428.5100862058753
 30
0.0
 11
623.1620793623597
 21
428.5100862058753
 31
0.0
  0
LINE
  5
2E24
330
18
100
AcDbEntity
  8
0
100
AcDbLine
 10
692.2178289514313
 20
349.7574157700528
 30
0.0
 11
692.2178289514313
 21
329.0690784114147
 31
0.0
  0
CIRCLE
  5
2E25
330
18
100
AcDbEntity
  8
0
100
AcDbCircle
 10
690.8624898921043
 20
306.1127548293802
 30
0.0
 40
7.5
  0
LINE
  5
2E26
330
18
100
AcDbEntity
  8
0
100
AcDbLine
 10
701.242968355481
 20
335.2574157700528
 30
0.0
 11
706.3180802092984
 21
335.2574157700528
 31
0.0
  0
LINE
  5
2E27
330
18
100
AcDbEntity
  8
0
100
AcDbLine
 10
693.9232691477264
 20
341.7574157700528
 30
0.0
 11
716.5536125893268
 21
341.7574157700528
 31
0.0
  0
LINE
  5
2E28
330
18
100
AcDbEntity
  8
0
100
AcDbLine
 10
695.4870680260937
 20
337.7046955875125
 30
0.0
 11
693.9232691477264
 21
339.0933718733663
 31
0.0
  0
LINE
  5
2E29
330
18
100
AcDbEntity
  8
0
100
AcDbLine
 10
698.242968355481
 20
332.2574157700528
 30
0.0
 11
698.242968355481
 21
332.1875156774854
 31
0.0
  0
LINE
  5
2E2A
330
18
100
AcDbEntity
  8
0
100
AcDbLine
 10
696.1590708603253
 20
336.2092279256388
 30
0.0
 11
696.1590708603243
 21
331.1951611120188
 31
0.0
  0
ARC
  5
2E2B
330
18
100
AcDbEntity
  8
0
100
AcDbCircle
 10
694.1590708603253
 20
336.2092279256388
 30
0.0
 40
2.0
100
AcDbArc
 50
0.0000000000001018
 51
48.39445480393429
  0
ARC
  5
2E2C
330
18
100
AcDbEntity
  8
0
100
AcDbCircle
 10
701.242968355481
 20
332.2574157700528
 30
0.0
 40
3.0
100
AcDbArc
 50
89.99999999999994
 51
180.0000000000001
  0
ARC
  5
2E2D
330
18
100
AcDbEntity
  8
0
100
AcDbCircle
 10
693.9232691477264
 20
338.7574157700528
 30
0.0
 40
3.0
100
AcDbArc
 50
89.99999999999998
 51
124.6443039619389
  0
ARC
  5
2E2E
330
18
100
AcDbEntity
  8
0
100
AcDbCircle
 10
698.2178289514313
 20
349.7574157700528
 30
0.0
 40
6.0
100
AcDbArc
 50
90.0
 51
180.0
  0
LINE
  5
2E2F
330
18
100
AcDbEntity
  8
0
100
AcDbLine
 10
719.5536125893267
 20
338.7574157700528
 30
0.0
 11
719.5536125893267
 21
337.9276340239714
 31
0.0
  0
LINE
  5
2E30
330
18
100
AcDbEntity
  8
0
100
AcDbLine
 10
717.6885117738366
 20
337.7163640031604
 30
0.0
 11
718.1689972047106
 21
338.7574157700528
 31
0.0
  0
ARC
  5
2E31
330
18
100
AcDbEntity
  8
0
100
AcDbCircle
 10
716.5536125893268
 20
338.7574157700528
 30
0.0
 40
3.0
100
AcDbArc
 50
0.0
 51
89.99999999999998
  0
LINE
  5
2E32
330
18
100
AcDbEntity
  8
0
100
AcDbLine
 10
573.1620793623597
 20
470.5100862058753
 30
0.0
 11
598.3387761731892
 21
465.4747468437094
 31
0.0
  0
LINE
  5
2E33
330
18
100
AcDbEntity
  8
0
100
AcDbLine
 10
573.1620793623597
 20
470.5100862058753
 30
0.0
 11
550.4833605320791
 21
470.5100862058753
 31
0.0
  0
ARC
  5
2E34
330
18
100
AcDbEntity
  8
0
100
AcDbCircle
 10
597.1620793623596
 20
459.5912627895638
 30
0.0
 40
6.0
100
AcDbArc
 50
0.0
 51
78.69006752598005
  0
LINE
  5
2E35
330
18
100
AcDbEntity
  8
0
100
AcDbLine
 10
598.3387761731892
 20
526.5454255680411
 30
0.0
 11
573.1620793623597
 21
521.5100862058752
 31
0.0
  0
LINE
  5
2E36
330
18
100
AcDbEntity
  8
0
100
AcDbLine
 10
573.1620793623597
 20
521.5100862058752
 30
0.0
 11
550.48336053208
 21
521.5100862058752
 31
0.0
  0
ARC
  5
2E37
330
18
100
AcDbEntity
  8
0
100
AcDbCircle
 10
597.1620793623596
 20
532.4289096221864
 30
0.0
 40
6.0
100
AcDbArc
 50
281.3099324740199
 51
0.0
  0
LINE
  5
2E38
330
18
100
AcDbEntity
  8
0
100
AcDbLine
 10
760.2178289514313
 20
349.7574157700528
 30
0.0
 11
760.2178289514313
 21
329.0690784114147
 31
0.0
  0
CIRCLE
  5
2E39
330
18
100
AcDbEntity
  8
0
100
AcDbCircle
 10
761.5731680107582
 20
306.1127548293802
 30
0.0
 40
7.5
  0
LINE
  5
2E3A
330
18
100
AcDbEntity
  8
0
100
AcDbLine
 10
751.1926895473816
 20
335.2574157700529
 30
0.0
 11
746.1175776935633
 21
335.2574157700528
 31
0.0
  0
LINE
  5
2E3B
330
18
100
AcDbEntity
  8
0
100
AcDbLine
 10
758.5123887551372
 20
341.7574157700529
 30
0.0
 11
735.8820453135368
 21
341.7574157700528
 31
0.0
  0
LINE
  5
2E3C
330
18
100
AcDbEntity
  8
0
100
AcDbLine
 10
732.8820453135367
 20
338.7574157700528
 30
0.0
 11
732.8820453135358
 21
337.9276340239714
 31
0.0
  0
LINE
  5
2E3D
330
18
100
AcDbEntity
  8
0
100
AcDbLine
 10
734.747146129026
 20
337.7163640031604
 30
0.0
 11
734.266660698152
 21
338.7574157700528
 31
0.0
  0
ARC
  5
2E3E
330
18
100
AcDbEntity
  8
0
100
AcDbCircle
 10
735.8820453135368
 20
338.7574157700528
 30
0.0
 40
3.0
100
AcDbArc
 50
90.00000000000012
 51
180.0000000000001
  0
LINE
  5
2E3F
330
18
100
AcDbEntity
  8
0
100
AcDbLine
 10
756.9485898767688
 20
337.7046955875125
 30
0.0
 11
758.5123887551372
 21
339.0933718733663
 31
0.0
  0
LINE
  5
2E40
330
18
100
AcDbEntity
  8
0
100
AcDbLine
 10
754.1926895473825
 20
332.2574157700529
 30
0.0
 11
754.1926895473825
 21
332.1875156774849
 31
0.0
  0
LINE
  5
2E41
330
18
100
AcDbEntity
  8
0
100
AcDbLine
 10
756.2765870425383
 20
336.2092279256388
 30
0.0
 11
756.2765870425383
 21
331.1951611120188
 31
0.0
  0
ARC
  5
2E42
330
18
100
AcDbEntity
  8
0
100
AcDbCircle
 10
758.2765870425382
 20
336.2092279256388
 30
0.0
 40
2.0
100
AcDbArc
 50
131.6055451960657
 51
180.0
  0
ARC
  5
2E43
330
18
100
AcDbEntity
  8
0
100
AcDbCircle
 10
751.1926895473825
 20
332.2574157700529
 30
0.0
 40
3.0
100
AcDbArc
 50
359.9999999999999
 51
90.00000000000014
  0
ARC
  5
2E44
330
18
100
AcDbEntity
  8
0
100
AcDbCircle
 10
758.5123887551372
 20
338.7574157700529
 30
0.0
 40
3.0
100
AcDbArc
 50
55.35569603806112
 51
90.00000000000012
  0
ARC
  5
2E45
330
18
100
AcDbEntity
  8
0
100
AcDbCircle
 10
754.2178289514313
 20
349.7574157700528
 30
0.0
 40
6.0
100
AcDbArc
 50
0.0
 51
90.0
  0
LINE
  5
2E46
330
18
100
AcDbEntity
  8
0
100
AcDbLine
 10
623.1620793623597
 20
641.6056988241762
 30
0.0
 11
623.1620793623597
 21
709.1056988241762
 31
0.0
  0
LINE
  5
2E47
330
18
100
AcDbEntity
  8
0
100
AcDbLine
 10
603.1620793623597
 20
776.6056988241762
 30
0.0
 11
603.1620793623597
 21
641.6056988241762
 31
0.0
  0
LINE
  5
2E48
330
18
100
AcDbEntity
  8
0
100
AcDbLine
 10
623.1620793623597
 20
563.5100862058752
 30
0.0
 11
603.1620793623597
 21
563.5100862058752
 31
0.0
  0
LINE
  5
2E49
330
18
100
AcDbEntity
  8
0
100
AcDbLine
 10
573.1620793623597
 20
683.6056988241762
 30
0.0
 11
598.3387761731883
 21
678.5703594620104
 31
0.0
  0
LINE
  5
2E4A
330
18
100
AcDbEntity
  8
0
100
AcDbLine
 10
573.1620793623597
 20
683.6056988241762
 30
0.0
 11
541.1620793623597
 21
683.6056988241762
 31
0.0
  0
LINE
  5
2E4B
330
18
100
AcDbEntity
  8
0
100
AcDbLine
 10
603.1620793623597
 20
641.6056988241762
 30
0.0
 11
623.1620793623597
 21
641.6056988241762
 31
0.0
  0
ARC
  5
2E4C
330
18
100
AcDbEntity
  8
0
100
AcDbCircle
 10
597.1620793623596
 20
672.686875407865
 30
0.0
 40
6.0
100
AcDbArc
 50
0.0
 51
78.69006752598005
  0
ARC
  5
2E4D
330
18
100
AcDbEntity
  8
0
100
AcDbCircle
 10
555.4566391660646
 20
760.6056988241761
 30
0.0
 40
3.0
100
AcDbArc
 50
270.0
 51
304.644303961939
  0
ARC
  5
2E4E
330
18
100
AcDbEntity
  8
0
100
AcDbCircle
 10
548.1369399583099
 20
760.6056988241761
 30
0.0
 40
3.0
100
AcDbArc
 50
269.9999999999999
 51
0.0000000000001018
  0
LINE
  5
2E4F
330
18
100
AcDbEntity
  8
0
100
AcDbLine
 10
561.0458063725936
 20
755.3634279893586
 30
0.0
 11
557.1620793623597
 21
757.6056988241762
 31
0.0
  0
ARC
  5
2E50
330
18
100
AcDbEntity
  8
0
100
AcDbCircle
 10
555.4978630002542
 20
749.6210580744193
 30
0.0
 40
7.98464074975686
100
AcDbArc
 50
74.0134269037064
 51
134.0134269037056
  0
LINE
  5
2E51
330
18
100
AcDbEntity
  8
0
100
AcDbLine
 10
623.1620793623597
 20
709.1056988241762
 30
0.0
 11
623.1620793623597
 21
776.6056988241762
 31
0.0
  0
LINE
  5
2E52
330
18
100
AcDbEntity
  8
0
100
AcDbLine
 10
598.3387761731883
 20
739.641038186342
 30
0.0
 11
573.1620793623597
 21
734.6056988241762
 31
0.0
  0
LINE
  5
2E53
330
18
100
AcDbEntity
  8
0
100
AcDbLine
 10
573.1620793623597
 20
734.6056988241762
 30
0.0
 11
553.6620793623597
 21
734.6056988241762
 31
0.0
  0
ARC
  5
2E54
330
18
100
AcDbEntity
  8
0
100
AcDbCircle
 10
555.4978630002542
 20
750.5903395739328
 30
0.0
 40
7.98464074975686
100
AcDbArc
 50
225.9865730962943
 51
285.9865730962935
  0
LINE
  5
2E55
330
18
100
AcDbEntity
  8
0
100
AcDbLine
 10
551.6620793623596
 20
742.6056988241762
 30
0.0
 11
551.6620793623596
 21
736.6056988241762
 31
0.0
  0
ARC
  5
2E56
330
18
100
AcDbEntity
  8
0
100
AcDbCircle
 10
553.6620793623597
 20
736.6056988241762
 30
0.0
 40
2.0
100
AcDbArc
 50
180.0
 51
270.0
  0
LINE
  5
2E57
330
18
100
AcDbEntity
  8
0
100
AcDbLine
 10
561.0458063725936
 20
744.8479696589936
 30
0.0
 11
557.1620793623597
 21
742.6056988241762
 31
0.0
  0
LINE
  5
2E58
330
18
100
AcDbEntity
  8
0
100
AcDbLine
 10
561.0458063725936
 20
744.8479696589938
 30
0.0
 11
557.1620793623597
 21
742.6056988241762
 31
0.0
  0
LINE
  5
2E59
330
18
100
AcDbEntity
  8
0
100
AcDbLine
 10
549.9499196279157
 20
755.3634279893586
 30
0.0
 11
549.9499196279157
 21
744.8479696589936
 31
0.0
  0
LINE
  5
2E5A
330
18
100
AcDbEntity
  8
0
100
AcDbLine
 10
561.0458063725936
 20
755.3634279893586
 30
0.0
 11
561.0458063725936
 21
744.8479696589934
 31
0.0
  0
ARC
  5
2E5B
330
18
100
AcDbEntity
  8
0
100
AcDbCircle
 10
597.1620793623596
 20
745.5245222404876
 30
0.0
 40
6.0
100
AcDbArc
 50
281.3099324740199
 51
0.0
  0
ARC
  5
2E5C
330
18
100
AcDbEntity
  8
0
100
AcDbCircle
 10
551.1620793623596
 20
788.1056988241762
 30
0.0
 40
6.0
100
AcDbArc
 50
0.0
 51
90.0
  0
LINE
  5
2E5D
330
18
100
AcDbEntity
  8
0
100
AcDbLine
 10
551.13693995831
 20
770.6056988241762
 30
0.0
 11
551.13693995831
 21
760.6056988241761
 31
0.0
  0
LINE
  5
2E5E
330
18
100
AcDbEntity
  8
0
100
AcDbLine
 10
553.2208374534657
 20
774.5575109797623
 30
0.0
 11
553.2208374534657
 21
760.6056988241761
 31
0.0
  0
ARC
  5
2E5F
330
18
100
AcDbEntity
  8
0
100
AcDbCircle
 10
555.4566391660646
 20
777.1056988241761
 30
0.0
 40
3.0
100
AcDbArc
 50
55.35569603806103
 51
90.00000000000003
  0
ARC
  5
2E60
330
18
100
AcDbEntity
  8
0
100
AcDbCircle
 10
555.2208374534656
 20
774.5575109797623
 30
0.0
 40
2.0
100
AcDbArc
 50
131.6055451960656
 51
179.9999999999998
  0
ARC
  5
2E61
330
18
100
AcDbEntity
  8
0
100
AcDbCircle
 10
548.1369399583099
 20
770.6056988241762
 30
0.0
 40
3.0
100
AcDbArc
 50
359.9999999999998
 51
90.00000000000005
  0
LINE
  5
2E62
330
18
100
AcDbEntity
  8
0
100
AcDbLine
 10
553.8928402876972
 20
776.0529786416359
 30
0.0
 11
555.4566391660646
 21
777.4416549274897
 31
0.0
  0
LINE
  5
2E63
330
18
100
AcDbEntity
  8
0
100
AcDbLine
 10
557.1620793623597
 20
788.1056988241762
 30
0.0
 11
557.1620793623597
 21
757.6056988241762
 31
0.0
  0
LINE
  5
2E64
330
18
100
AcDbEntity
  8
0
100
AcDbLine
 10
623.1620793623597
 20
776.6056988241762
 30
0.0
 11
603.1620793623597
 21
776.6056988241762
 31
0.0
  0
LINE
  5
2E65
330
18
100
AcDbEntity
  8
0
100
AcDbLine
 10
1155.105485732523
 20
566.0100862058753
 30
0.0
 11
1155.105485732523
 21
426.0100862058752
 31
0.0
  0
LINE
  5
2E66
330
18
100
AcDbEntity
  8
0
100
AcDbLine
 10
1135.105485732523
 20
496.0100862058753
 30
0.0
 11
1135.105485732523
 21
566.0100862058753
 31
0.0
  0
CIRCLE
  5
2E67
330
18
100
AcDbEntity
  8
0
100
AcDbCircle
 10
945.5852981896832
 20
307.8805217823465
 30
0.0
 40
7.5
  0
LINE
  5
2E68
330
18
100
AcDbEntity
  8
0
100
AcDbLine
 10
1010.708404201976
 20
359.7574157700528
 30
0.0
 11
954.7084042019768
 21
359.7574157700528
 31
0.0
  0
LINE
  5
2E69
330
18
100
AcDbEntity
  8
0
100
AcDbLine
 10
1015.002964005682
 20
345.7574157700528
 30
0.0
 11
992.3726205640823
 21
345.7574157700528
 31
0.0
  0
LINE
  5
2E6A
330
18
100
AcDbEntity
  8
0
100
AcDbLine
 10
950.4138443982711
 20
345.7574157700529
 30
0.0
 11
973.0441878398714
 21
345.7574157700528
 31
0.0
  0
LINE
  5
2E6B
330
18
100
AcDbEntity
  8
0
100
AcDbLine
 10
948.708404201977
 20
353.7574157700528
 30
0.0
 11
948.708404201977
 21
331.9456499331662
 31
0.0
  0
LINE
  5
2E6C
330
18
100
AcDbEntity
  8
0
100
AcDbLine
 10
952.6496461108708
 20
340.2092279256388
 30
0.0
 11
952.6496461108708
 21
333.9750641130622
 31
0.0
  0
ARC
  5
2E6D
330
18
100
AcDbEntity
  8
0
100
AcDbCircle
 10
957.7335436060266
 20
336.2574157700529
 30
0.0
 40
3.0
100
AcDbArc
 50
89.99999999999987
 51
180.0
  0
LINE
  5
2E6E
330
18
100
AcDbEntity
  8
0
100
AcDbLine
 10
954.7335436060265
 20
336.2574157700529
 30
0.0
 11
954.7335436060265
 21
334.9244413722822
 31
0.0
  0
LINE
  5
2E6F
330
18
100
AcDbEntity
  8
0
100
AcDbLine
 10
957.7335436060266
 20
339.2574157700529
 30
0.0
 11
968.2948688965771
 21
339.2574157700528
 31
0.0
  0
LINE
  5
2E70
330
18
100
AcDbEntity
  8
0
100
AcDbLine
 10
951.9776432766393
 20
341.7046955875125
 30
0.0
 11
950.4138443982711
 21
343.0933718733663
 31
0.0
  0
ARC
  5
2E71
330
18
100
AcDbEntity
  8
0
100
AcDbCircle
 10
950.6496461108708
 20
340.2092279256388
 30
0.0
 40
2.0
100
AcDbArc
 50
0.000000000000007
 51
48.39445480393422
  0
ARC
  5
2E72
330
18
100
AcDbEntity
  8
0
100
AcDbCircle
 10
950.4138443982711
 20
342.7574157700529
 30
0.0
 40
3.0
100
AcDbArc
 50
89.99999999999991
 51
124.6443039619388
  0
ARC
  5
2E73
330
18
100
AcDbEntity
  8
0
100
AcDbCircle
 10
954.7084042019768
 20
353.7574157700528
 30
0.0
 40
6.0
100
AcDbArc
 50
90.0
 51
180.0
  0
LINE
  5
2E74
330
18
100
AcDbEntity
  8
0
100
AcDbLine
 10
973.4528364283741
 20
340.1428210451411
 30
0.0
 11
974.6595724552562
 21
342.7574157700528
 31
0.0
  0
LINE
  5
2E75
330
18
100
AcDbEntity
  8
0
100
AcDbLine
 10
976.0441878398715
 20
342.7574157700528
 30
0.0
 11
976.0441878398715
 21
340.4394666890595
 31
0.0
  0
LINE
  5
2E76
330
18
100
AcDbEntity
  8
0
100
AcDbLine
 10
989.3726205640824
 20
342.7574157700528
 30
0.0
 11
989.3726205640824
 21
340.4394666890595
 31
0.0
  0
LINE
  5
2E77
330
18
100
AcDbEntity
  8
0
100
AcDbLine
 10
991.9639719755805
 20
340.1428210451409
 30
0.0
 11
990.7572359486975
 21
342.7574157700528
 31
0.0
  0
ARC
  5
2E78
330
18
100
AcDbEntity
  8
0
100
AcDbCircle
 10
973.0441878398714
 20
342.7574157700528
 30
0.0
 40
3.0
100
AcDbArc
 50
359.9999999999998
 51
89.99999999999991
  0
ARC
  5
2E79
330
18
100
AcDbEntity
  8
0
100
AcDbCircle
 10
992.3726205640823
 20
342.7574157700528
 30
0.0
 40
3.0
100
AcDbArc
 50
90.00000000000003
 51
180.0
  0
CIRCLE
  5
2E7A
330
18
100
AcDbEntity
  8
0
100
AcDbCircle
 10
1019.83151021427
 20
307.8805217823465
 30
0.0
 40
7.5
  0
ARC
  5
2E7B
330
18
100
AcDbEntity
  8
0
100
AcDbCircle
 10
1015.002964005682
 20
342.7574157700528
 30
0.0
 40
3.0
100
AcDbArc
 50
55.35569603806104
 51
90.00000000000003
  0
ARC
  5
2E7C
330
18
100
AcDbEntity
  8
0
100
AcDbCircle
 10
1010.708404201976
 20
353.7574157700528
 30
0.0
 40
6.0
100
AcDbArc
 50
0.000000000000007
 51
90.0
  0
LINE
  5
2E7D
330
18
100
AcDbEntity
  8
0
100
AcDbLine
 10
1012.767162293083
 20
340.2092279256388
 30
0.0
 11
1012.767162293083
 21
333.9750641130617
 31
0.0
  0
ARC
  5
2E7E
330
18
100
AcDbEntity
  8
0
100
AcDbCircle
 10
1007.683264797927
 20
336.2574157700528
 30
0.0
 40
3.0
100
AcDbArc
 50
359.9999999999998
 51
90.00000000000005
  0
LINE
  5
2E7F
330
18
100
AcDbEntity
  8
0
100
AcDbLine
 10
1010.683264797927
 20
336.2574157700528
 30
0.0
 11
1010.683264797928
 21
334.9244413722817
 31
0.0
  0
LINE
  5
2E80
330
18
100
AcDbEntity
  8
0
100
AcDbLine
 10
1007.683264797927
 20
339.2574157700528
 30
0.0
 11
997.1219395073767
 21
339.2574157700528
 31
0.0
  0
LINE
  5
2E81
330
18
100
AcDbEntity
  8
0
100
AcDbLine
 10
1013.439165127314
 20
341.7046955875125
 30
0.0
 11
1015.002964005682
 21
343.0933718733663
 31
0.0
  0
ARC
  5
2E82
330
18
100
AcDbEntity
  8
0
100
AcDbCircle
 10
1014.767162293083
 20
340.2092279256388
 30
0.0
 40
2.0
100
AcDbArc
 50
131.6055451960656
 51
179.9999999999998
  0
LINE
  5
2E83
330
18
100
AcDbEntity
  8
0
100
AcDbLine
 10
1016.708404201976
 20
353.7574157700528
 30
0.0
 11
1016.708404201976
 21
331.9456499331662
 31
0.0
  0
LINE
  5
2E84
330
18
100
AcDbEntity
  8
0
100
AcDbLine
 10
1135.105485732523
 20
426.0100862058752
 30
0.0
 11
1135.105485732523
 21
496.0100862058753
 31
0.0
  0
LINE
  5
2E85
330
18
100
AcDbEntity
  8
0
100
AcDbLine
 10
1155.105485732523
 20
304.7574157700528
 30
0.0
 11
1183.105485732523
 21
298.7574157700528
 31
0.0
  0
LINE
  5
2E86
330
18
100
AcDbEntity
  8
0
100
AcDbLine
 10
1135.105485732523
 20
340.7574157700528
 30
0.0
 11
1155.105485732523
 21
340.7574157700528
 31
0.0
  0
LINE
  5
2E87
330
18
100
AcDbEntity
  8
0
100
AcDbLine
 10
1155.105485732523
 20
426.0100862058752
 30
0.0
 11
1135.105485732523
 21
426.0100862058752
 31
0.0
  0
LINE
  5
2E88
330
18
100
AcDbEntity
  8
0
100
AcDbLine
 10
1207.105485732523
 20
359.7574157700528
 30
0.0
 11
1263.105485732523
 21
359.7574157700528
 31
0.0
  0
ARC
  5
2E89
330
18
100
AcDbEntity
  8
0
100
AcDbCircle
 10
1221.711565599745
 20
282.1328397027463
 30
0.0
 40
41.12457606730651
100
AcDbArc
 50
70.992532412469
 51
109.0074675875309
  0
LINE
  5
2E8A
330
18
100
AcDbEntity
  8
0
100
AcDbLine
 10
1208.317645466967
 20
323.2574157700528
 30
0.0
 11
1235.105485732523
 21
323.2574157700528
 31
0.0
  0
ARC
  5
2E8B
330
18
100
AcDbEntity
  8
0
100
AcDbCircle
 10
1221.711565599745
 20
349.3819918373592
 30
0.0
 40
41.12457606730651
100
AcDbArc
 50
250.992532412469
 51
289.0074675875309
  0
LINE
  5
2E8C
330
18
100
AcDbEntity
  8
0
100
AcDbLine
 10
1201.105485732523
 20
308.2574157700528
 30
0.0
 11
1269.105485732523
 21
308.2574157700528
 31
0.0
  0
LINE
  5
2E8D
330
18
100
AcDbEntity
  8
0
100
AcDbLine
 10
1201.105485732523
 20
323.2574157700528
 30
0.0
 11
1269.105485732523
 21
323.2574157700528
 31
0.0
  0
LINE
  5
2E8E
330
18
100
AcDbEntity
  8
0
100
AcDbLine
 10
1205.046727641416
 20
340.2092279256388
 30
0.0
 11
1205.046727641417
 21
326.2574157700528
 31
0.0
  0
LINE
  5
2E8F
330
18
100
AcDbEntity
  8
0
100
AcDbLine
 10
1207.130625136573
 20
336.2574157700528
 30
0.0
 11
1207.130625136573
 21
326.2574157700528
 31
0.0
  0
LINE
  5
2E90
330
18
100
AcDbEntity
  8
0
100
AcDbLine
 10
1228.441269370418
 20
342.7574157700528
 30
0.0
 11
1228.441269370418
 21
326.2574157700528
 31
0.0
  0
LINE
  5
2E91
330
18
100
AcDbEntity
  8
0
100
AcDbLine
 10
1225.441269370418
 20
336.2574157700528
 30
0.0
 11
1225.441269370418
 21
326.2574157700528
 31
0.0
  0
LINE
  5
2E92
330
18
100
AcDbEntity
  8
0
100
AcDbLine
 10
1201.105485732523
 20
353.7574157700528
 30
0.0
 11
1201.105485732523
 21
323.2574157700528
 31
0.0
  0
ARC
  5
2E93
330
18
100
AcDbEntity
  8
0
100
AcDbCircle
 10
1202.769702094629
 20
316.2420565198095
 30
0.0
 40
7.98464074975686
100
AcDbArc
 50
254.0134269037064
 51
314.0134269037055
  0
ARC
  5
2E94
330
18
100
AcDbEntity
  8
0
100
AcDbCircle
 10
1202.769702094629
 20
315.2727750202959
 30
0.0
 40
7.98464074975686
100
AcDbArc
 50
45.9865730962944
 51
105.9865730962936
  0
LINE
  5
2E95
330
18
100
AcDbEntity
  8
0
100
AcDbLine
 10
1197.221758722289
 20
321.0151449352352
 30
0.0
 11
1197.221758722289
 21
310.4996866048701
 31
0.0
  0
ARC
  5
2E96
330
18
100
AcDbEntity
  8
0
100
AcDbCircle
 10
1202.810925928817
 20
326.2574157700528
 30
0.0
 40
3.0
100
AcDbArc
 50
235.355696038061
 51
270.0
  0
LINE
  5
2E97
330
18
100
AcDbEntity
  8
0
100
AcDbLine
 10
1197.221758722289
 20
321.0151449352352
 30
0.0
 11
1201.105485732523
 21
323.2574157700528
 31
0.0
  0
LINE
  5
2E98
330
18
100
AcDbEntity
  8
0
100
AcDbLine
 10
1197.221758722289
 20
310.4996866048703
 30
0.0
 11
1201.105485732523
 21
308.2574157700528
 31
0.0
  0
LINE
  5
2E99
330
18
100
AcDbEntity
  8
0
100
AcDbLine
 10
1197.221758722289
 20
310.4996866048702
 30
0.0
 11
1201.105485732523
 21
308.2574157700527
 31
0.0
  0
LINE
  5
2E9A
330
18
100
AcDbEntity
  8
0
100
AcDbLine
 10
1183.105485732523
 20
298.7574157700528
 30
0.0
 11
1202.605485732523
 21
298.7574157700528
 31
0.0
  0
LINE
  5
2E9B
330
18
100
AcDbEntity
  8
0
100
AcDbLine
 10
1208.317645466967
 20
321.0151449352352
 30
0.0
 11
1208.317645466967
 21
310.4996866048702
 31
0.0
  0
LINE
  5
2E9C
330
18
100
AcDbEntity
  8
0
100
AcDbLine
 10
1206.605485732523
 20
308.2574157700528
 30
0.0
 11
1206.605485732523
 21
302.7574157700528
 31
0.0
  0
ARC
  5
2E9D
330
18
100
AcDbEntity
  8
0
100
AcDbCircle
 10
1210.130625136573
 20
326.2574157700528
 30
0.0
 40
3.0
100
AcDbArc
 50
179.9999999999998
 51
270.0
  0
ARC
  5
2E9E
330
18
100
AcDbEntity
  8
0
100
AcDbCircle
 10
1225.441269370418
 20
326.2574157700528
 30
0.0
 40
3.0
100
AcDbArc
 50
270.0
 51
0.0
  0
ARC
  5
2E9F
330
18
100
AcDbEntity
  8
0
100
AcDbCircle
 10
1222.441269370418
 20
326.2574157700528
 30
0.0
 40
3.0
100
AcDbArc
 50
270.0
 51
0.0
  0
LINE
  5
2EA0
330
18
100
AcDbEntity
  8
0
100
AcDbLine
 10
1202.810925928817
 20
345.7574157700528
 30
0.0
 11
1225.441269370418
 21
345.7574157700528
 31
0.0
  0
ARC
  5
2EA1
330
18
100
AcDbEntity
  8
0
100
AcDbCircle
 10
1207.105485732523
 20
353.7574157700528
 30
0.0
 40
6.0
100
AcDbArc
 50
90.0
 51
180.0
  0
ARC
  5
2EA2
330
18
100
AcDbEntity
  8
0
100
AcDbCircle
 10
1202.810925928817
 20
342.7574157700528
 30
0.0
 40
3.0
100
AcDbArc
 50
89.99999999999998
 51
124.6443039619389
  0
ARC
  5
2EA3
330
18
100
AcDbEntity
  8
0
100
AcDbCircle
 10
1203.046727641416
 20
340.2092279256388
 30
0.0
 40
2.0
100
AcDbArc
 50
0.0000000000001018
 51
48.39445480393429
  0
LINE
  5
2EA4
330
18
100
AcDbEntity
  8
0
100
AcDbLine
 10
1204.374724807186
 20
341.7046955875125
 30
0.0
 11
1202.810925928817
 21
343.0933718733663
 31
0.0
  0
LINE
  5
2EA5
330
18
100
AcDbEntity
  8
0
100
AcDbLine
 10
1210.130625136573
 20
339.2574157700528
 30
0.0
 11
1222.441269370418
 21
339.2574157700528
 31
0.0
  0
ARC
  5
2EA6
330
18
100
AcDbEntity
  8
0
100
AcDbCircle
 10
1210.130625136573
 20
336.2574157700528
 30
0.0
 40
3.0
100
AcDbArc
 50
89.99999999999994
 51
180.0000000000001
  0
ARC
  5
2EA7
330
18
100
AcDbEntity
  8
0
100
AcDbCircle
 10
1225.441269370418
 20
342.7574157700528
 30
0.0
 40
3.0
100
AcDbArc
 50
0.0
 51
89.99999999999998
  0
ARC
  5
2EA8
330
18
100
AcDbEntity
  8
0
100
AcDbCircle
 10
1222.441269370418
 20
336.2574157700528
 30
0.0
 40
3.0
100
AcDbArc
 50
0.0
 51
89.99999999999994
  0
LINE
  5
2EA9
330
18
100
AcDbEntity
  8
0
100
AcDbLine
 10
1225.441269370418
 20
339.2574157700528
 30
0.0
 11
1227.056653985802
 21
342.7574157700528
 31
0.0
  0
LINE
  5
2EAA
330
18
100
AcDbEntity
  8
0
100
AcDbLine
 10
1265.164243823629
 20
340.2092279256388
 30
0.0
 11
1265.164243823629
 21
326.2574157700528
 31
0.0
  0
LINE
  5
2EAB
330
18
100
AcDbEntity
  8
0
100
AcDbLine
 10
1263.080346328473
 20
336.2574157700529
 30
0.0
 11
1263.080346328473
 21
326.2574157700528
 31
0.0
  0
LINE
  5
2EAC
330
18
100
AcDbEntity
  8
0
100
AcDbLine
 10
1269.105485732523
 20
353.7574157700528
 30
0.0
 11
1269.105485732523
 21
323.2574157700528
 31
0.0
  0
LINE
  5
2EAD
330
18
100
AcDbEntity
  8
0
100
AcDbLine
 10
1241.769702094629
 20
342.7574157700528
 30
0.0
 11
1241.769702094629
 21
326.2574157700528
 31
0.0
  0
LINE
  5
2EAE
330
18
100
AcDbEntity
  8
0
100
AcDbLine
 10
1244.769702094628
 20
336.2574157700528
 30
0.0
 11
1244.769702094629
 21
326.2574157700528
 31
0.0
  0
ARC
  5
2EAF
330
18
100
AcDbEntity
  8
0
100
AcDbCircle
 10
1248.499405865302
 20
282.1328397027463
 30
0.0
 40
41.12457606730651
100
AcDbArc
 50
70.99253241246902
 51
109.0074675875309
  0
ARC
  5
2EB0
330
18
100
AcDbEntity
  8
0
100
AcDbCircle
 10
1248.499405865302
 20
349.3819918373592
 30
0.0
 40
41.12457606730651
100
AcDbArc
 50
250.992532412469
 51
289.0074675875309
  0
LINE
  5
2EB1
330
18
100
AcDbEntity
  8
0
100
AcDbLine
 10
1235.105485732523
 20
321.0151449352352
 30
0.0
 11
1235.105485732523
 21
310.4996866048703
 31
0.0
  0
ARC
  5
2EB2
330
18
100
AcDbEntity
  8
0
100
AcDbCircle
 10
1247.769702094628
 20
326.2574157700528
 30
0.0
 40
3.0
100
AcDbArc
 50
180.0000000000001
 51
270.0
  0
ARC
  5
2EB3
330
18
100
AcDbEntity
  8
0
100
AcDbCircle
 10
1244.769702094629
 20
326.2574157700528
 30
0.0
 40
3.0
100
AcDbArc
 50
180.0000000000001
 51
270.0000000000001
  0
ARC
  5
2EB4
330
18
100
AcDbEntity
  8
0
100
AcDbCircle
 10
1267.441269370419
 20
316.2420565198095
 30
0.0
 40
7.98464074975686
100
AcDbArc
 50
225.9865730962943
 51
285.9865730962935
  0
LINE
  5
2EB5
330
18
100
AcDbEntity
  8
0
100
AcDbLine
 10
1261.893325998079
 20
321.015144935235
 30
0.0
 11
1261.893325998079
 21
310.4996866048702
 31
0.0
  0
LINE
  5
2EB6
330
18
100
AcDbEntity
  8
0
100
AcDbLine
 10
1272.989212742757
 20
321.0151449352352
 30
0.0
 11
1272.989212742757
 21
310.4996866048701
 31
0.0
  0
LINE
  5
2EB7
330
18
100
AcDbEntity
  8
0
100
AcDbLine
 10
1272.989212742757
 20
321.0151449352352
 30
0.0
 11
1269.105485732523
 21
323.2574157700528
 31
0.0
  0
ARC
  5
2EB8
330
18
100
AcDbEntity
  8
0
100
AcDbCircle
 10
1267.400045536229
 20
326.2574157700528
 30
0.0
 40
3.0
100
AcDbArc
 50
270.0000000000001
 51
304.644303961939
  0
LINE
  5
2EB9
330
18
100
AcDbEntity
  8
0
100
AcDbLine
 10
1263.605485732523
 20
308.2574157700528
 30
0.0
 11
1263.605485732523
 21
302.7574157700528
 31
0.0
  0
LINE
  5
2EBA
330
18
100
AcDbEntity
  8
0
100
AcDbLine
 10
1272.989212742757
 20
310.4996866048703
 30
0.0
 11
1269.105485732523
 21
308.2574157700528
 31
0.0
  0
LINE
  5
2EBB
330
18
100
AcDbEntity
  8
0
100
AcDbLine
 10
1272.989212742757
 20
310.4996866048702
 30
0.0
 11
1269.105485732523
 21
308.2574157700527
 31
0.0
  0
ARC
  5
2EBC
330
18
100
AcDbEntity
  8
0
100
AcDbCircle
 10
1260.080346328473
 20
326.2574157700528
 30
0.0
 40
3.0
100
AcDbArc
 50
270.0
 51
0.000000000000191
  0
ARC
  5
2EBD
330
18
100
AcDbEntity
  8
0
100
AcDbCircle
 10
1267.441269370419
 20
315.2727750202959
 30
0.0
 40
7.98464074975686
100
AcDbArc
 50
74.0134269037064
 51
134.0134269037056
  0
LINE
  5
2EBE
330
18
100
AcDbEntity
  8
0
100
AcDbLine
 10
1267.400045536229
 20
345.7574157700529
 30
0.0
 11
1244.769702094629
 21
345.7574157700528
 31
0.0
  0
LINE
  5
2EBF
330
18
100
AcDbEntity
  8
0
100
AcDbLine
 10
1260.080346328473
 20
339.2574157700529
 30
0.0
 11
1247.769702094628
 21
339.2574157700528
 31
0.0
  0
ARC
  5
2EC0
330
18
100
AcDbEntity
  8
0
100
AcDbCircle
 10
1247.769702094628
 20
336.2574157700528
 30
0.0
 40
3.0
100
AcDbArc
 50
90.00000000000014
 51
180.0000000000001
  0
ARC
  5
2EC1
330
18
100
AcDbEntity
  8
0
100
AcDbCircle
 10
1244.769702094629
 20
342.7574157700528
 30
0.0
 40
3.0
100
AcDbArc
 50
90.00000000000012
 51
180.0000000000001
  0
LINE
  5
2EC2
330
18
100
AcDbEntity
  8
0
100
AcDbLine
 10
1244.769702094628
 20
339.2574157700528
 30
0.0
 11
1243.154317479244
 21
342.7574157700528
 31
0.0
  0
ARC
  5
2EC3
330
18
100
AcDbEntity
  8
0
100
AcDbCircle
 10
1260.080346328473
 20
336.2574157700529
 30
0.0
 40
3.0
100
AcDbArc
 50
359.9999999999999
 51
90.00000000000014
  0
ARC
  5
2EC4
330
18
100
AcDbEntity
  8
0
100
AcDbCircle
 10
1267.400045536229
 20
342.7574157700529
 30
0.0
 40
3.0
100
AcDbArc
 50
55.35569603806112
 51
90.00000000000012
  0
ARC
  5
2EC5
330
18
100
AcDbEntity
  8
0
100
AcDbCircle
 10
1267.164243823629
 20
340.2092279256388
 30
0.0
 40
2.0
100
AcDbArc
 50
131.6055451960657
 51
180.0
  0
LINE
  5
2EC6
330
18
100
AcDbEntity
  8
0
100
AcDbLine
 10
1265.836246657861
 20
341.7046955875125
 30
0.0
 11
1267.400045536229
 21
343.0933718733663
 31
0.0
  0
ARC
  5
2EC7
330
18
100
AcDbEntity
  8
0
100
AcDbCircle
 10
1263.105485732523
 20
353.7574157700528
 30
0.0
 40
6.0
100
AcDbArc
 50
0.0
 51
90.0
  0
LINE
  5
2EC8
330
18
100
AcDbEntity
  8
0
100
AcDbLine
 10
1155.105485732523
 20
530.0100862058752
 30
0.0
 11
1183.105485732523
 21
524.0100862058752
 31
0.0
  0
LINE
  5
2EC9
330
18
100
AcDbEntity
  8
0
100
AcDbLine
 10
1183.105485732523
 20
468.0100862058752
 30
0.0
 11
1155.105485732523
 21
462.0100862058753
 31
0.0
  0
CIRCLE
  5
2ECA
330
18
100
AcDbEntity
  8
0
100
AcDbCircle
 10
1235.105485732523
 20
496.0100862058753
 30
0.0
 40
20.24999999999999
  0
CIRCLE
  5
2ECB
330
18
100
AcDbEntity
  8
0
100
AcDbCircle
 10
1235.105485732523
 20
496.0100862058753
 30
0.0
 40
22.25
  0
CIRCLE
  5
2ECC
330
18
100
AcDbEntity
  8
0
100
AcDbCircle
 10
1235.105485732523
 20
496.0100862058753
 30
0.0
 40
34.0
  0
POLYLINE
  5
2ECD
330
18
100
AcDbEntity
  8
0
100
AcDb2dPolyline
 66
     1
 10
0.0
 20
0.0
 30
0.0
 70
     1
  0
VERTEX
  5
3572
330
2ECD
100
AcDbEntity
  8
0
100
AcDbVertex
100
AcDb2dVertex
 10
1208.317645466967
 20
469.222245940319
 30
0.0
  0
VERTEX
  5
3573
330
2ECD
100
AcDbEntity
  8
0
100
AcDbVertex
100
AcDb2dVertex
 10
1235.105485732523
 20
458.1263591956415
 30
0.0
  0
VERTEX
  5
3574
330
2ECD
100
AcDbEntity
  8
0
100
AcDbVertex
100
AcDb2dVertex
 10
1261.893325998079
 20
469.222245940319
 30
0.0
  0
VERTEX
  5
3575
330
2ECD
100
AcDbEntity
  8
0
100
AcDbVertex
100
AcDb2dVertex
 10
1272.989212742757
 20
496.0100862058753
 30
0.0
  0
VERTEX
  5
3576
330
2ECD
100
AcDbEntity
  8
0
100
AcDbVertex
100
AcDb2dVertex
 10
1261.893325998079
 20
522.7979264714315
 30
0.0
  0
VERTEX
  5
3577
330
2ECD
100
AcDbEntity
  8
0
100
AcDbVertex
100
AcDb2dVertex
 10
1235.105485732523
 20
533.893813216109
 30
0.0
  0
VERTEX
  5
3578
330
2ECD
100
AcDbEntity
  8
0
100
AcDbVertex
100
AcDb2dVertex
 10
1208.317645466967
 20
522.7979264714315
 30
0.0
  0
VERTEX
  5
3579
330
2ECD
100
AcDbEntity
  8
0
100
AcDbVertex
100
AcDb2dVertex
 10
1197.221758722289
 20
496.0100862058753
 30
0.0
  0
SEQEND
  5
357A
330
2ECD
100
AcDbEntity
  8
0
  0
LINE
  5
2ECE
330
18
100
AcDbEntity
  8
0
100
AcDbLine
 10
1183.105485732523
 20
468.0100862058752
 30
0.0
 11
1211.244057937623
 21
468.0100862058752
 31
0.0
  0
LINE
  5
2ECF
330
18
100
AcDbEntity
  8
0
100
AcDbLine
 10
1183.105485732523
 20
524.0100862058752
 30
0.0
 11
1211.244057937623
 21
524.0100862058752
 31
0.0
  0
LINE
  5
2ED0
330
18
100
AcDbEntity
  8
0
100
AcDbLine
 10
1135.105485732523
 20
639.1056988241762
 30
0.0
 11
1135.105485732523
 21
709.1056988241762
 31
0.0
  0
LINE
  5
2ED1
330
18
100
AcDbEntity
  8
0
100
AcDbLine
 10
1155.105485732523
 20
779.1056988241762
 30
0.0
 11
1155.105485732523
 21
639.1056988241762
 31
0.0
  0
LINE
  5
2ED2
330
18
100
AcDbEntity
  8
0
100
AcDbLine
 10
1183.105485732523
 20
681.1056988241761
 30
0.0
 11
1155.105485732523
 21
675.1056988241762
 31
0.0
  0
LINE
  5
2ED3
330
18
100
AcDbEntity
  8
0
100
AcDbLine
 10
1135.105485732523
 20
566.0100862058753
 30
0.0
 11
1155.105485732523
 21
566.0100862058753
 31
0.0
  0
LINE
  5
2ED4
330
18
100
AcDbEntity
  8
0
100
AcDbLine
 10
1155.105485732523
 20
639.1056988241762
 30
0.0
 11
1135.105485732523
 21
639.1056988241762
 31
0.0
  0
ARC
  5
2ED5
330
18
100
AcDbEntity
  8
0
100
AcDbCircle
 10
1229.105485732523
 20
663.2063524236011
 30
0.0
 40
25.0
100
AcDbArc
 50
59.99999999999994
 51
120.0
  0
ARC
  5
2ED6
330
18
100
AcDbEntity
  8
0
100
AcDbCircle
 10
1202.605485732523
 20
709.1056988241762
 30
0.0
 40
28.0
100
AcDbArc
 50
270.0
 51
300.0000000000008
  0
LINE
  5
2ED7
330
18
100
AcDbEntity
  8
0
100
AcDbLine
 10
1202.605485732523
 20
681.1056988241761
 30
0.0
 11
1183.105485732523
 21
681.1056988241761
 31
0.0
  0
ARC
  5
2ED8
330
18
100
AcDbEntity
  8
0
100
AcDbCircle
 10
1255.605485732523
 20
709.1056988241762
 30
0.0
 40
28.0
100
AcDbArc
 50
239.9999999999999
 51
270.0
  0
LINE
  5
2ED9
330
18
100
AcDbEntity
  8
0
100
AcDbLine
 10
1155.105485732523
 20
743.1056988241762
 30
0.0
 11
1183.105485732523
 21
737.1056988241762
 31
0.0
  0
LINE
  5
2EDA
330
18
100
AcDbEntity
  8
0
100
AcDbLine
 10
1135.105485732523
 20
709.1056988241762
 30
0.0
 11
1135.105485732523
 21
779.1056988241762
 31
0.0
  0
LINE
  5
2EDB
330
18
100
AcDbEntity
  8
0
100
AcDbLine
 10
1135.105485732523
 20
779.1056988241762
 30
0.0
 11
1155.105485732523
 21
779.1056988241762
 31
0.0
  0
LINE
  5
2EDC
330
18
100
AcDbEntity
  8
0
100
AcDbLine
 10
1208.317645466967
 20
759.3634279893585
 30
0.0
 11
1208.317645466967
 21
748.8479696589936
 31
0.0
  0
LINE
  5
2EDD
330
18
100
AcDbEntity
  8
0
100
AcDbLine
 10
1197.221758722289
 20
759.3634279893585
 30
0.0
 11
1197.221758722289
 21
748.8479696589934
 31
0.0
  0
LINE
  5
2EDE
330
18
100
AcDbEntity
  8
0
100
AcDbLine
 10
1235.105485732523
 20
759.3634279893585
 30
0.0
 11
1235.105485732523
 21
748.8479696589938
 31
0.0
  0
LINE
  5
2EDF
330
18
100
AcDbEntity
  8
0
100
AcDbLine
 10
1261.893325998079
 20
759.3634279893585
 30
0.0
 11
1261.893325998079
 21
748.8479696589936
 31
0.0
  0
LINE
  5
2EE0
330
18
100
AcDbEntity
  8
0
100
AcDbLine
 10
1272.989212742757
 20
759.3634279893585
 30
0.0
 11
1272.989212742757
 21
748.8479696589934
 31
0.0
  0
ARC
  5
2EE1
330
18
100
AcDbEntity
  8
0
100
AcDbCircle
 10
1221.711565599745
 20
787.7302748914826
 30
0.0
 40
41.12457606730651
100
AcDbArc
 50
250.992532412469
 51
289.0074675875309
  0
LINE
  5
2EE2
330
18
100
AcDbEntity
  8
0
100
AcDbLine
 10
1269.105485732523
 20
746.6056988241762
 30
0.0
 11
1201.105485732523
 21
746.6056988241762
 31
0.0
  0
ARC
  5
2EE3
330
18
100
AcDbEntity
  8
0
100
AcDbCircle
 10
1235.105485732523
 20
810.7798745198499
 30
0.0
 40
78.3391961448868
100
AcDbArc
 50
250.554683151629
 51
289.4453168483716
  0
ARC
  5
2EE4
330
18
100
AcDbEntity
  8
0
100
AcDbCircle
 10
1202.605485732523
 20
741.1056988241762
 30
0.0
 40
4.0
100
AcDbArc
 50
270.0
 51
0.0
  0
ARC
  5
2EE5
330
18
100
AcDbEntity
  8
0
100
AcDbCircle
 10
1202.769702094627
 20
754.5903395739328
 30
0.0
 40
7.98464074975686
100
AcDbArc
 50
254.0134269037064
 51
314.0134269037056
  0
LINE
  5
2EE6
330
18
100
AcDbEntity
  8
0
100
AcDbLine
 10
1197.221758722289
 20
748.8479696589938
 30
0.0
 11
1201.105485732523
 21
746.6056988241762
 31
0.0
  0
LINE
  5
2EE7
330
18
100
AcDbEntity
  8
0
100
AcDbLine
 10
1197.221758722289
 20
748.8479696589936
 30
0.0
 11
1201.105485732523
 21
746.6056988241762
 31
0.0
  0
LINE
  5
2EE8
330
18
100
AcDbEntity
  8
0
100
AcDbLine
 10
1202.605485732523
 20
737.1056988241762
 30
0.0
 11
1183.105485732523
 21
737.1056988241762
 31
0.0
  0
LINE
  5
2EE9
330
18
100
AcDbEntity
  8
0
100
AcDbLine
 10
1206.605485732523
 20
746.6056988241762
 30
0.0
 11
1206.605485732523
 21
741.1056988241762
 31
0.0
  0
ARC
  5
2EEA
330
18
100
AcDbEntity
  8
0
100
AcDbCircle
 10
1248.499405865302
 20
787.7302748914826
 30
0.0
 40
41.12457606730651
100
AcDbArc
 50
250.992532412469
 51
289.0074675875309
  0
ARC
  5
2EEB
330
18
100
AcDbEntity
  8
0
100
AcDbCircle
 10
1267.605485732523
 20
741.1056988241762
 30
0.0
 40
4.0
100
AcDbArc
 50
180.0
 51
270.0
  0
ARC
  5
2EEC
330
18
100
AcDbEntity
  8
0
100
AcDbCircle
 10
1267.441269370418
 20
754.5903395739328
 30
0.0
 40
7.98464074975686
100
AcDbArc
 50
225.9865730962943
 51
285.9865730962935
  0
LINE
  5
2EED
330
18
100
AcDbEntity
  8
0
100
AcDbLine
 10
1263.605485732523
 20
746.6056988241762
 30
0.0
 11
1263.605485732523
 21
741.1056988241762
 31
0.0
  0
LINE
  5
2EEE
330
18
100
AcDbEntity
  8
0
100
AcDbLine
 10
1272.989212742757
 20
748.8479696589938
 30
0.0
 11
1269.105485732523
 21
746.6056988241762
 31
0.0
  0
LINE
  5
2EEF
330
18
100
AcDbEntity
  8
0
100
AcDbLine
 10
1272.989212742757
 20
748.8479696589936
 30
0.0
 11
1269.105485732523
 21
746.6056988241762
 31
0.0
  0
ARC
  5
2EF0
330
18
100
AcDbEntity
  8
0
100
AcDbCircle
 10
1221.711565599745
 20
720.4811227568698
 30
0.0
 40
41.12457606730651
100
AcDbArc
 50
70.99253241246905
 51
109.0074675875309
  0
LINE
  5
2EF1
330
18
100
AcDbEntity
  8
0
100
AcDbLine
 10
1263.105485732523
 20
798.1056988241761
 30
0.0
 11
1207.105485732523
 21
798.1056988241761
 31
0.0
  0
LINE
  5
2EF2
330
18
100
AcDbEntity
  8
0
100
AcDbLine
 10
1269.105485732523
 20
761.6056988241762
 30
0.0
 11
1201.105485732523
 21
761.6056988241762
 31
0.0
  0
LINE
  5
2EF3
330
18
100
AcDbEntity
  8
0
100
AcDbLine
 10
1201.105485732523
 20
792.1056988241762
 30
0.0
 11
1201.105485732523
 21
761.6056988241762
 31
0.0
  0
ARC
  5
2EF4
330
18
100
AcDbEntity
  8
0
100
AcDbCircle
 10
1202.769702094627
 20
753.6210580744193
 30
0.0
 40
7.98464074975686
100
AcDbArc
 50
45.9865730962944
 51
105.9865730962936
  0
LINE
  5
2EF5
330
18
100
AcDbEntity
  8
0
100
AcDbLine
 10
1202.810925928817
 20
784.1056988241762
 30
0.0
 11
1225.441269370418
 21
784.1056988241762
 31
0.0
  0
LINE
  5
2EF6
330
18
100
AcDbEntity
  8
0
100
AcDbLine
 10
1205.046727641417
 20
778.5575109797624
 30
0.0
 11
1205.046727641417
 21
764.6056988241761
 31
0.0
  0
ARC
  5
2EF7
330
18
100
AcDbEntity
  8
0
100
AcDbCircle
 10
1202.810925928817
 20
764.6056988241761
 30
0.0
 40
3.0
100
AcDbArc
 50
235.3556960380609
 51
269.9999999999998
  0
LINE
  5
2EF8
330
18
100
AcDbEntity
  8
0
100
AcDbLine
 10
1197.221758722289
 20
759.3634279893585
 30
0.0
 11
1201.105485732523
 21
761.6056988241762
 31
0.0
  0
LINE
  5
2EF9
330
18
100
AcDbEntity
  8
0
100
AcDbLine
 10
1204.374724807186
 20
780.0529786416359
 30
0.0
 11
1202.810925928817
 21
781.4416549274897
 31
0.0
  0
ARC
  5
2EFA
330
18
100
AcDbEntity
  8
0
100
AcDbCircle
 10
1203.046727641417
 20
778.5575109797624
 30
0.0
 40
2.0
100
AcDbArc
 50
0.0
 51
48.39445480393422
  0
ARC
  5
2EFB
330
18
100
AcDbEntity
  8
0
100
AcDbCircle
 10
1202.810925928817
 20
781.1056988241761
 30
0.0
 40
3.0
100
AcDbArc
 50
89.99999999999991
 51
124.6443039619388
  0
LINE
  5
2EFC
330
18
100
AcDbEntity
  8
0
100
AcDbLine
 10
1228.441269370418
 20
781.1056988241761
 30
0.0
 11
1228.441269370418
 21
764.6056988241761
 31
0.0
  0
ARC
  5
2EFD
330
18
100
AcDbEntity
  8
0
100
AcDbCircle
 10
1210.130625136573
 20
774.6056988241762
 30
0.0
 40
3.0
100
AcDbArc
 50
89.99999999999984
 51
180.0
  0
ARC
  5
2EFE
330
18
100
AcDbEntity
  8
0
100
AcDbCircle
 10
1222.441269370419
 20
774.6056988241762
 30
0.0
 40
3.0
100
AcDbArc
 50
359.9999999999998
 51
89.99999999999984
  0
LINE
  5
2EFF
330
18
100
AcDbEntity
  8
0
100
AcDbLine
 10
1207.130625136573
 20
774.6056988241762
 30
0.0
 11
1207.130625136573
 21
764.6056988241761
 31
0.0
  0
ARC
  5
2F00
330
18
100
AcDbEntity
  8
0
100
AcDbCircle
 10
1210.130625136573
 20
764.6056988241761
 30
0.0
 40
3.0
100
AcDbArc
 50
179.9999999999998
 51
269.9999999999999
  0
LINE
  5
2F01
330
18
100
AcDbEntity
  8
0
100
AcDbLine
 10
1225.441269370419
 20
774.6056988241762
 30
0.0
 11
1225.441269370418
 21
764.6056988241761
 31
0.0
  0
ARC
  5
2F02
330
18
100
AcDbEntity
  8
0
100
AcDbCircle
 10
1222.441269370419
 20
764.6056988241761
 30
0.0
 40
3.0
100
AcDbArc
 50
269.9999999999999
 51
359.9999999999998
  0
ARC
  5
2F03
330
18
100
AcDbEntity
  8
0
100
AcDbCircle
 10
1225.441269370418
 20
764.6056988241761
 30
0.0
 40
3.0
100
AcDbArc
 50
269.9999999999998
 51
359.9999999999998
  0
LINE
  5
2F04
330
18
100
AcDbEntity
  8
0
100
AcDbLine
 10
1210.130625136573
 20
777.6056988241762
 30
0.0
 11
1222.441269370419
 21
777.6056988241762
 31
0.0
  0
LINE
  5
2F05
330
18
100
AcDbEntity
  8
0
100
AcDbLine
 10
1225.441269370419
 20
777.6056988241762
 30
0.0
 11
1227.056653985802
 21
781.1056988241761
 31
0.0
  0
ARC
  5
2F06
330
18
100
AcDbEntity
  8
0
100
AcDbCircle
 10
1225.441269370418
 20
781.1056988241761
 30
0.0
 40
3.0
100
AcDbArc
 50
359.9999999999998
 51
89.99999999999991
  0
ARC
  5
2F07
330
18
100
AcDbEntity
  8
0
100
AcDbCircle
 10
1207.105485732523
 20
792.1056988241762
 30
0.0
 40
6.0
100
AcDbArc
 50
90.0
 51
180.0
  0
LINE
  5
2F08
330
18
100
AcDbEntity
  8
0
100
AcDbLine
 10
1269.105485732523
 20
792.1056988241762
 30
0.0
 11
1269.105485732523
 21
761.6056988241762
 31
0.0
  0
ARC
  5
2F09
330
18
100
AcDbEntity
  8
0
100
AcDbCircle
 10
1248.499405865302
 20
720.4811227568698
 30
0.0
 40
41.12457606730651
100
AcDbArc
 50
70.99253241246902
 51
109.0074675875309
  0
LINE
  5
2F0A
330
18
100
AcDbEntity
  8
0
100
AcDbLine
 10
1261.893325998079
 20
761.6056988241762
 30
0.0
 11
1235.105485732523
 21
761.6056988241762
 31
0.0
  0
LINE
  5
2F0B
330
18
100
AcDbEntity
  8
0
100
AcDbLine
 10
1267.400045536229
 20
784.1056988241762
 30
0.0
 11
1244.769702094629
 21
784.1056988241762
 31
0.0
  0
LINE
  5
2F0C
330
18
100
AcDbEntity
  8
0
100
AcDbLine
 10
1260.080346328473
 20
777.6056988241762
 30
0.0
 11
1247.769702094629
 21
777.6056988241762
 31
0.0
  0
ARC
  5
2F0D
330
18
100
AcDbEntity
  8
0
100
AcDbCircle
 10
1244.769702094629
 20
781.1056988241761
 30
0.0
 40
3.0
100
AcDbArc
 50
90.00000000000003
 51
180.0
  0
ARC
  5
2F0E
330
18
100
AcDbEntity
  8
0
100
AcDbCircle
 10
1244.769702094629
 20
764.6056988241761
 30
0.0
 40
3.0
100
AcDbArc
 50
180.0
 51
270.0
  0
LINE
  5
2F0F
330
18
100
AcDbEntity
  8
0
100
AcDbLine
 10
1241.769702094629
 20
781.1056988241761
 30
0.0
 11
1241.769702094629
 21
764.6056988241761
 31
0.0
  0
ARC
  5
2F10
330
18
100
AcDbEntity
  8
0
100
AcDbCircle
 10
1247.769702094629
 20
774.6056988241762
 30
0.0
 40
3.0
100
AcDbArc
 50
90.00000000000005
 51
180.0
  0
LINE
  5
2F11
330
18
100
AcDbEntity
  8
0
100
AcDbLine
 10
1244.769702094629
 20
774.6056988241762
 30
0.0
 11
1244.769702094629
 21
764.6056988241761
 31
0.0
  0
ARC
  5
2F12
330
18
100
AcDbEntity
  8
0
100
AcDbCircle
 10
1247.769702094629
 20
764.6056988241761
 30
0.0
 40
3.0
100
AcDbArc
 50
180.0
 51
269.9999999999999
  0
LINE
  5
2F13
330
18
100
AcDbEntity
  8
0
100
AcDbLine
 10
1244.769702094629
 20
777.6056988241762
 30
0.0
 11
1243.154317479244
 21
781.1056988241761
 31
0.0
  0
LINE
  5
2F14
330
18
100
AcDbEntity
  8
0
100
AcDbLine
 10
1265.16424382363
 20
778.5575109797624
 30
0.0
 11
1265.164243823629
 21
764.6056988241761
 31
0.0
  0
ARC
  5
2F15
330
18
100
AcDbEntity
  8
0
100
AcDbCircle
 10
1260.080346328473
 20
774.6056988241762
 30
0.0
 40
3.0
100
AcDbArc
 50
359.9999999999998
 51
90.00000000000005
  0
ARC
  5
2F16
330
18
100
AcDbEntity
  8
0
100
AcDbCircle
 10
1267.441269370418
 20
753.6210580744193
 30
0.0
 40
7.98464074975686
100
AcDbArc
 50
74.0134269037064
 51
134.0134269037056
  0
LINE
  5
2F17
330
18
100
AcDbEntity
  8
0
100
AcDbLine
 10
1263.080346328473
 20
774.6056988241762
 30
0.0
 11
1263.080346328473
 21
764.6056988241761
 31
0.0
  0
ARC
  5
2F18
330
18
100
AcDbEntity
  8
0
100
AcDbCircle
 10
1260.080346328473
 20
764.6056988241761
 30
0.0
 40
3.0
100
AcDbArc
 50
269.9999999999999
 51
0.0000000000001018
  0
LINE
  5
2F19
330
18
100
AcDbEntity
  8
0
100
AcDbLine
 10
1272.989212742757
 20
759.3634279893585
 30
0.0
 11
1269.105485732523
 21
761.6056988241762
 31
0.0
  0
ARC
  5
2F1A
330
18
100
AcDbEntity
  8
0
100
AcDbCircle
 10
1267.400045536229
 20
764.6056988241761
 30
0.0
 40
3.0
100
AcDbArc
 50
270.0
 51
304.644303961939
  0
LINE
  5
2F1B
330
18
100
AcDbEntity
  8
0
100
AcDbLine
 10
1265.836246657861
 20
780.0529786416359
 30
0.0
 11
1267.400045536229
 21
781.4416549274897
 31
0.0
  0
ARC
  5
2F1C
330
18
100
AcDbEntity
  8
0
100
AcDbCircle
 10
1267.16424382363
 20
778.5575109797624
 30
0.0
 40
2.0
100
AcDbArc
 50
131.6055451960656
 51
179.9999999999998
  0
ARC
  5
2F1D
330
18
100
AcDbEntity
  8
0
100
AcDbCircle
 10
1267.400045536229
 20
781.1056988241761
 30
0.0
 40
3.0
100
AcDbArc
 50
55.35569603806104
 51
90.00000000000003
  0
ARC
  5
2F1E
330
18
100
AcDbEntity
  8
0
100
AcDbCircle
 10
1263.105485732523
 20
792.1056988241762
 30
0.0
 40
6.0
100
AcDbArc
 50
0.0
 51
90.0
  0
LINE
  5
2F1F
330
18
100
AcDbEntity
  8
0
100
AcDbLine
 10
544.5229298570043
 20
1415.164292251892
 30
0.0
 11
521.8925864154039
 21
1415.164292251892
 31
0.0
  0
LINE
  5
2F20
330
18
100
AcDbEntity
  8
0
100
AcDbLine
 10
537.2032306492497
 20
1408.664292251892
 30
0.0
 11
524.8925864154038
 21
1408.664292251892
 31
0.0
  0
LINE
  5
2F21
330
18
100
AcDbEntity
  8
0
100
AcDbLine
 10
540.2283700532989
 20
1429.164292251892
 30
0.0
 11
484.2283700532989
 21
1429.164292251892
 31
0.0
  0
ARC
  5
2F22
330
18
100
AcDbEntity
  8
0
100
AcDbCircle
 10
525.6222901860773
 20
1418.788868319199
 30
0.0
 40
41.12457606730651
100
AcDbArc
 50
250.992532412469
 51
289.0074675875309
  0
ARC
  5
2F23
330
18
100
AcDbEntity
  8
0
100
AcDbCircle
 10
525.6222901860773
 20
1351.539716184586
 30
0.0
 40
41.12457606730651
100
AcDbArc
 50
70.99253241246902
 51
109.0074675875309
  0
LINE
  5
2F24
330
18
100
AcDbEntity
  8
0
100
AcDbLine
 10
539.016210318855
 20
1392.664292251892
 30
0.0
 11
512.2283700532989
 21
1392.664292251892
 31
0.0
  0
LINE
  5
2F25
330
18
100
AcDbEntity
  8
0
100
AcDbLine
 10
546.2283700532989
 20
1377.664292251892
 30
0.0
 11
478.2283700532989
 21
1377.664292251892
 31
0.0
  0
LINE
  5
2F26
330
18
100
AcDbEntity
  8
0
100
AcDbLine
 10
546.2283700532989
 20
1392.664292251892
 30
0.0
 11
478.2283700532989
 21
1392.664292251892
 31
0.0
  0
ARC
  5
2F27
330
18
100
AcDbEntity
  8
0
100
AcDbCircle
 10
512.2283700532989
 20
1457.014224798832
 30
0.0
 40
89.61553123391135
100
AcDbArc
 50
253.9147193913218
 51
286.0852806086784
  0
LINE
  5
2F28
330
18
100
AcDbEntity
  8
0
100
AcDbLine
 10
563.7283700532988
 20
1344.664292251892
 30
0.0
 11
517.7194386329319
 21
1344.664292251892
 31
0.0
  0
LINE
  5
2F29
330
18
100
AcDbEntity
  8
0
100
AcDbLine
 10
544.5229298570043
 20
1048.335367852072
 30
0.0
 11
521.8925864154039
 21
1048.335367852072
 31
0.0
  0
LINE
  5
2F2A
330
18
100
AcDbEntity
  8
0
100
AcDbLine
 10
484.2283700532989
 20
1062.335367852072
 30
0.0
 11
540.2283700532989
 21
1062.335367852072
 31
0.0
  0
LINE
  5
2F2B
330
18
100
AcDbEntity
  8
0
100
AcDbLine
 10
537.2032306492492
 20
1041.835367852071
 30
0.0
 11
524.8925864154034
 21
1041.835367852071
 31
0.0
  0
ARC
  5
2F2C
330
18
100
AcDbEntity
  8
0
100
AcDbCircle
 10
525.6222901860773
 20
984.7107917847656
 30
0.0
 40
41.12457606730651
100
AcDbArc
 50
70.99253241246902
 51
109.0074675875309
  0
LINE
  5
2F2D
330
18
100
AcDbEntity
  8
0
100
AcDbLine
 10
478.2283700532989
 20
1025.835367852071
 30
0.0
 11
546.2283700532989
 21
1025.835367852071
 31
0.0
  0
ARC
  5
2F2E
330
18
100
AcDbEntity
  8
0
100
AcDbCircle
 10
525.6222901860773
 20
1051.959943919378
 30
0.0
 40
41.12457606730651
100
AcDbArc
 50
250.992532412469
 51
289.0074675875309
  0
ARC
  5
2F2F
330
18
100
AcDbEntity
  8
0
100
AcDbCircle
 10
531.9632819023704
 20
1015.759632342249
 30
0.0
 40
12.59290848176607
100
AcDbArc
 50
268.4957550981778
 51
305.6738593100079
  0
LINE
  5
2F30
330
18
100
AcDbEntity
  8
0
100
AcDbLine
 10
478.2283700532989
 20
1010.835367852072
 30
0.0
 11
546.2283700532989
 21
1010.835367852072
 31
0.0
  0
LINE
  5
2F31
330
18
100
AcDbEntity
  8
0
100
AcDbLine
 10
532.7283700532989
 20
977.8353678520721
 30
0.0
 11
563.7283700532988
 21
977.8353678520721
 31
0.0
  0
POLYLINE
  5
2F32
330
18
100
AcDbEntity
  8
0
100
AcDb2dPolyline
 66
     1
 10
0.0
 20
0.0
 30
0.0
 70
     1
  0
VERTEX
  5
357B
330
2F32
100
AcDbEntity
  8
0
100
AcDbVertex
100
AcDb2dVertex
 10
485.4405297877429
 20
1172.635562046609
 30
0.0
  0
VERTEX
  5
357C
330
2F32
100
AcDbEntity
  8
0
100
AcDbVertex
100
AcDb2dVertex
 10
512.2283700532989
 20
1161.539675301932
 30
0.0
  0
VERTEX
  5
357D
330
2F32
100
AcDbEntity
  8
0
100
AcDbVertex
100
AcDb2dVertex
 10
539.016210318855
 20
1172.635562046609
 30
0.0
  0
VERTEX
  5
357E
330
2F32
100
AcDbEntity
  8
0
100
AcDbVertex
100
AcDb2dVertex
 10
550.1120970635329
 20
1199.423402312165
 30
0.0
  0
VERTEX
  5
357F
330
2F32
100
AcDbEntity
  8
0
100
AcDbVertex
100
AcDb2dVertex
 10
539.016210318855
 20
1226.211242577722
 30
0.0
  0
VERTEX
  5
3580
330
2F32
100
AcDbEntity
  8
0
100
AcDbVertex
100
AcDb2dVertex
 10
512.2283700532989
 20
1237.307129322399
 30
0.0
  0
VERTEX
  5
3581
330
2F32
100
AcDbEntity
  8
0
100
AcDbVertex
100
AcDb2dVertex
 10
485.4405297877429
 20
1226.211242577722
 30
0.0
  0
VERTEX
  5
3582
330
2F32
100
AcDbEntity
  8
0
100
AcDbVertex
100
AcDb2dVertex
 10
474.3446430430649
 20
1199.423402312165
 30
0.0
  0
SEQEND
  5
3583
330
2F32
100
AcDbEntity
  8
0
  0
CIRCLE
  5
2F33
330
18
100
AcDbEntity
  8
0
100
AcDbCircle
 10
512.2283700532989
 20
1199.423402312165
 30
0.0
 40
34.0
  0
ARC
  5
2F34
330
18
100
AcDbEntity
  8
0
100
AcDbCircle
 10
524.8925864154034
 20
1038.835367852072
 30
0.0
 40
3.0
100
AcDbArc
 50
90.00000000000014
 51
180.0000000000001
  0
ARC
  5
2F35
330
18
100
AcDbEntity
  8
0
100
AcDbCircle
 10
499.5641536911939
 20
1038.835367852072
 30
0.0
 40
3.0
100
AcDbArc
 50
0.0
 51
89.99999999999994
  0
ARC
  5
2F36
330
18
100
AcDbEntity
  8
0
100
AcDbCircle
 10
487.2535094573481
 20
1038.835367852072
 30
0.0
 40
3.0
100
AcDbArc
 50
89.99999999999994
 51
180.0000000000001
  0
LINE
  5
2F37
330
18
100
AcDbEntity
  8
0
100
AcDbLine
 10
482.1696119621925
 20
1042.787180007658
 30
0.0
 11
482.1696119621929
 21
1028.835367852072
 31
0.0
  0
LINE
  5
2F38
330
18
100
AcDbEntity
  8
0
100
AcDbLine
 10
518.8925864154039
 20
1045.335367852072
 30
0.0
 11
518.8925864154039
 21
1028.835367852072
 31
0.0
  0
LINE
  5
2F39
330
18
100
AcDbEntity
  8
0
100
AcDbLine
 10
505.5641536911939
 20
1045.335367852072
 30
0.0
 11
505.5641536911939
 21
1028.835367852072
 31
0.0
  0
LINE
  5
2F3A
330
18
100
AcDbEntity
  8
0
100
AcDbLine
 10
478.2283700532989
 20
1056.335367852072
 30
0.0
 11
478.2283700532989
 21
1025.835367852071
 31
0.0
  0
LINE
  5
2F3B
330
18
100
AcDbEntity
  8
0
100
AcDbLine
 10
302.2848313736217
 20
1042.787180007658
 30
0.0
 11
302.2848313736212
 21
1028.835367852072
 31
0.0
  0
ARC
  5
2F3C
330
18
100
AcDbEntity
  8
0
100
AcDbCircle
 10
297.200933878466
 20
1038.835367852072
 30
0.0
 40
3.0
100
AcDbArc
 50
359.9999999999998
 51
90.00000000000005
  0
ARC
  5
2F3D
330
18
100
AcDbEntity
  8
0
100
AcDbCircle
 10
284.8902896446202
 20
1038.835367852072
 30
0.0
 40
3.0
100
AcDbArc
 50
90.00000000000005
 51
180.0
  0
ARC
  5
2F3E
330
18
100
AcDbEntity
  8
0
100
AcDbCircle
 10
259.5618569204107
 20
1038.835367852072
 30
0.0
 40
3.0
100
AcDbArc
 50
359.9999999999998
 51
89.99999999999987
  0
LINE
  5
2F3F
330
18
100
AcDbEntity
  8
0
100
AcDbLine
 10
242.1673151914092
 20
1042.787180007658
 30
0.0
 11
242.1673151914092
 21
1028.835367852072
 31
0.0
  0
ARC
  5
2F40
330
18
100
AcDbEntity
  8
0
100
AcDbCircle
 10
247.2512126865644
 20
1038.835367852072
 30
0.0
 40
3.0
100
AcDbArc
 50
89.99999999999987
 51
180.0
  0
LINE
  5
2F41
330
18
100
AcDbEntity
  8
0
100
AcDbLine
 10
306.2260732825152
 20
1056.335367852072
 30
0.0
 11
306.2260732825152
 21
1025.835367852071
 31
0.0
  0
LINE
  5
2F42
330
18
100
AcDbEntity
  8
0
100
AcDbLine
 10
238.2260732825152
 20
1056.335367852072
 30
0.0
 11
238.2260732825152
 21
1025.835367852071
 31
0.0
  0
LINE
  5
2F43
330
18
100
AcDbEntity
  8
0
100
AcDbLine
 10
265.5618569204102
 20
1045.335367852072
 30
0.0
 11
265.5618569204102
 21
1038.365551992462
 31
0.0
  0
LINE
  5
2F44
330
18
100
AcDbEntity
  8
0
100
AcDbLine
 10
278.8902896446202
 20
1045.335367852072
 30
0.0
 11
278.8902896446202
 21
1038.365551992462
 31
0.0
  0
CIRCLE
  5
2F45
330
18
100
AcDbEntity
  8
0
100
AcDbCircle
 10
272.2260732825152
 20
991.3353678520721
 30
0.0
 40
47.5
  0
TEXT
  5
2F46
330
18
100
AcDbEntity
  8
0
100
AcDbText
 10
127.1120051240195
 20
1019.05799550714
 30
0.0
 40
20.0
  1
正面
100
AcDbText
  0
CIRCLE
  5
2F47
330
18
100
AcDbEntity
  8
0
100
AcDbCircle
 10
247.4773359409864
 20
966.5866305105428
 30
0.0
 40
6.0
  0
CIRCLE
  5
2F48
330
18
100
AcDbEntity
  8
0
100
AcDbCircle
 10
247.4773359409864
 20
1016.084105193601
 30
0.0
 40
6.0
  0
LINE
  5
2F49
330
18
100
AcDbEntity
  8
0
100
AcDbLine
 10
234.3423462722812
 20
1023.593097017254
 30
0.0
 11
238.2260732825152
 21
1025.835367852071
 31
0.0
  0
LINE
  5
2F4A
330
18
100
AcDbEntity
  8
0
100
AcDbLine
 10
239.5764178478866
 20
1025.835367852071
 30
0.0
 11
238.2260732825152
 21
1025.835367852071
 31
0.0
  0
LINE
  5
2F4B
330
18
100
AcDbEntity
  8
0
100
AcDbLine
 10
244.2512126865644
 20
1038.835367852072
 30
0.0
 11
244.251212686564
 21
1029.723610513557
 31
0.0
  0
ARC
  5
2F4C
330
18
100
AcDbEntity
  8
0
100
AcDbCircle
 10
239.8902896446197
 20
1017.850727102315
 30
0.0
 40
7.98464074975686
100
AcDbArc
 50
92.30172136595696
 51
105.9865730962936
  0
LINE
  5
2F4D
330
18
100
AcDbEntity
  8
0
100
AcDbLine
 10
234.3423462722812
 20
1023.593097017254
 30
0.0
 11
234.3423462722812
 21
1019.989743221534
 31
0.0
  0
ARC
  5
2F4E
330
18
100
AcDbEntity
  8
0
100
AcDbCircle
 10
239.9315134788098
 20
1028.835367852072
 30
0.0
 40
3.0
100
AcDbArc
 50
235.3556960380609
 51
263.5841674420737
  0
LINE
  5
2F4F
330
18
100
AcDbEntity
  8
0
100
AcDbLine
 10
262.5618569204107
 20
1038.835367852072
 30
0.0
 11
262.5618569204107
 21
1037.841850433605
 31
0.0
  0
ARC
  5
2F50
330
18
100
AcDbEntity
  8
0
100
AcDbCircle
 10
446.7283700532989
 20
968.9165444357609
 30
0.0
 40
6.0
100
AcDbArc
 50
101.3099324740198
 51
180.0
  0
ARC
  5
2F51
330
18
100
AcDbEntity
  8
0
100
AcDbCircle
 10
446.7283700532989
 20
1013.754191268383
 30
0.0
 40
6.0
100
AcDbArc
 50
180.0
 51
258.6900675259801
  0
LINE
  5
2F52
330
18
100
AcDbEntity
  8
0
100
AcDbLine
 10
424.7283700532989
 20
943.8353678520721
 30
0.0
 11
424.7283700532989
 21
991.3353678520721
 31
0.0
  0
LINE
  5
2F53
330
18
100
AcDbEntity
  8
0
100
AcDbLine
 10
440.7283700532989
 20
1038.835367852072
 30
0.0
 11
440.7283700532989
 21
943.8353678520721
 31
0.0
  0
CIRCLE
  5
2F54
330
18
100
AcDbEntity
  8
0
100
AcDbCircle
 10
296.9748106240449
 20
966.5866305105428
 30
0.0
 40
6.0
  0
LINE
  5
2F55
330
18
100
AcDbEntity
  8
0
100
AcDbLine
 10
440.7283700532989
 20
943.8353678520721
 30
0.0
 11
424.7283700532989
 21
943.8353678520721
 31
0.0
  0
CIRCLE
  5
2F56
330
18
100
AcDbEntity
  8
0
100
AcDbCircle
 10
296.9748106240449
 20
1016.084105193601
 30
0.0
 40
6.0
  0
LINE
  5
2F57
330
18
100
AcDbEntity
  8
0
100
AcDbLine
 10
281.8902896446202
 20
1038.835367852072
 30
0.0
 11
281.8902896446202
 21
1037.841850433605
 31
0.0
  0
LINE
  5
2F58
330
18
100
AcDbEntity
  8
0
100
AcDbLine
 10
310.1098002927492
 20
1023.593097017254
 30
0.0
 11
306.2260732825152
 21
1025.835367852071
 31
0.0
  0
LINE
  5
2F59
330
18
100
AcDbEntity
  8
0
100
AcDbLine
 10
310.1098002927492
 20
1023.593097017254
 30
0.0
 11
310.1098002927492
 21
1019.989743221534
 31
0.0
  0
ARC
  5
2F5A
330
18
100
AcDbEntity
  8
0
100
AcDbCircle
 10
304.5618569204102
 20
1017.850727102315
 30
0.0
 40
7.98464074975686
100
AcDbArc
 50
74.01342690370642
 51
87.69827863403978
  0
LINE
  5
2F5B
330
18
100
AcDbEntity
  8
0
100
AcDbLine
 10
306.2260732825152
 20
1025.835367852071
 30
0.0
 11
304.8757287171442
 21
1025.835367852071
 31
0.0
  0
LINE
  5
2F5C
330
18
100
AcDbEntity
  8
0
100
AcDbLine
 10
300.200933878466
 20
1038.835367852072
 30
0.0
 11
300.2009338784664
 21
1029.723610513557
 31
0.0
  0
ARC
  5
2F5D
330
18
100
AcDbEntity
  8
0
100
AcDbCircle
 10
304.5206330862206
 20
1028.835367852072
 30
0.0
 40
3.0
100
AcDbArc
 50
276.4158325579262
 51
304.644303961939
  0
LINE
  5
2F5E
330
18
100
AcDbEntity
  8
0
100
AcDbLine
 10
424.7283700532989
 20
991.3353678520721
 30
0.0
 11
424.7283700532989
 21
1038.835367852072
 31
0.0
  0
LINE
  5
2F5F
330
18
100
AcDbEntity
  8
0
100
AcDbLine
 10
424.7283700532989
 20
1038.835367852072
 30
0.0
 11
440.7283700532989
 21
1038.835367852072
 31
0.0
  0
TEXT
  5
2F60
330
18
100
AcDbEntity
  8
0
100
AcDbText
 10
494.0531334090919
 20
935.5700991134826
 30
0.0
 40
20.0
  1
15A
 41
0.8
 11
494.0531334090919
 21
935.5700991134826
 31
0.0
100
AcDbText
 73
     1
  0
ARC
  5
2F61
330
18
100
AcDbEntity
  8
0
100
AcDbCircle
 10
498.8344499205204
 20
984.7107917847656
 30
0.0
 40
41.12457606730651
100
AcDbArc
 50
70.992532412469
 51
109.0074675875309
  0
LINE
  5
2F62
330
18
100
AcDbEntity
  8
0
100
AcDbLine
 10
485.4405297877429
 20
1025.835367852071
 30
0.0
 11
512.2283700532989
 21
1025.835367852071
 31
0.0
  0
ARC
  5
2F63
330
18
100
AcDbEntity
  8
0
100
AcDbCircle
 10
492.4934582042274
 20
1015.759632342249
 30
0.0
 40
12.59290848176607
100
AcDbArc
 50
234.3261406899921
 51
271.5042449018221
  0
ARC
  5
2F64
330
18
100
AcDbEntity
  8
0
100
AcDbCircle
 10
498.8344499205204
 20
1051.959943919378
 30
0.0
 40
41.12457606730651
100
AcDbArc
 50
250.992532412469
 51
289.0074675875309
  0
LINE
  5
2F65
330
18
100
AcDbEntity
  8
0
100
AcDbLine
 10
460.7283700532989
 20
977.8353678520721
 30
0.0
 11
506.7373014736658
 21
977.8353678520721
 31
0.0
  0
LINE
  5
2F66
330
18
100
AcDbEntity
  8
0
100
AcDbLine
 10
483.7283700532989
 20
1010.835367852072
 30
0.0
 11
483.7283700532989
 21
1006.835367852072
 31
0.0
  0
LINE
  5
2F67
330
18
100
AcDbEntity
  8
0
100
AcDbLine
 10
445.5516732424698
 20
1007.870707214237
 30
0.0
 11
460.7283700532989
 21
1004.835367852072
 31
0.0
  0
LINE
  5
2F68
330
18
100
AcDbEntity
  8
0
100
AcDbLine
 10
460.7283700532989
 20
1004.835367852072
 30
0.0
 11
481.7283700532989
 21
1004.835367852072
 31
0.0
  0
LINE
  5
2F69
330
18
100
AcDbEntity
  8
0
100
AcDbLine
 10
460.7283700532989
 20
977.8353678520721
 30
0.0
 11
445.5516732424698
 21
974.8000284899061
 31
0.0
  0
ARC
  5
2F6A
330
18
100
AcDbEntity
  8
0
100
AcDbCircle
 10
481.7283700532989
 20
1006.835367852072
 30
0.0
 40
2.0
100
AcDbArc
 50
270.0
 51
0.0
  0
ARC
  5
2F6B
330
18
100
AcDbEntity
  8
0
100
AcDbCircle
 10
487.2535094573481
 20
1028.835367852072
 30
0.0
 40
3.0
100
AcDbArc
 50
179.9999999999998
 51
270.0
  0
LINE
  5
2F6C
330
18
100
AcDbEntity
  8
0
100
AcDbLine
 10
484.2535094573482
 20
1038.835367852072
 30
0.0
 11
484.2535094573482
 21
1028.835367852072
 31
0.0
  0
ARC
  5
2F6D
330
18
100
AcDbEntity
  8
0
100
AcDbCircle
 10
479.9338102495935
 20
1028.835367852072
 30
0.0
 40
3.0
100
AcDbArc
 50
235.355696038061
 51
270.0
  0
LINE
  5
2F6E
330
18
100
AcDbEntity
  8
0
100
AcDbLine
 10
474.3446430430649
 20
1023.593097017254
 30
0.0
 11
478.2283700532989
 21
1025.835367852071
 31
0.0
  0
ARC
  5
2F6F
330
18
100
AcDbEntity
  8
0
100
AcDbCircle
 10
479.8925864154039
 20
1017.850727102315
 30
0.0
 40
7.98464074975686
100
AcDbArc
 50
45.9865730962944
 51
105.9865730962936
  0
LINE
  5
2F70
330
18
100
AcDbEntity
  8
0
100
AcDbLine
 10
474.3446430430649
 20
1013.077638686889
 30
0.0
 11
478.2283700532989
 21
1010.835367852072
 31
0.0
  0
LINE
  5
2F71
330
18
100
AcDbEntity
  8
0
100
AcDbLine
 10
474.3446430430649
 20
1013.077638686889
 30
0.0
 11
478.2283700532989
 21
1010.835367852072
 31
0.0
  0
ARC
  5
2F72
330
18
100
AcDbEntity
  8
0
100
AcDbCircle
 10
479.8925864154039
 20
1018.820008601828
 30
0.0
 40
7.98464074975686
100
AcDbArc
 50
254.0134269037064
 51
314.0134269037055
  0
LINE
  5
2F73
330
18
100
AcDbEntity
  8
0
100
AcDbLine
 10
474.3446430430649
 20
1023.593097017254
 30
0.0
 11
474.3446430430649
 21
1013.077638686889
 31
0.0
  0
LINE
  5
2F74
330
18
100
AcDbEntity
  8
0
100
AcDbLine
 10
485.4405297877429
 20
1023.593097017254
 30
0.0
 11
485.4405297877429
 21
1013.077638686889
 31
0.0
  0
LINE
  5
2F75
330
18
100
AcDbEntity
  8
0
100
AcDbLine
 10
496.2283700532989
 20
982.3353678520721
 30
0.0
 11
528.2283700532989
 21
982.3353678520721
 31
0.0
  0
LINE
  5
2F76
330
18
100
AcDbEntity
  8
0
100
AcDbLine
 10
496.2283700532989
 20
1004.335367852072
 30
0.0
 11
528.2283700532989
 21
1004.335367852072
 31
0.0
  0
ARC
  5
2F77
330
18
100
AcDbEntity
  8
0
100
AcDbCircle
 10
519.7328357634823
 20
965.9101660491506
 30
0.0
 40
15.0
100
AcDbArc
 50
63.37675108316712
 51
116.6232489168332
  0
LINE
  5
2F78
330
18
100
AcDbEntity
  8
0
100
AcDbLine
 10
495.2283700532989
 20
1003.335367852072
 30
0.0
 11
495.2283700532989
 21
983.3353678520721
 31
0.0
  0
ARC
  5
2F79
330
18
100
AcDbEntity
  8
0
100
AcDbCircle
 10
496.2283700532989
 20
983.3353678520721
 30
0.0
 40
1.0
100
AcDbArc
 50
180.0
 51
270.0
  0
ARC
  5
2F7A
330
18
100
AcDbEntity
  8
0
100
AcDbCircle
 10
496.2283700532989
 20
1003.335367852072
 30
0.0
 40
1.0
100
AcDbArc
 50
89.99999999999994
 51
180.0000000000003
  0
ARC
  5
2F7B
330
18
100
AcDbEntity
  8
0
100
AcDbCircle
 10
506.7373014736658
 20
991.835367852072
 30
0.0
 40
14.0
100
AcDbArc
 50
270.0
 51
296.6232489168333
  0
LINE
  5
2F7C
330
18
100
AcDbEntity
  8
0
100
AcDbLine
 10
529.2283700532989
 20
1003.335367852072
 30
0.0
 11
529.2283700532989
 21
983.3353678520721
 31
0.0
  0
ARC
  5
2F7D
330
18
100
AcDbEntity
  8
0
100
AcDbCircle
 10
528.2283700532989
 20
983.3353678520721
 30
0.0
 40
1.0
100
AcDbArc
 50
270.0
 51
0.0
  0
ARC
  5
2F7E
330
18
100
AcDbEntity
  8
0
100
AcDbCircle
 10
528.2283700532989
 20
1003.335367852072
 30
0.0
 40
1.0
100
AcDbArc
 50
0.0
 51
89.99999999999994
  0
ARC
  5
2F7F
330
18
100
AcDbEntity
  8
0
100
AcDbCircle
 10
532.7283700532989
 20
991.835367852072
 30
0.0
 40
14.0
100
AcDbArc
 50
243.3767510831667
 51
270.0
  0
ARC
  5
2F80
330
18
100
AcDbEntity
  8
0
100
AcDbCircle
 10
499.5641536911939
 20
1028.835367852072
 30
0.0
 40
3.0
100
AcDbArc
 50
270.0
 51
0.0
  0
ARC
  5
2F81
330
18
100
AcDbEntity
  8
0
100
AcDbCircle
 10
502.564153691194
 20
1028.835367852072
 30
0.0
 40
3.0
100
AcDbArc
 50
270.0
 51
0.0
  0
LINE
  5
2F82
330
18
100
AcDbEntity
  8
0
100
AcDbLine
 10
502.564153691194
 20
1038.835367852072
 30
0.0
 11
502.564153691194
 21
1028.835367852072
 31
0.0
  0
LINE
  5
2F83
330
18
100
AcDbEntity
  8
0
100
AcDbLine
 10
512.2283700532989
 20
1023.593097017254
 30
0.0
 11
512.2283700532989
 21
1013.077638686889
 31
0.0
  0
ARC
  5
2F84
330
18
100
AcDbEntity
  8
0
100
AcDbCircle
 10
521.8925864154039
 20
1028.835367852072
 30
0.0
 40
3.0
100
AcDbArc
 50
180.0000000000001
 51
270.0000000000001
  0
ARC
  5
2F85
330
18
100
AcDbEntity
  8
0
100
AcDbCircle
 10
524.8925864154034
 20
1028.835367852072
 30
0.0
 40
3.0
100
AcDbArc
 50
180.0000000000001
 51
270.0
  0
LINE
  5
2F86
330
18
100
AcDbEntity
  8
0
100
AcDbLine
 10
521.8925864154035
 20
1038.835367852072
 30
0.0
 11
521.8925864154039
 21
1028.835367852072
 31
0.0
  0
LINE
  5
2F87
330
18
100
AcDbEntity
  8
0
100
AcDbLine
 10
300.2260732825152
 20
1062.335367852072
 30
0.0
 11
244.2260732825152
 21
1062.335367852072
 31
0.0
  0
LINE
  5
2F88
330
18
100
AcDbEntity
  8
0
100
AcDbLine
 10
239.9315134788098
 20
1048.335367852072
 30
0.0
 11
262.5618569204102
 21
1048.335367852072
 31
0.0
  0
LINE
  5
2F89
330
18
100
AcDbEntity
  8
0
100
AcDbLine
 10
247.2512126865649
 20
1041.835367852071
 30
0.0
 11
259.5618569204107
 21
1041.835367852071
 31
0.0
  0
ARC
  5
2F8A
330
18
100
AcDbEntity
  8
0
100
AcDbCircle
 10
244.2260732825152
 20
1056.335367852072
 30
0.0
 40
6.0
100
AcDbArc
 50
90.0
 51
180.0
  0
ARC
  5
2F8B
330
18
100
AcDbEntity
  8
0
100
AcDbCircle
 10
239.9315134788098
 20
1045.335367852072
 30
0.0
 40
3.0
100
AcDbArc
 50
89.99999999999991
 51
124.6443039619388
  0
ARC
  5
2F8C
330
18
100
AcDbEntity
  8
0
100
AcDbCircle
 10
240.1673151914092
 20
1042.787180007658
 30
0.0
 40
2.0
100
AcDbArc
 50
0.000000000000007
 51
48.39445480393422
  0
LINE
  5
2F8D
330
18
100
AcDbEntity
  8
0
100
AcDbLine
 10
241.4953123571776
 20
1044.282647669531
 30
0.0
 11
239.9315134788098
 21
1045.671323955385
 31
0.0
  0
ARC
  5
2F8E
330
18
100
AcDbEntity
  8
0
100
AcDbCircle
 10
262.5618569204102
 20
1045.335367852072
 30
0.0
 40
3.0
100
AcDbArc
 50
359.9999999999998
 51
89.99999999999991
  0
LINE
  5
2F8F
330
18
100
AcDbEntity
  8
0
100
AcDbLine
 10
262.5618569204107
 20
1041.835367852071
 30
0.0
 11
264.177241535795
 21
1045.335367852072
 31
0.0
  0
TEXT
  5
2F90
330
18
100
AcDbEntity
  8
0
100
AcDbText
 10
127.1120051240195
 20
1180.926922539448
 30
0.0
 40
20.0
  1
平面
100
AcDbText
  0
LINE
  5
2F91
330
18
100
AcDbEntity
  8
0
100
AcDbLine
 10
424.7283700532989
 20
1151.923402312165
 30
0.0
 11
424.7283700532989
 21
1199.423402312165
 31
0.0
  0
LINE
  5
2F92
330
18
100
AcDbEntity
  8
0
100
AcDbLine
 10
440.7283700532989
 20
1246.923402312165
 30
0.0
 11
440.7283700532989
 21
1151.923402312165
 31
0.0
  0
LINE
  5
2F93
330
18
100
AcDbEntity
  8
0
100
AcDbLine
 10
304.5206330862206
 20
1048.335367852072
 30
0.0
 11
281.8902896446202
 21
1048.335367852072
 31
0.0
  0
LINE
  5
2F94
330
18
100
AcDbEntity
  8
0
100
AcDbLine
 10
297.200933878466
 20
1041.835367852071
 30
0.0
 11
284.8902896446202
 21
1041.835367852071
 31
0.0
  0
ARC
  5
2F95
330
18
100
AcDbEntity
  8
0
100
AcDbCircle
 10
281.8902896446202
 20
1045.335367852072
 30
0.0
 40
3.0
100
AcDbArc
 50
90.00000000000003
 51
180.0
  0
LINE
  5
2F96
330
18
100
AcDbEntity
  8
0
100
AcDbLine
 10
281.8902896446202
 20
1041.835367852071
 30
0.0
 11
280.2749050292359
 21
1045.335367852072
 31
0.0
  0
ARC
  5
2F97
330
18
100
AcDbEntity
  8
0
100
AcDbCircle
 10
304.5206330862206
 20
1045.335367852072
 30
0.0
 40
3.0
100
AcDbArc
 50
55.35569603806104
 51
90.00000000000003
  0
ARC
  5
2F98
330
18
100
AcDbEntity
  8
0
100
AcDbCircle
 10
300.2260732825152
 20
1056.335367852072
 30
0.0
 40
6.0
100
AcDbArc
 50
0.000000000000007
 51
90.0
  0
ARC
  5
2F99
330
18
100
AcDbEntity
  8
0
100
AcDbCircle
 10
304.2848313736217
 20
1042.787180007658
 30
0.0
 40
2.0
100
AcDbArc
 50
131.6055451960656
 51
179.9999999999998
  0
LINE
  5
2F9A
330
18
100
AcDbEntity
  8
0
100
AcDbLine
 10
302.9568342078527
 20
1044.282647669531
 30
0.0
 11
304.5206330862206
 21
1045.671323955385
 31
0.0
  0
LINE
  5
2F9B
330
18
100
AcDbEntity
  8
0
100
AcDbLine
 10
440.7283700532989
 20
1151.923402312165
 30
0.0
 11
424.7283700532989
 21
1151.923402312165
 31
0.0
  0
LINE
  5
2F9C
330
18
100
AcDbEntity
  8
0
100
AcDbLine
 10
479.9338102495935
 20
1048.335367852072
 30
0.0
 11
502.564153691194
 21
1048.335367852072
 31
0.0
  0
LINE
  5
2F9D
330
18
100
AcDbEntity
  8
0
100
AcDbLine
 10
487.2535094573481
 20
1041.835367852071
 30
0.0
 11
499.5641536911939
 21
1041.835367852071
 31
0.0
  0
ARC
  5
2F9E
330
18
100
AcDbEntity
  8
0
100
AcDbCircle
 10
479.9338102495935
 20
1045.335367852072
 30
0.0
 40
3.0
100
AcDbArc
 50
89.99999999999998
 51
124.6443039619389
  0
ARC
  5
2F9F
330
18
100
AcDbEntity
  8
0
100
AcDbCircle
 10
484.2283700532989
 20
1056.335367852072
 30
0.0
 40
6.0
100
AcDbArc
 50
90.0
 51
180.0
  0
ARC
  5
2FA0
330
18
100
AcDbEntity
  8
0
100
AcDbCircle
 10
480.1696119621924
 20
1042.787180007658
 30
0.0
 40
2.0
100
AcDbArc
 50
0.0000000000001018
 51
48.39445480393429
  0
LINE
  5
2FA1
330
18
100
AcDbEntity
  8
0
100
AcDbLine
 10
481.4976091279613
 20
1044.282647669531
 30
0.0
 11
479.9338102495935
 21
1045.671323955385
 31
0.0
  0
ARC
  5
2FA2
330
18
100
AcDbEntity
  8
0
100
AcDbCircle
 10
502.564153691194
 20
1045.335367852072
 30
0.0
 40
3.0
100
AcDbArc
 50
0.0
 51
89.99999999999998
  0
LINE
  5
2FA3
330
18
100
AcDbEntity
  8
0
100
AcDbLine
 10
502.564153691194
 20
1041.835367852071
 30
0.0
 11
504.1795383065782
 21
1045.335367852072
 31
0.0
  0
ARC
  5
2FA4
330
18
100
AcDbEntity
  8
0
100
AcDbCircle
 10
521.8925864154039
 20
1045.335367852072
 30
0.0
 40
3.0
100
AcDbArc
 50
90.00000000000012
 51
180.0000000000001
  0
LINE
  5
2FA5
330
18
100
AcDbEntity
  8
0
100
AcDbLine
 10
521.8925864154035
 20
1041.835367852071
 30
0.0
 11
520.2772018000191
 21
1045.335367852072
 31
0.0
  0
ARC
  5
2FA6
330
18
100
AcDbEntity
  8
0
100
AcDbCircle
 10
446.7283700532989
 20
1177.004578895854
 30
0.0
 40
6.0
100
AcDbArc
 50
101.3099324740198
 51
180.0
  0
ARC
  5
2FA7
330
18
100
AcDbEntity
  8
0
100
AcDbCircle
 10
446.7283700532989
 20
1221.842225728477
 30
0.0
 40
6.0
100
AcDbArc
 50
180.0
 51
258.6900675259801
  0
LINE
  5
2FA8
330
18
100
AcDbEntity
  8
0
100
AcDbLine
 10
424.7283700532989
 20
1199.423402312165
 30
0.0
 11
424.7283700532989
 21
1246.923402312165
 31
0.0
  0
LINE
  5
2FA9
330
18
100
AcDbEntity
  8
0
100
AcDbLine
 10
424.7283700532989
 20
1246.923402312165
 30
0.0
 11
440.7283700532989
 21
1246.923402312165
 31
0.0
  0
CIRCLE
  5
2FAA
330
18
100
AcDbEntity
  8
0
100
AcDbCircle
 10
512.2283700532989
 20
1199.423402312165
 30
0.0
 40
22.25
  0
LINE
  5
2FAB
330
18
100
AcDbEntity
  8
0
100
AcDbLine
 10
460.7283700532989
 20
1185.923402312165
 30
0.0
 11
479.9365261351018
 21
1185.923402312165
 31
0.0
  0
LINE
  5
2FAC
330
18
100
AcDbEntity
  8
0
100
AcDbLine
 10
460.7283700532989
 20
1185.923402312165
 30
0.0
 11
445.5516732424698
 21
1182.88806295
 31
0.0
  0
LINE
  5
2FAD
330
18
100
AcDbEntity
  8
0
100
AcDbLine
 10
460.7283700532989
 20
1212.923402312165
 30
0.0
 11
479.9365261351022
 21
1212.923402312165
 31
0.0
  0
LINE
  5
2FAE
330
18
100
AcDbEntity
  8
0
100
AcDbLine
 10
445.5516732424698
 20
1215.958741674331
 30
0.0
 11
460.7283700532989
 21
1212.923402312165
 31
0.0
  0
CIRCLE
  5
2FAF
330
18
100
AcDbEntity
  8
0
100
AcDbCircle
 10
512.2283700532989
 20
1199.423402312165
 30
0.0
 40
20.24999999999999
  0
TEXT
  5
2FB0
330
18
100
AcDbEntity
  8
0
100
AcDbText
 10
127.1120051240195
 20
1345.883006817
 30
0.0
 40
20.0
  1
背面
100
AcDbText
  0
ARC
  5
2FB1
330
18
100
AcDbEntity
  8
0
100
AcDbCircle
 10
446.7283700532989
 20
1380.583115668204
 30
0.0
 40
6.0
100
AcDbArc
 50
180.0
 51
258.6900675259801
  0
ARC
  5
2FB2
330
18
100
AcDbEntity
  8
0
100
AcDbCircle
 10
446.7283700532989
 20
1335.745468835581
 30
0.0
 40
6.0
100
AcDbArc
 50
101.3099324740198
 51
180.0
  0
LINE
  5
2FB3
330
18
100
AcDbEntity
  8
0
100
AcDbLine
 10
440.7283700532989
 20
1405.664292251892
 30
0.0
 11
440.7283700532989
 21
1310.664292251892
 31
0.0
  0
LINE
  5
2FB4
330
18
100
AcDbEntity
  8
0
100
AcDbLine
 10
424.7283700532989
 20
1358.164292251892
 30
0.0
 11
424.7283700532989
 21
1405.664292251892
 31
0.0
  0
LINE
  5
2FB5
330
18
100
AcDbEntity
  8
0
100
AcDbLine
 10
424.7283700532989
 20
1310.664292251892
 30
0.0
 11
424.7283700532989
 21
1358.164292251892
 31
0.0
  0
LINE
  5
2FB6
330
18
100
AcDbEntity
  8
0
100
AcDbLine
 10
440.7283700532989
 20
1310.664292251892
 30
0.0
 11
424.7283700532989
 21
1310.664292251892
 31
0.0
  0
LINE
  5
2FB7
330
18
100
AcDbEntity
  8
0
100
AcDbLine
 10
424.7283700532989
 20
1405.664292251892
 30
0.0
 11
440.7283700532989
 21
1405.664292251892
 31
0.0
  0
LINE
  5
2FB8
330
18
100
AcDbEntity
  8
0
100
AcDbLine
 10
491.7283700532989
 20
1344.664292251892
 30
0.0
 11
460.7283700532989
 21
1344.664292251892
 31
0.0
  0
LINE
  5
2FB9
330
18
100
AcDbEntity
  8
0
100
AcDbLine
 10
460.7283700532989
 20
1344.664292251892
 30
0.0
 11
445.5516732424698
 21
1341.628952889726
 31
0.0
  0
ARC
  5
2FBA
330
18
100
AcDbEntity
  8
0
100
AcDbCircle
 10
517.7194386329319
 20
1358.664292251892
 30
0.0
 40
14.0
100
AcDbArc
 50
243.3767510831667
 51
270.0
  0
ARC
  5
2FBB
330
18
100
AcDbEntity
  8
0
100
AcDbCircle
 10
504.7239043431154
 20
1332.739090448971
 30
0.0
 40
15.0
100
AcDbArc
 50
63.37675108316673
 51
116.6232489168328
  0
ARC
  5
2FBC
330
18
100
AcDbEntity
  8
0
100
AcDbCircle
 10
491.7283700532989
 20
1358.664292251892
 30
0.0
 40
14.0
100
AcDbArc
 50
270.0
 51
296.6232489168333
  0
LINE
  5
2FBD
330
18
100
AcDbEntity
  8
0
100
AcDbLine
 10
487.2535094573485
 20
1408.664292251892
 30
0.0
 11
499.5641536911944
 21
1408.664292251892
 31
0.0
  0
LINE
  5
2FBE
330
18
100
AcDbEntity
  8
0
100
AcDbLine
 10
479.9338102495935
 20
1415.164292251892
 30
0.0
 11
502.564153691194
 21
1415.164292251892
 31
0.0
  0
ARC
  5
2FBF
330
18
100
AcDbEntity
  8
0
100
AcDbCircle
 10
498.8344499205204
 20
1418.788868319199
 30
0.0
 40
41.12457606730651
100
AcDbArc
 50
250.992532412469
 51
289.0074675875309
  0
ARC
  5
2FC0
330
18
100
AcDbEntity
  8
0
100
AcDbCircle
 10
498.8344499205204
 20
1351.539716184586
 30
0.0
 40
41.12457606730651
100
AcDbArc
 50
70.99253241246905
 51
109.0074675875309
  0
LINE
  5
2FC1
330
18
100
AcDbEntity
  8
0
100
AcDbLine
 10
484.2535094573482
 20
1405.664292251892
 30
0.0
 11
484.2535094573486
 21
1395.664292251892
 31
0.0
  0
LINE
  5
2FC2
330
18
100
AcDbEntity
  8
0
100
AcDbLine
 10
482.1696119621929
 20
1409.616104407478
 30
0.0
 11
482.1696119621929
 21
1395.664292251892
 31
0.0
  0
LINE
  5
2FC3
330
18
100
AcDbEntity
  8
0
100
AcDbLine
 10
478.2283700532989
 20
1423.164292251892
 30
0.0
 11
478.2283700532989
 21
1392.664292251892
 31
0.0
  0
LINE
  5
2FC4
330
18
100
AcDbEntity
  8
0
100
AcDbLine
 10
481.7283700532989
 20
1371.664292251892
 30
0.0
 11
460.7283700532989
 21
1371.664292251892
 31
0.0
  0
LINE
  5
2FC5
330
18
100
AcDbEntity
  8
0
100
AcDbLine
 10
445.5516732424698
 20
1374.699631614058
 30
0.0
 11
460.7283700532989
 21
1371.664292251892
 31
0.0
  0
LINE
  5
2FC6
330
18
100
AcDbEntity
  8
0
100
AcDbLine
 10
485.4405297877429
 20
1390.422021417075
 30
0.0
 11
485.4405297877429
 21
1379.90656308671
 31
0.0
  0
ARC
  5
2FC7
330
18
100
AcDbEntity
  8
0
100
AcDbCircle
 10
487.2535094573481
 20
1395.664292251892
 30
0.0
 40
3.0
100
AcDbArc
 50
179.9999999999998
 51
269.9999999999999
  0
LINE
  5
2FC8
330
18
100
AcDbEntity
  8
0
100
AcDbLine
 10
474.3446430430649
 20
1390.422021417075
 30
0.0
 11
474.3446430430649
 21
1379.90656308671
 31
0.0
  0
LINE
  5
2FC9
330
18
100
AcDbEntity
  8
0
100
AcDbLine
 10
474.3446430430649
 20
1379.90656308671
 30
0.0
 11
478.2283700532989
 21
1377.664292251892
 31
0.0
  0
LINE
  5
2FCA
330
18
100
AcDbEntity
  8
0
100
AcDbLine
 10
474.3446430430649
 20
1379.90656308671
 30
0.0
 11
478.2283700532989
 21
1377.664292251892
 31
0.0
  0
ARC
  5
2FCB
330
18
100
AcDbEntity
  8
0
100
AcDbCircle
 10
479.9338102495935
 20
1395.664292251892
 30
0.0
 40
3.0
100
AcDbArc
 50
235.3556960380609
 51
269.9999999999998
  0
LINE
  5
2FCC
330
18
100
AcDbEntity
  8
0
100
AcDbLine
 10
474.3446430430649
 20
1390.422021417075
 30
0.0
 11
478.2283700532989
 21
1392.664292251892
 31
0.0
  0
ARC
  5
2FCD
330
18
100
AcDbEntity
  8
0
100
AcDbCircle
 10
479.8925864154035
 20
1385.648933001649
 30
0.0
 40
7.98464074975686
100
AcDbArc
 50
254.0134269037064
 51
314.0134269037056
  0
ARC
  5
2FCE
330
18
100
AcDbEntity
  8
0
100
AcDbCircle
 10
479.8925864154035
 20
1384.679651502136
 30
0.0
 40
7.98464074975686
100
AcDbArc
 50
45.9865730962944
 51
105.9865730962936
  0
ARC
  5
2FCF
330
18
100
AcDbEntity
  8
0
100
AcDbCircle
 10
481.7283700532989
 20
1373.664292251892
 30
0.0
 40
2.0
100
AcDbArc
 50
270.0
 51
0.0
  0
LINE
  5
2FD0
330
18
100
AcDbEntity
  8
0
100
AcDbLine
 10
483.7283700532989
 20
1377.664292251892
 30
0.0
 11
483.7283700532989
 21
1373.664292251892
 31
0.0
  0
ARC
  5
2FD1
330
18
100
AcDbEntity
  8
0
100
AcDbCircle
 10
487.2535094573481
 20
1405.664292251892
 30
0.0
 40
3.0
100
AcDbArc
 50
89.99999999999984
 51
180.0
  0
LINE
  5
2FD2
330
18
100
AcDbEntity
  8
0
100
AcDbLine
 10
481.4976091279613
 20
1411.111572069352
 30
0.0
 11
479.9338102495935
 21
1412.500248355206
 31
0.0
  0
ARC
  5
2FD3
330
18
100
AcDbEntity
  8
0
100
AcDbCircle
 10
479.9338102495935
 20
1412.164292251892
 30
0.0
 40
3.0
100
AcDbArc
 50
89.99999999999991
 51
124.6443039619388
  0
ARC
  5
2FD4
330
18
100
AcDbEntity
  8
0
100
AcDbCircle
 10
480.1696119621928
 20
1409.616104407478
 30
0.0
 40
2.0
100
AcDbArc
 50
0.0
 51
48.39445480393422
  0
ARC
  5
2FD5
330
18
100
AcDbEntity
  8
0
100
AcDbCircle
 10
484.2283700532989
 20
1423.164292251892
 30
0.0
 40
6.0
100
AcDbArc
 50
90.0
 51
180.0
  0
LINE
  5
2FD6
330
18
100
AcDbEntity
  8
0
100
AcDbLine
 10
521.8925864154039
 20
1405.664292251892
 30
0.0
 11
521.8925864154039
 21
1395.664292251892
 31
0.0
  0
LINE
  5
2FD7
330
18
100
AcDbEntity
  8
0
100
AcDbLine
 10
518.8925864154039
 20
1412.164292251892
 30
0.0
 11
518.8925864154039
 21
1395.664292251892
 31
0.0
  0
LINE
  5
2FD8
330
18
100
AcDbEntity
  8
0
100
AcDbLine
 10
502.5641536911944
 20
1405.664292251892
 30
0.0
 11
502.564153691194
 21
1395.664292251892
 31
0.0
  0
LINE
  5
2FD9
330
18
100
AcDbEntity
  8
0
100
AcDbLine
 10
505.5641536911939
 20
1412.164292251892
 30
0.0
 11
505.5641536911939
 21
1395.664292251892
 31
0.0
  0
LINE
  5
2FDA
330
18
100
AcDbEntity
  8
0
100
AcDbLine
 10
512.2283700532989
 20
1390.422021417075
 30
0.0
 11
512.2283700532989
 21
1379.90656308671
 31
0.0
  0
ARC
  5
2FDB
330
18
100
AcDbEntity
  8
0
100
AcDbCircle
 10
502.564153691194
 20
1395.664292251892
 30
0.0
 40
3.0
100
AcDbArc
 50
269.9999999999998
 51
359.9999999999998
  0
ARC
  5
2FDC
330
18
100
AcDbEntity
  8
0
100
AcDbCircle
 10
499.5641536911944
 20
1395.664292251892
 30
0.0
 40
3.0
100
AcDbArc
 50
269.9999999999999
 51
359.9999999999998
  0
ARC
  5
2FDD
330
18
100
AcDbEntity
  8
0
100
AcDbCircle
 10
524.8925864154038
 20
1395.664292251892
 30
0.0
 40
3.0
100
AcDbArc
 50
180.0
 51
269.9999999999999
  0
ARC
  5
2FDE
330
18
100
AcDbEntity
  8
0
100
AcDbCircle
 10
521.8925864154039
 20
1395.664292251892
 30
0.0
 40
3.0
100
AcDbArc
 50
180.0
 51
270.0
  0
ARC
  5
2FDF
330
18
100
AcDbEntity
  8
0
100
AcDbCircle
 10
499.5641536911944
 20
1405.664292251892
 30
0.0
 40
3.0
100
AcDbArc
 50
359.9999999999998
 51
89.99999999999984
  0
LINE
  5
2FE0
330
18
100
AcDbEntity
  8
0
100
AcDbLine
 10
502.5641536911944
 20
1408.664292251892
 30
0.0
 11
504.1795383065787
 21
1412.164292251892
 31
0.0
  0
ARC
  5
2FE1
330
18
100
AcDbEntity
  8
0
100
AcDbCircle
 10
502.564153691194
 20
1412.164292251892
 30
0.0
 40
3.0
100
AcDbArc
 50
359.9999999999998
 51
89.99999999999991
  0
ARC
  5
2FE2
330
18
100
AcDbEntity
  8
0
100
AcDbCircle
 10
524.8925864154038
 20
1405.664292251892
 30
0.0
 40
3.0
100
AcDbArc
 50
90.00000000000005
 51
180.0
  0
LINE
  5
2FE3
330
18
100
AcDbEntity
  8
0
100
AcDbLine
 10
521.8925864154039
 20
1408.664292251892
 30
0.0
 11
520.2772018000196
 21
1412.164292251892
 31
0.0
  0
ARC
  5
2FE4
330
18
100
AcDbEntity
  8
0
100
AcDbCircle
 10
521.8925864154039
 20
1412.164292251892
 30
0.0
 40
3.0
100
AcDbArc
 50
90.00000000000003
 51
180.0
  0
LINE
  5
2FE5
330
18
100
AcDbEntity
  8
0
100
AcDbLine
 10
702.1757579429641
 20
1042.787180007658
 30
0.0
 11
702.1757579429641
 21
1028.835367852072
 31
0.0
  0
ARC
  5
2FE6
330
18
100
AcDbEntity
  8
0
100
AcDbCircle
 10
697.0918604478088
 20
1038.835367852072
 30
0.0
 40
3.0
100
AcDbArc
 50
359.9999999999999
 51
90.00000000000014
  0
LINE
  5
2FE7
330
18
100
AcDbEntity
  8
0
100
AcDbLine
 10
706.116999851858
 20
1056.335367852072
 30
0.0
 11
706.116999851858
 21
1025.835367852071
 31
0.0
  0
LINE
  5
2FE8
330
18
100
AcDbEntity
  8
0
100
AcDbLine
 10
642.0582417607516
 20
1042.787180007658
 30
0.0
 11
642.058241760752
 21
1028.835367852072
 31
0.0
  0
ARC
  5
2FE9
330
18
100
AcDbEntity
  8
0
100
AcDbCircle
 10
647.1421392559072
 20
1038.835367852072
 30
0.0
 40
3.0
100
AcDbArc
 50
89.99999999999994
 51
180.0000000000001
  0
ARC
  5
2FEA
330
18
100
AcDbEntity
  8
0
100
AcDbCircle
 10
659.452783489753
 20
1038.835367852072
 30
0.0
 40
3.0
100
AcDbArc
 50
0.0
 51
89.99999999999994
  0
ARC
  5
2FEB
330
18
100
AcDbEntity
  8
0
100
AcDbCircle
 10
684.7812162139625
 20
1038.835367852072
 30
0.0
 40
3.0
100
AcDbArc
 50
90.00000000000014
 51
180.0000000000001
  0
LINE
  5
2FEC
330
18
100
AcDbEntity
  8
0
100
AcDbLine
 10
638.116999851858
 20
1056.335367852072
 30
0.0
 11
638.116999851858
 21
1025.835367852071
 31
0.0
  0
LINE
  5
2FED
330
18
100
AcDbEntity
  8
0
100
AcDbLine
 10
665.452783489753
 20
1045.335367852072
 30
0.0
 11
665.452783489753
 21
1038.365551992462
 31
0.0
  0
LINE
  5
2FEE
330
18
100
AcDbEntity
  8
0
100
AcDbLine
 10
678.781216213963
 20
1045.335367852072
 30
0.0
 11
678.781216213963
 21
1038.365551992462
 31
0.0
  0
ARC
  5
2FEF
330
18
100
AcDbEntity
  8
0
100
AcDbCircle
 10
537.2032306492497
 20
1038.835367852072
 30
0.0
 40
3.0
100
AcDbArc
 50
359.9999999999999
 51
90.00000000000014
  0
LINE
  5
2FF0
330
18
100
AcDbEntity
  8
0
100
AcDbLine
 10
542.287128144405
 20
1042.787180007658
 30
0.0
 11
542.287128144405
 21
1028.835367852072
 31
0.0
  0
LINE
  5
2FF1
330
18
100
AcDbEntity
  8
0
100
AcDbLine
 10
546.2283700532989
 20
1056.335367852072
 30
0.0
 11
546.2283700532989
 21
1025.835367852071
 31
0.0
  0
CIRCLE
  5
2FF2
330
18
100
AcDbEntity
  8
0
100
AcDbCircle
 10
672.116999851858
 20
991.3353678520721
 30
0.0
 40
47.5
  0
ARC
  5
2FF3
330
18
100
AcDbEntity
  8
0
100
AcDbCircle
 10
577.7283700532989
 20
968.9165444357609
 30
0.0
 40
6.0
100
AcDbArc
 50
0.0
 51
78.69006752598011
  0
LINE
  5
2FF4
330
18
100
AcDbEntity
  8
0
100
AcDbLine
 10
599.7283700532989
 20
943.8353678520721
 30
0.0
 11
599.7283700532989
 21
991.3353678520721
 31
0.0
  0
LINE
  5
2FF5
330
18
100
AcDbEntity
  8
0
100
AcDbLine
 10
583.7283700532989
 20
1038.835367852072
 30
0.0
 11
583.7283700532989
 21
943.8353678520721
 31
0.0
  0
LINE
  5
2FF6
330
18
100
AcDbEntity
  8
0
100
AcDbLine
 10
583.7283700532989
 20
943.8353678520721
 30
0.0
 11
599.7283700532989
 21
943.8353678520721
 31
0.0
  0
ARC
  5
2FF7
330
18
100
AcDbEntity
  8
0
100
AcDbCircle
 10
577.7283700532989
 20
1013.754191268383
 30
0.0
 40
6.0
100
AcDbArc
 50
281.3099324740198
 51
0.0
  0
LINE
  5
2FF8
330
18
100
AcDbEntity
  8
0
100
AcDbLine
 10
578.9050668641279
 20
1007.870707214237
 30
0.0
 11
563.7283700532988
 21
1004.835367852072
 31
0.0
  0
LINE
  5
2FF9
330
18
100
AcDbEntity
  8
0
100
AcDbLine
 10
540.7283700532989
 20
1010.835367852072
 30
0.0
 11
540.7283700532989
 21
1006.835367852072
 31
0.0
  0
LINE
  5
2FFA
330
18
100
AcDbEntity
  8
0
100
AcDbLine
 10
542.7283700532989
 20
1004.835367852072
 30
0.0
 11
563.7283700532988
 21
1004.835367852072
 31
0.0
  0
ARC
  5
2FFB
330
18
100
AcDbEntity
  8
0
100
AcDbCircle
 10
542.7283700532989
 20
1006.835367852072
 30
0.0
 40
2.0
100
AcDbArc
 50
180.0
 51
270.0
  0
LINE
  5
2FFC
330
18
100
AcDbEntity
  8
0
100
AcDbLine
 10
563.7283700532988
 20
977.8353678520721
 30
0.0
 11
578.9050668641279
 21
974.8000284899061
 31
0.0
  0
ARC
  5
2FFD
330
18
100
AcDbEntity
  8
0
100
AcDbCircle
 10
544.5229298570043
 20
1028.835367852072
 30
0.0
 40
3.0
100
AcDbArc
 50
270.0000000000001
 51
304.644303961939
  0
ARC
  5
2FFE
330
18
100
AcDbEntity
  8
0
100
AcDbCircle
 10
537.2032306492497
 20
1028.835367852072
 30
0.0
 40
3.0
100
AcDbArc
 50
270.0
 51
0.000000000000191
  0
ARC
  5
2FFF
330
18
100
AcDbEntity
  8
0
100
AcDbCircle
 10
544.5641536911944
 20
1017.850727102315
 30
0.0
 40
7.98464074975686
100
AcDbArc
 50
74.0134269037064
 51
134.0134269037056
  0
LINE
  5
3000
330
18
100
AcDbEntity
  8
0
100
AcDbLine
 10
540.2032306492497
 20
1038.835367852072
 30
0.0
 11
540.2032306492492
 21
1028.835367852072
 31
0.0
  0
LINE
  5
3001
330
18
100
AcDbEntity
  8
0
100
AcDbLine
 10
550.1120970635329
 20
1023.593097017254
 30
0.0
 11
546.2283700532989
 21
1025.835367852071
 31
0.0
  0
ARC
  5
3002
330
18
100
AcDbEntity
  8
0
100
AcDbCircle
 10
544.5641536911944
 20
1018.820008601828
 30
0.0
 40
7.98464074975686
100
AcDbArc
 50
225.9865730962943
 51
285.9865730962935
  0
LINE
  5
3003
330
18
100
AcDbEntity
  8
0
100
AcDbLine
 10
550.1120970635329
 20
1013.077638686889
 30
0.0
 11
546.2283700532989
 21
1010.835367852072
 31
0.0
  0
LINE
  5
3004
330
18
100
AcDbEntity
  8
0
100
AcDbLine
 10
550.1120970635329
 20
1013.077638686889
 30
0.0
 11
546.2283700532989
 21
1010.835367852072
 31
0.0
  0
LINE
  5
3005
330
18
100
AcDbEntity
  8
0
100
AcDbLine
 10
550.1120970635329
 20
1023.593097017254
 30
0.0
 11
550.1120970635329
 21
1013.077638686889
 31
0.0
  0
LINE
  5
3006
330
18
100
AcDbEntity
  8
0
100
AcDbLine
 10
539.016210318855
 20
1023.593097017254
 30
0.0
 11
539.016210318855
 21
1013.077638686889
 31
0.0
  0
LINE
  5
3007
330
18
100
AcDbEntity
  8
0
100
AcDbLine
 10
599.7283700532989
 20
991.3353678520721
 30
0.0
 11
599.7283700532989
 21
1038.835367852072
 31
0.0
  0
LINE
  5
3008
330
18
100
AcDbEntity
  8
0
100
AcDbLine
 10
599.7283700532989
 20
1038.835367852072
 30
0.0
 11
583.7283700532989
 21
1038.835367852072
 31
0.0
  0
CIRCLE
  5
3009
330
18
100
AcDbEntity
  8
0
100
AcDbCircle
 10
647.3682625103283
 20
966.5866305105428
 30
0.0
 40
6.0
  0
CIRCLE
  5
300A
330
18
100
AcDbEntity
  8
0
100
AcDbCircle
 10
696.8657371933868
 20
966.5866305105428
 30
0.0
 40
6.0
  0
CIRCLE
  5
300B
330
18
100
AcDbEntity
  8
0
100
AcDbCircle
 10
647.3682625103283
 20
1016.084105193601
 30
0.0
 40
6.0
  0
LINE
  5
300C
330
18
100
AcDbEntity
  8
0
100
AcDbLine
 10
638.116999851858
 20
1025.835367852071
 30
0.0
 11
639.467344417229
 21
1025.835367852071
 31
0.0
  0
LINE
  5
300D
330
18
100
AcDbEntity
  8
0
100
AcDbLine
 10
644.1421392559073
 20
1038.835367852072
 30
0.0
 11
644.1421392559068
 21
1029.723610513557
 31
0.0
  0
LINE
  5
300E
330
18
100
AcDbEntity
  8
0
100
AcDbLine
 10
634.233272841624
 20
1023.593097017254
 30
0.0
 11
638.116999851858
 21
1025.835367852071
 31
0.0
  0
ARC
  5
300F
330
18
100
AcDbEntity
  8
0
100
AcDbCircle
 10
639.8224400481526
 20
1028.835367852072
 30
0.0
 40
3.0
100
AcDbArc
 50
235.355696038061
 51
263.5841674420737
  0
ARC
  5
3010
330
18
100
AcDbEntity
  8
0
100
AcDbCircle
 10
639.781216213963
 20
1017.850727102315
 30
0.0
 40
7.98464074975686
100
AcDbArc
 50
92.30172136596022
 51
105.9865730962936
  0
LINE
  5
3011
330
18
100
AcDbEntity
  8
0
100
AcDbLine
 10
634.233272841624
 20
1023.593097017254
 30
0.0
 11
634.233272841624
 21
1019.989743221534
 31
0.0
  0
LINE
  5
3012
330
18
100
AcDbEntity
  8
0
100
AcDbLine
 10
662.4527834897531
 20
1038.835367852072
 30
0.0
 11
662.4527834897531
 21
1037.841850433605
 31
0.0
  0
CIRCLE
  5
3013
330
18
100
AcDbEntity
  8
0
100
AcDbCircle
 10
696.8657371933868
 20
1016.084105193601
 30
0.0
 40
6.0
  0
LINE
  5
3014
330
18
100
AcDbEntity
  8
0
100
AcDbLine
 10
681.7812162139626
 20
1038.835367852072
 30
0.0
 11
681.7812162139626
 21
1037.841850433605
 31
0.0
  0
LINE
  5
3015
330
18
100
AcDbEntity
  8
0
100
AcDbLine
 10
710.000726862092
 20
1023.593097017254
 30
0.0
 11
706.116999851858
 21
1025.835367852071
 31
0.0
  0
LINE
  5
3016
330
18
100
AcDbEntity
  8
0
100
AcDbLine
 10
700.0918604478088
 20
1038.835367852072
 30
0.0
 11
700.0918604478092
 21
1029.723610513557
 31
0.0
  0
ARC
  5
3017
330
18
100
AcDbEntity
  8
0
100
AcDbCircle
 10
704.4527834897535
 20
1017.850727102315
 30
0.0
 40
7.98464074975686
100
AcDbArc
 50
74.0134269037064
 51
87.69827863404303
  0
ARC
  5
3018
330
18
100
AcDbEntity
  8
0
100
AcDbCircle
 10
704.4115596555634
 20
1028.835367852072
 30
0.0
 40
3.0
100
AcDbArc
 50
276.4158325579262
 51
304.644303961939
  0
LINE
  5
3019
330
18
100
AcDbEntity
  8
0
100
AcDbLine
 10
710.000726862092
 20
1023.593097017254
 30
0.0
 11
710.000726862092
 21
1019.989743221534
 31
0.0
  0
LINE
  5
301A
330
18
100
AcDbEntity
  8
0
100
AcDbLine
 10
704.7666552864866
 20
1025.835367852071
 30
0.0
 11
706.116999851858
 21
1025.835367852071
 31
0.0
  0
LINE
  5
301B
330
18
100
AcDbEntity
  8
0
100
AcDbLine
 10
599.7283700532989
 20
1151.923402312165
 30
0.0
 11
599.7283700532989
 21
1199.423402312165
 31
0.0
  0
LINE
  5
301C
330
18
100
AcDbEntity
  8
0
100
AcDbLine
 10
583.7283700532989
 20
1246.923402312165
 30
0.0
 11
583.7283700532989
 21
1151.923402312165
 31
0.0
  0
ARC
  5
301D
330
18
100
AcDbEntity
  8
0
100
AcDbCircle
 10
544.5229298570043
 20
1045.335367852072
 30
0.0
 40
3.0
100
AcDbArc
 50
55.35569603806112
 51
90.00000000000012
  0
ARC
  5
301E
330
18
100
AcDbEntity
  8
0
100
AcDbCircle
 10
540.2283700532989
 20
1056.335367852072
 30
0.0
 40
6.0
100
AcDbArc
 50
0.0
 51
90.0
  0
ARC
  5
301F
330
18
100
AcDbEntity
  8
0
100
AcDbCircle
 10
544.2871281444049
 20
1042.787180007658
 30
0.0
 40
2.0
100
AcDbArc
 50
131.6055451960657
 51
180.0
  0
LINE
  5
3020
330
18
100
AcDbEntity
  8
0
100
AcDbLine
 10
542.9591309786364
 20
1044.282647669531
 30
0.0
 11
544.5229298570043
 21
1045.671323955385
 31
0.0
  0
LINE
  5
3021
330
18
100
AcDbEntity
  8
0
100
AcDbLine
 10
583.7283700532989
 20
1151.923402312165
 30
0.0
 11
599.7283700532989
 21
1151.923402312165
 31
0.0
  0
LINE
  5
3022
330
18
100
AcDbEntity
  8
0
100
AcDbLine
 10
644.1169998518581
 20
1062.335367852072
 30
0.0
 11
700.116999851858
 21
1062.335367852072
 31
0.0
  0
LINE
  5
3023
330
18
100
AcDbEntity
  8
0
100
AcDbLine
 10
639.8224400481526
 20
1048.335367852072
 30
0.0
 11
662.4527834897531
 21
1048.335367852072
 31
0.0
  0
LINE
  5
3024
330
18
100
AcDbEntity
  8
0
100
AcDbLine
 10
647.1421392559072
 20
1041.835367852071
 30
0.0
 11
659.452783489753
 21
1041.835367852071
 31
0.0
  0
ARC
  5
3025
330
18
100
AcDbEntity
  8
0
100
AcDbCircle
 10
639.8224400481526
 20
1045.335367852072
 30
0.0
 40
3.0
100
AcDbArc
 50
89.99999999999998
 51
124.6443039619389
  0
ARC
  5
3026
330
18
100
AcDbEntity
  8
0
100
AcDbCircle
 10
644.1169998518581
 20
1056.335367852072
 30
0.0
 40
6.0
100
AcDbArc
 50
90.0
 51
180.0
  0
ARC
  5
3027
330
18
100
AcDbEntity
  8
0
100
AcDbCircle
 10
640.0582417607515
 20
1042.787180007658
 30
0.0
 40
2.0
100
AcDbArc
 50
0.0000000000001018
 51
48.39445480393429
  0
LINE
  5
3028
330
18
100
AcDbEntity
  8
0
100
AcDbLine
 10
641.3862389265204
 20
1044.282647669531
 30
0.0
 11
639.8224400481526
 21
1045.671323955385
 31
0.0
  0
ARC
  5
3029
330
18
100
AcDbEntity
  8
0
100
AcDbCircle
 10
662.4527834897531
 20
1045.335367852072
 30
0.0
 40
3.0
100
AcDbArc
 50
0.0
 51
89.99999999999998
  0
LINE
  5
302A
330
18
100
AcDbEntity
  8
0
100
AcDbLine
 10
662.4527834897531
 20
1041.835367852071
 30
0.0
 11
664.0681681051374
 21
1045.335367852072
 31
0.0
  0
LINE
  5
302B
330
18
100
AcDbEntity
  8
0
100
AcDbLine
 10
704.4115596555634
 20
1048.335367852072
 30
0.0
 11
681.781216213963
 21
1048.335367852072
 31
0.0
  0
ARC
  5
302C
330
18
100
AcDbEntity
  8
0
100
AcDbCircle
 10
681.781216213963
 20
1045.335367852072
 30
0.0
 40
3.0
100
AcDbArc
 50
90.00000000000012
 51
180.0000000000001
  0
LINE
  5
302D
330
18
100
AcDbEntity
  8
0
100
AcDbLine
 10
681.7812162139626
 20
1041.835367852071
 30
0.0
 11
680.1658315985783
 21
1045.335367852072
 31
0.0
  0
LINE
  5
302E
330
18
100
AcDbEntity
  8
0
100
AcDbLine
 10
697.0918604478083
 20
1041.835367852071
 30
0.0
 11
684.7812162139625
 21
1041.835367852071
 31
0.0
  0
ARC
  5
302F
330
18
100
AcDbEntity
  8
0
100
AcDbCircle
 10
700.116999851858
 20
1056.335367852072
 30
0.0
 40
6.0
100
AcDbArc
 50
0.0
 51
90.0
  0
ARC
  5
3030
330
18
100
AcDbEntity
  8
0
100
AcDbCircle
 10
704.4115596555634
 20
1045.335367852072
 30
0.0
 40
3.0
100
AcDbArc
 50
55.35569603806112
 51
90.00000000000012
  0
ARC
  5
3031
330
18
100
AcDbEntity
  8
0
100
AcDbCircle
 10
704.175757942964
 20
1042.787180007658
 30
0.0
 40
2.0
100
AcDbArc
 50
131.6055451960657
 51
180.0
  0
LINE
  5
3032
330
18
100
AcDbEntity
  8
0
100
AcDbLine
 10
702.8477607771955
 20
1044.282647669531
 30
0.0
 11
704.4115596555634
 21
1045.671323955385
 31
0.0
  0
LINE
  5
3033
330
18
100
AcDbEntity
  8
0
100
AcDbLine
 10
599.7283700532989
 20
1199.423402312165
 30
0.0
 11
599.7283700532989
 21
1246.923402312165
 31
0.0
  0
ARC
  5
3034
330
18
100
AcDbEntity
  8
0
100
AcDbCircle
 10
577.7283700532989
 20
1177.004578895854
 30
0.0
 40
6.0
100
AcDbArc
 50
0.0
 51
78.69006752598011
  0
ARC
  5
3035
330
18
100
AcDbEntity
  8
0
100
AcDbCircle
 10
577.7283700532989
 20
1221.842225728477
 30
0.0
 40
6.0
100
AcDbArc
 50
281.3099324740198
 51
0.0
  0
LINE
  5
3036
330
18
100
AcDbEntity
  8
0
100
AcDbLine
 10
544.5202139714961
 20
1185.923402312165
 30
0.0
 11
563.7283700532988
 21
1185.923402312165
 31
0.0
  0
LINE
  5
3037
330
18
100
AcDbEntity
  8
0
100
AcDbLine
 10
563.7283700532988
 20
1185.923402312165
 30
0.0
 11
578.9050668641279
 21
1182.88806295
 31
0.0
  0
LINE
  5
3038
330
18
100
AcDbEntity
  8
0
100
AcDbLine
 10
544.5202139714961
 20
1212.923402312165
 30
0.0
 11
563.7283700532988
 21
1212.923402312165
 31
0.0
  0
LINE
  5
3039
330
18
100
AcDbEntity
  8
0
100
AcDbLine
 10
578.9050668641279
 20
1215.958741674331
 30
0.0
 11
563.7283700532988
 21
1212.923402312165
 31
0.0
  0
LINE
  5
303A
330
18
100
AcDbEntity
  8
0
100
AcDbLine
 10
599.7283700532989
 20
1246.923402312165
 30
0.0
 11
583.7283700532989
 21
1246.923402312165
 31
0.0
  0
LINE
  5
303B
330
18
100
AcDbEntity
  8
0
100
AcDbLine
 10
1200.295892447727
 20
1042.835367852072
 30
0.0
 11
1200.295892447727
 21
1032.835367852072
 31
0.0
  0
LINE
  5
303C
330
18
100
AcDbEntity
  8
0
100
AcDbLine
 10
1237.934969405781
 20
1042.835367852072
 30
0.0
 11
1237.934969405782
 21
1032.835367852072
 31
0.0
  0
LINE
  5
303D
330
18
100
AcDbEntity
  8
0
100
AcDbLine
 10
1218.606536681572
 20
1042.835367852072
 30
0.0
 11
1218.606536681572
 21
1032.835367852072
 31
0.0
  0
LINE
  5
303E
330
18
100
AcDbEntity
  8
0
100
AcDbLine
 10
1194.270753043677
 20
1060.335367852072
 30
0.0
 11
1194.270753043677
 21
1029.835367852072
 31
0.0
  0
LINE
  5
303F
330
18
100
AcDbEntity
  8
0
100
AcDbLine
 10
1198.21199495257
 20
1046.787180007658
 30
0.0
 11
1198.211994952571
 21
1032.835367852072
 31
0.0
  0
LINE
  5
3040
330
18
100
AcDbEntity
  8
0
100
AcDbLine
 10
1221.606536681572
 20
1049.335367852072
 30
0.0
 11
1221.606536681572
 21
1032.835367852072
 31
0.0
  0
LINE
  5
3041
330
18
100
AcDbEntity
  8
0
100
AcDbLine
 10
1234.934969405782
 20
1049.335367852072
 30
0.0
 11
1234.934969405782
 21
1032.835367852072
 31
0.0
  0
LINE
  5
3042
330
18
100
AcDbEntity
  8
0
100
AcDbLine
 10
1024.315397872065
 20
1042.835367852072
 30
0.0
 11
1024.315397872065
 21
1032.835367852072
 31
0.0
  0
LINE
  5
3043
330
18
100
AcDbEntity
  8
0
100
AcDbLine
 10
1026.399295367222
 20
1046.787180007658
 30
0.0
 11
1026.399295367221
 21
1032.835367852072
 31
0.0
  0
LINE
  5
3044
330
18
100
AcDbEntity
  8
0
100
AcDbLine
 10
1030.340537276115
 20
1060.335367852072
 30
0.0
 11
1030.340537276115
 21
1029.835367852072
 31
0.0
  0
LINE
  5
3045
330
18
100
AcDbEntity
  8
0
100
AcDbLine
 10
968.365676680165
 20
1042.835367852072
 30
0.0
 11
968.365676680165
 21
1032.835367852072
 31
0.0
  0
LINE
  5
3046
330
18
100
AcDbEntity
  8
0
100
AcDbLine
 10
966.2817791850093
 20
1046.787180007658
 30
0.0
 11
966.2817791850093
 21
1032.835367852072
 31
0.0
  0
LINE
  5
3047
330
18
100
AcDbEntity
  8
0
100
AcDbLine
 10
962.3405372761153
 20
1060.335367852072
 30
0.0
 11
962.3405372761153
 21
1029.835367852072
 31
0.0
  0
LINE
  5
3048
330
18
100
AcDbEntity
  8
0
100
AcDbLine
 10
1138.270753043677
 20
991.3353678520721
 30
0.0
 11
1138.270753043677
 21
1041.335367852072
 31
0.0
  0
LINE
  5
3049
330
18
100
AcDbEntity
  8
0
100
AcDbLine
 10
1156.270753043677
 20
1041.335367852072
 30
0.0
 11
1156.270753043677
 21
941.3353678520721
 31
0.0
  0
CIRCLE
  5
304A
330
18
100
AcDbEntity
  8
0
100
AcDbCircle
 10
996.3405372761153
 20
991.3353678520721
 30
0.0
 40
50.0
  0
CIRCLE
  5
304B
330
18
100
AcDbEntity
  8
0
100
AcDbCircle
 10
969.8240329816199
 20
964.8188635575765
 30
0.0
 40
6.0
  0
LINE
  5
304C
330
18
100
AcDbEntity
  8
0
100
AcDbLine
 10
958.4568102658813
 20
1027.593097017254
 30
0.0
 11
962.3405372761153
 21
1029.835367852072
 31
0.0
  0
LINE
  5
304D
330
18
100
AcDbEntity
  8
0
100
AcDbLine
 10
958.4568102658813
 20
1027.593097017254
 30
0.0
 11
958.4568102658813
 21
1023.966997106739
 31
0.0
  0
ARC
  5
304E
330
18
100
AcDbEntity
  8
0
100
AcDbCircle
 10
964.0459774724094
 20
1032.835367852072
 30
0.0
 40
3.0
100
AcDbArc
 50
235.3556960380609
 51
269.9999999999998
  0
LINE
  5
304F
330
18
100
AcDbEntity
  8
0
100
AcDbLine
 10
964.4383429942172
 20
1029.835367852072
 30
0.0
 11
962.3405372761153
 21
1029.835367852072
 31
0.0
  0
ARC
  5
3050
330
18
100
AcDbEntity
  8
0
100
AcDbCircle
 10
964.0047536382198
 20
1021.850727102315
 30
0.0
 40
7.98464074975686
100
AcDbArc
 50
86.98307692166968
 51
105.9865730962936
  0
CIRCLE
  5
3051
330
18
100
AcDbEntity
  8
0
100
AcDbCircle
 10
969.8240329816199
 20
1017.851872146567
 30
0.0
 40
6.0
  0
LINE
  5
3052
330
18
100
AcDbEntity
  8
0
100
AcDbLine
 10
1156.270753043677
 20
941.3353678520721
 30
0.0
 11
1138.270753043677
 21
941.3353678520721
 31
0.0
  0
LINE
  5
3053
330
18
100
AcDbEntity
  8
0
100
AcDbLine
 10
1138.270753043677
 20
941.3353678520721
 30
0.0
 11
1138.270753043677
 21
991.3353678520721
 31
0.0
  0
CIRCLE
  5
3054
330
18
100
AcDbEntity
  8
0
100
AcDbCircle
 10
1022.85704157061
 20
964.8188635575765
 30
0.0
 40
6.0
  0
ARC
  5
3055
330
18
100
AcDbEntity
  8
0
100
AcDbCircle
 10
1028.676320914009
 20
1021.850727102315
 30
0.0
 40
7.98464074975686
100
AcDbArc
 50
74.01342690370642
 51
93.0169230783238
  0
LINE
  5
3056
330
18
100
AcDbEntity
  8
0
100
AcDbLine
 10
1034.224264286349
 20
1027.593097017254
 30
0.0
 11
1030.340537276115
 21
1029.835367852072
 31
0.0
  0
ARC
  5
3057
330
18
100
AcDbEntity
  8
0
100
AcDbCircle
 10
1028.635097079821
 20
1032.835367852072
 30
0.0
 40
3.0
100
AcDbArc
 50
270.0
 51
304.644303961939
  0
LINE
  5
3058
330
18
100
AcDbEntity
  8
0
100
AcDbLine
 10
1030.340537276115
 20
1029.835367852072
 30
0.0
 11
1028.242731558013
 21
1029.835367852072
 31
0.0
  0
CIRCLE
  5
3059
330
18
100
AcDbEntity
  8
0
100
AcDbCircle
 10
1022.85704157061
 20
1017.851872146567
 30
0.0
 40
6.0
  0
LINE
  5
305A
330
18
100
AcDbEntity
  8
0
100
AcDbLine
 10
1034.224264286349
 20
1027.593097017254
 30
0.0
 11
1034.224264286349
 21
1023.966997106739
 31
0.0
  0
ARC
  5
305B
330
18
100
AcDbEntity
  8
0
100
AcDbCircle
 10
1218.770753043677
 20
991.3353678520721
 30
0.0
 40
17.0
100
AcDbArc
 50
270.0
 51
299.9999999999996
  0
LINE
  5
305C
330
18
100
AcDbEntity
  8
0
100
AcDbLine
 10
1176.270753043677
 20
974.3353678520721
 30
0.0
 11
1218.770753043677
 21
974.3353678520721
 31
0.0
  0
LINE
  5
305D
330
18
100
AcDbEntity
  8
0
100
AcDbLine
 10
1176.270753043677
 20
974.3353678520721
 30
0.0
 11
1161.094056232847
 21
971.3000284899063
 31
0.0
  0
ARC
  5
305E
330
18
100
AcDbEntity
  8
0
100
AcDbCircle
 10
1162.270753043677
 20
965.4165444357607
 30
0.0
 40
6.0
100
AcDbArc
 50
101.3099324740198
 51
180.0
  0
ARC
  5
305F
330
18
100
AcDbEntity
  8
0
100
AcDbCircle
 10
1203.295892447727
 20
1032.835367852072
 30
0.0
 40
3.0
100
AcDbArc
 50
179.9999999999998
 51
270.0
  0
ARC
  5
3060
330
18
100
AcDbEntity
  8
0
100
AcDbCircle
 10
1195.934969405782
 20
1021.850727102315
 30
0.0
 40
7.98464074975686
100
AcDbArc
 50
45.9865730962944
 51
105.9865730962936
  0
ARC
  5
3061
330
18
100
AcDbEntity
  8
0
100
AcDbCircle
 10
1195.934969405782
 20
1022.820008601828
 30
0.0
 40
7.98464074975686
100
AcDbArc
 50
254.0134269037064
 51
314.0134269037055
  0
ARC
  5
3062
330
18
100
AcDbEntity
  8
0
100
AcDbCircle
 10
1208.152858624005
 20
1014.748869331985
 30
0.0
 40
8.770702025038644
100
AcDbArc
 50
214.0474486611768
 51
276.0493040949909
  0
LINE
  5
3063
330
18
100
AcDbEntity
  8
0
100
AcDbLine
 10
1176.270753043677
 20
1008.335367852072
 30
0.0
 11
1197.770753043677
 21
1008.335367852072
 31
0.0
  0
LINE
  5
3064
330
18
100
AcDbEntity
  8
0
100
AcDbLine
 10
1161.094056232847
 20
1011.370707214237
 30
0.0
 11
1176.270753043677
 21
1008.335367852072
 31
0.0
  0
ARC
  5
3065
330
18
100
AcDbEntity
  8
0
100
AcDbCircle
 10
1162.270753043677
 20
1017.254191268383
 30
0.0
 40
6.0
100
AcDbArc
 50
180.0
 51
258.6900675259801
  0
LINE
  5
3066
330
18
100
AcDbEntity
  8
0
100
AcDbLine
 10
1190.387026033443
 20
1027.593097017254
 30
0.0
 11
1194.270753043677
 21
1029.835367852072
 31
0.0
  0
ARC
  5
3067
330
18
100
AcDbEntity
  8
0
100
AcDbCircle
 10
1195.976193239971
 20
1032.835367852072
 30
0.0
 40
3.0
100
AcDbArc
 50
235.355696038061
 51
270.0
  0
LINE
  5
3068
330
18
100
AcDbEntity
  8
0
100
AcDbLine
 10
1190.387026033443
 20
1017.077638686889
 30
0.0
 11
1194.270753043677
 21
1014.835367852072
 31
0.0
  0
LINE
  5
3069
330
18
100
AcDbEntity
  8
0
100
AcDbLine
 10
1190.387026033443
 20
1017.077638686889
 30
0.0
 11
1194.270753043677
 21
1014.835367852072
 31
0.0
  0
LINE
  5
306A
330
18
100
AcDbEntity
  8
0
100
AcDbLine
 10
1190.387026033443
 20
1027.593097017254
 30
0.0
 11
1190.387026033443
 21
1017.077638686889
 31
0.0
  0
ARC
  5
306B
330
18
100
AcDbEntity
  8
0
100
AcDbCircle
 10
1197.770753043677
 20
1010.335367852072
 30
0.0
 40
2.0
100
AcDbArc
 50
270.0
 51
0.0
  0
LINE
  5
306C
330
18
100
AcDbEntity
  8
0
100
AcDbLine
 10
1199.770753043677
 20
1014.835367852072
 30
0.0
 11
1199.770753043677
 21
1010.335367852072
 31
0.0
  0
ARC
  5
306D
330
18
100
AcDbEntity
  8
0
100
AcDbCircle
 10
1244.270753043677
 20
1006.335367852072
 30
0.0
 40
1.0
100
AcDbArc
 50
0.0
 51
90.0
  0
ARC
  5
306E
330
18
100
AcDbEntity
  8
0
100
AcDbCircle
 10
1212.270753043677
 20
1006.335367852072
 30
0.0
 40
1.0
100
AcDbArc
 50
90.0
 51
180.0
  0
LINE
  5
306F
330
18
100
AcDbEntity
  8
0
100
AcDbLine
 10
1212.270753043677
 20
985.335367852072
 30
0.0
 11
1244.270753043677
 21
985.335367852072
 31
0.0
  0
LINE
  5
3070
330
18
100
AcDbEntity
  8
0
100
AcDbLine
 10
1212.270753043677
 20
1007.335367852072
 30
0.0
 11
1244.270753043677
 21
1007.335367852072
 31
0.0
  0
LINE
  5
3071
330
18
100
AcDbEntity
  8
0
100
AcDbLine
 10
1211.270753043677
 20
1006.335367852072
 30
0.0
 11
1211.270753043677
 21
986.335367852072
 31
0.0
  0
ARC
  5
3072
330
18
100
AcDbEntity
  8
0
100
AcDbCircle
 10
1212.270753043677
 20
986.335367852072
 30
0.0
 40
1.0
100
AcDbArc
 50
180.0
 51
270.0
  0
LINE
  5
3073
330
18
100
AcDbEntity
  8
0
100
AcDbLine
 10
1245.270753043677
 20
1006.335367852072
 30
0.0
 11
1245.270753043677
 21
986.335367852072
 31
0.0
  0
ARC
  5
3074
330
18
100
AcDbEntity
  8
0
100
AcDbCircle
 10
1244.270753043677
 20
986.335367852072
 30
0.0
 40
1.0
100
AcDbArc
 50
270.0
 51
0.0000000000000382
  0
ARC
  5
3075
330
18
100
AcDbEntity
  8
0
100
AcDbCircle
 10
1234.770753043677
 20
963.6225549309699
 30
0.0
 40
15.0
100
AcDbArc
 50
60.00000000000006
 51
119.9999999999999
  0
ARC
  5
3076
330
18
100
AcDbEntity
  8
0
100
AcDbCircle
 10
1214.876832910898
 20
988.7107917847655
 30
0.0
 40
41.12457606730651
100
AcDbArc
 50
70.992532412469
 51
109.0074675875309
  0
LINE
  5
3077
330
18
100
AcDbEntity
  8
0
100
AcDbLine
 10
1201.482912778121
 20
1029.835367852072
 30
0.0
 11
1228.270753043677
 21
1029.835367852072
 31
0.0
  0
ARC
  5
3078
330
18
100
AcDbEntity
  8
0
100
AcDbCircle
 10
1214.876832910898
 20
1055.959943919378
 30
0.0
 40
41.12457606730651
100
AcDbArc
 50
250.992532412469
 51
289.0074675875309
  0
ARC
  5
3079
330
18
100
AcDbEntity
  8
0
100
AcDbCircle
 10
1218.606536681572
 20
1032.835367852072
 30
0.0
 40
3.0
100
AcDbArc
 50
270.0
 51
0.0
  0
ARC
  5
307A
330
18
100
AcDbEntity
  8
0
100
AcDbCircle
 10
1215.606536681572
 20
1032.835367852072
 30
0.0
 40
3.0
100
AcDbArc
 50
270.0
 51
0.0
  0
LINE
  5
307B
330
18
100
AcDbEntity
  8
0
100
AcDbLine
 10
1201.482912778121
 20
1027.593097017254
 30
0.0
 11
1201.482912778121
 21
1017.077638686889
 31
0.0
  0
ARC
  5
307C
330
18
100
AcDbEntity
  8
0
100
AcDbCircle
 10
1240.934969405782
 20
1032.835367852072
 30
0.0
 40
3.0
100
AcDbArc
 50
180.0000000000001
 51
270.0
  0
ARC
  5
307D
330
18
100
AcDbEntity
  8
0
100
AcDbCircle
 10
1237.934969405782
 20
1032.835367852072
 30
0.0
 40
3.0
100
AcDbArc
 50
180.0000000000001
 51
270.0000000000001
  0
LINE
  5
307E
330
18
100
AcDbEntity
  8
0
100
AcDbLine
 10
1228.270753043677
 20
1027.593097017254
 30
0.0
 11
1228.270753043677
 21
1017.077638686889
 31
0.0
  0
LINE
  5
307F
330
18
100
AcDbEntity
  8
0
100
AcDbLine
 10
1028.635097079821
 20
1052.335367852072
 30
0.0
 11
1006.00475363822
 21
1052.335367852072
 31
0.0
  0
ARC
  5
3080
330
18
100
AcDbEntity
  8
0
100
AcDbCircle
 10
1009.00475363822
 20
1042.835367852072
 30
0.0
 40
3.0
100
AcDbArc
 50
90.00000000000005
 51
180.0
  0
LINE
  5
3081
330
18
100
AcDbEntity
  8
0
100
AcDbLine
 10
1024.340537276115
 20
1066.335367852072
 30
0.0
 11
968.3405372761153
 21
1066.335367852072
 31
0.0
  0
LINE
  5
3082
330
18
100
AcDbEntity
  8
0
100
AcDbLine
 10
964.0459774724094
 20
1052.335367852072
 30
0.0
 11
986.6763209140099
 21
1052.335367852072
 31
0.0
  0
ARC
  5
3083
330
18
100
AcDbEntity
  8
0
100
AcDbCircle
 10
983.6763209140109
 20
1042.835367852072
 30
0.0
 40
3.0
100
AcDbArc
 50
359.9999999999998
 51
89.99999999999987
  0
LINE
  5
3084
330
18
100
AcDbEntity
  8
0
100
AcDbLine
 10
965.6097763507778
 20
1048.282647669531
 30
0.0
 11
964.0459774724094
 21
1049.671323955385
 31
0.0
  0
ARC
  5
3085
330
18
100
AcDbEntity
  8
0
100
AcDbCircle
 10
964.0459774724094
 20
1049.335367852072
 30
0.0
 40
3.0
100
AcDbArc
 50
89.99999999999991
 51
124.6443039619388
  0
ARC
  5
3086
330
18
100
AcDbEntity
  8
0
100
AcDbCircle
 10
964.2817791850093
 20
1046.787180007658
 30
0.0
 40
2.0
100
AcDbArc
 50
0.000000000000007
 51
48.39445480393422
  0
LINE
  5
3087
330
18
100
AcDbEntity
  8
0
100
AcDbLine
 10
971.365676680165
 20
1045.835367852072
 30
0.0
 11
983.6763209140109
 21
1045.835367852072
 31
0.0
  0
ARC
  5
3088
330
18
100
AcDbEntity
  8
0
100
AcDbCircle
 10
968.3405372761153
 20
1060.335367852072
 30
0.0
 40
6.0
100
AcDbArc
 50
90.0
 51
180.0
  0
ARC
  5
3089
330
18
100
AcDbEntity
  8
0
100
AcDbCircle
 10
971.365676680165
 20
1042.835367852072
 30
0.0
 40
3.0
100
AcDbArc
 50
89.99999999999987
 51
180.0
  0
ARC
  5
308A
330
18
100
AcDbEntity
  8
0
100
AcDbCircle
 10
1006.00475363822
 20
1049.335367852072
 30
0.0
 40
3.0
100
AcDbArc
 50
90.00000000000003
 51
180.0
  0
LINE
  5
308B
330
18
100
AcDbEntity
  8
0
100
AcDbLine
 10
1006.00475363822
 20
1045.835367852072
 30
0.0
 11
1004.389369022836
 21
1049.335367852072
 31
0.0
  0
LINE
  5
308C
330
18
100
AcDbEntity
  8
0
100
AcDbLine
 10
1006.00475363822
 20
1042.835367852072
 30
0.0
 11
1006.00475363822
 21
1040.392507211256
 31
0.0
  0
LINE
  5
308D
330
18
100
AcDbEntity
  8
0
100
AcDbLine
 10
1003.00475363822
 20
1049.335367852072
 30
0.0
 11
1003.00475363822
 21
1040.889259932099
 31
0.0
  0
ARC
  5
308E
330
18
100
AcDbEntity
  8
0
100
AcDbCircle
 10
986.6763209140099
 20
1049.335367852072
 30
0.0
 40
3.0
100
AcDbArc
 50
359.9999999999998
 51
89.99999999999991
  0
LINE
  5
308F
330
18
100
AcDbEntity
  8
0
100
AcDbLine
 10
986.6763209140108
 20
1045.835367852072
 30
0.0
 11
988.2917055293946
 21
1049.335367852072
 31
0.0
  0
LINE
  5
3090
330
18
100
AcDbEntity
  8
0
100
AcDbLine
 10
986.6763209140108
 20
1042.835367852072
 30
0.0
 11
986.6763209140108
 21
1040.392507211256
 31
0.0
  0
LINE
  5
3091
330
18
100
AcDbEntity
  8
0
100
AcDbLine
 10
989.6763209140098
 20
1049.335367852072
 30
0.0
 11
989.6763209140098
 21
1040.889259932099
 31
0.0
  0
LINE
  5
3092
330
18
100
AcDbEntity
  8
0
100
AcDbLine
 10
1138.270753043677
 20
1149.423402312165
 30
0.0
 11
1138.270753043677
 21
1199.423402312165
 31
0.0
  0
LINE
  5
3093
330
18
100
AcDbEntity
  8
0
100
AcDbLine
 10
1156.270753043677
 20
1249.423402312165
 30
0.0
 11
1156.270753043677
 21
1149.423402312165
 31
0.0
  0
LINE
  5
3094
330
18
100
AcDbEntity
  8
0
100
AcDbLine
 10
1156.270753043677
 20
1149.423402312165
 30
0.0
 11
1138.270753043677
 21
1149.423402312165
 31
0.0
  0
LINE
  5
3095
330
18
100
AcDbEntity
  8
0
100
AcDbLine
 10
1138.270753043677
 20
1041.335367852072
 30
0.0
 11
1156.270753043677
 21
1041.335367852072
 31
0.0
  0
ARC
  5
3096
330
18
100
AcDbEntity
  8
0
100
AcDbCircle
 10
1024.340537276115
 20
1060.335367852072
 30
0.0
 40
6.0
100
AcDbArc
 50
0.000000000000007
 51
90.0
  0
LINE
  5
3097
330
18
100
AcDbEntity
  8
0
100
AcDbLine
 10
1021.315397872065
 20
1045.835367852072
 30
0.0
 11
1009.00475363822
 21
1045.835367852072
 31
0.0
  0
ARC
  5
3098
330
18
100
AcDbEntity
  8
0
100
AcDbCircle
 10
1028.399295367222
 20
1046.787180007658
 30
0.0
 40
2.0
100
AcDbArc
 50
131.6055451960656
 51
179.9999999999998
  0
LINE
  5
3099
330
18
100
AcDbEntity
  8
0
100
AcDbLine
 10
1027.071298201452
 20
1048.282647669531
 30
0.0
 11
1028.635097079821
 21
1049.671323955385
 31
0.0
  0
ARC
  5
309A
330
18
100
AcDbEntity
  8
0
100
AcDbCircle
 10
1028.635097079821
 20
1049.335367852072
 30
0.0
 40
3.0
100
AcDbArc
 50
55.35569603806104
 51
90.00000000000003
  0
ARC
  5
309B
330
18
100
AcDbEntity
  8
0
100
AcDbCircle
 10
1021.315397872065
 20
1042.835367852072
 30
0.0
 40
3.0
100
AcDbArc
 50
359.9999999999998
 51
90.00000000000005
  0
LINE
  5
309C
330
18
100
AcDbEntity
  8
0
100
AcDbLine
 10
1195.976193239971
 20
1052.335367852072
 30
0.0
 11
1218.606536681572
 21
1052.335367852072
 31
0.0
  0
ARC
  5
309D
330
18
100
AcDbEntity
  8
0
100
AcDbCircle
 10
1203.295892447727
 20
1042.835367852072
 30
0.0
 40
3.0
100
AcDbArc
 50
89.99999999999994
 51
180.0000000000001
  0
ARC
  5
309E
330
18
100
AcDbEntity
  8
0
100
AcDbCircle
 10
1195.976193239971
 20
1049.335367852072
 30
0.0
 40
3.0
100
AcDbArc
 50
89.99999999999998
 51
124.6443039619389
  0
LINE
  5
309F
330
18
100
AcDbEntity
  8
0
100
AcDbLine
 10
1197.539992118339
 20
1048.282647669531
 30
0.0
 11
1195.976193239971
 21
1049.671323955385
 31
0.0
  0
ARC
  5
30A0
330
18
100
AcDbEntity
  8
0
100
AcDbCircle
 10
1196.21199495257
 20
1046.787180007658
 30
0.0
 40
2.0
100
AcDbArc
 50
0.0000000000001018
 51
48.39445480393429
  0
ARC
  5
30A1
330
18
100
AcDbEntity
  8
0
100
AcDbCircle
 10
1200.270753043677
 20
1060.335367852072
 30
0.0
 40
6.0
100
AcDbArc
 50
90.0
 51
180.0
  0
LINE
  5
30A2
330
18
100
AcDbEntity
  8
0
100
AcDbLine
 10
1203.295892447727
 20
1045.835367852072
 30
0.0
 11
1215.606536681572
 21
1045.835367852072
 31
0.0
  0
LINE
  5
30A3
330
18
100
AcDbEntity
  8
0
100
AcDbLine
 10
1218.606536681572
 20
1045.835367852072
 30
0.0
 11
1220.221921296956
 21
1049.335367852072
 31
0.0
  0
ARC
  5
30A4
330
18
100
AcDbEntity
  8
0
100
AcDbCircle
 10
1218.606536681572
 20
1049.335367852072
 30
0.0
 40
3.0
100
AcDbArc
 50
0.0
 51
89.99999999999998
  0
ARC
  5
30A5
330
18
100
AcDbEntity
  8
0
100
AcDbCircle
 10
1215.606536681572
 20
1042.835367852072
 30
0.0
 40
3.0
100
AcDbArc
 50
0.0
 51
89.99999999999994
  0
LINE
  5
30A6
330
18
100
AcDbEntity
  8
0
100
AcDbLine
 10
1237.934969405781
 20
1045.835367852072
 30
0.0
 11
1236.319584790398
 21
1049.335367852072
 31
0.0
  0
ARC
  5
30A7
330
18
100
AcDbEntity
  8
0
100
AcDbCircle
 10
1237.934969405782
 20
1049.335367852072
 30
0.0
 40
3.0
100
AcDbArc
 50
90.00000000000012
 51
180.0000000000001
  0
ARC
  5
30A8
330
18
100
AcDbEntity
  8
0
100
AcDbCircle
 10
1240.934969405782
 20
1042.835367852072
 30
0.0
 40
3.0
100
AcDbArc
 50
90.00000000000014
 51
180.0000000000001
  0
LINE
  5
30A9
330
18
100
AcDbEntity
  8
0
100
AcDbLine
 10
1138.270753043677
 20
1249.423402312165
 30
0.0
 11
1156.270753043677
 21
1249.423402312165
 31
0.0
  0
LINE
  5
30AA
330
18
100
AcDbEntity
  8
0
100
AcDbLine
 10
1138.270753043677
 20
1199.423402312165
 30
0.0
 11
1138.270753043677
 21
1249.423402312165
 31
0.0
  0
LINE
  5
30AB
330
18
100
AcDbEntity
  8
0
100
AcDbLine
 10
1176.270753043677
 20
1182.423402312165
 30
0.0
 11
1197.428656593786
 21
1182.423402312165
 31
0.0
  0
LINE
  5
30AC
330
18
100
AcDbEntity
  8
0
100
AcDbLine
 10
1176.270753043677
 20
1182.423402312165
 30
0.0
 11
1161.094056232847
 21
1179.388062949999
 31
0.0
  0
ARC
  5
30AD
330
18
100
AcDbEntity
  8
0
100
AcDbCircle
 10
1162.270753043677
 20
1173.504578895854
 30
0.0
 40
6.0
100
AcDbArc
 50
101.3099324740198
 51
180.0
  0
LINE
  5
30AE
330
18
100
AcDbEntity
  8
0
100
AcDbLine
 10
1176.270753043677
 20
1216.423402312165
 30
0.0
 11
1197.770753043677
 21
1216.423402312165
 31
0.0
  0
LINE
  5
30AF
330
18
100
AcDbEntity
  8
0
100
AcDbLine
 10
1161.094056232847
 20
1219.458741674331
 30
0.0
 11
1176.270753043677
 21
1216.423402312165
 31
0.0
  0
ARC
  5
30B0
330
18
100
AcDbEntity
  8
0
100
AcDbCircle
 10
1162.270753043677
 20
1225.342225728477
 30
0.0
 40
6.0
100
AcDbArc
 50
180.0
 51
258.6900675259801
  0
LINE
  5
30B1
330
18
100
AcDbEntity
  8
0
100
AcDbLine
 10
583.7283700532989
 20
1405.664292251892
 30
0.0
 11
583.7283700532989
 21
1310.664292251892
 31
0.0
  0
LINE
  5
30B2
330
18
100
AcDbEntity
  8
0
100
AcDbLine
 10
599.7283700532989
 20
1358.164292251892
 30
0.0
 11
599.7283700532989
 21
1405.664292251892
 31
0.0
  0
ARC
  5
30B3
330
18
100
AcDbEntity
  8
0
100
AcDbCircle
 10
577.7283700532989
 20
1335.745468835581
 30
0.0
 40
6.0
100
AcDbArc
 50
0.0
 51
78.69006752598011
  0
LINE
  5
30B4
330
18
100
AcDbEntity
  8
0
100
AcDbLine
 10
563.7283700532988
 20
1344.664292251892
 30
0.0
 11
578.9050668641279
 21
1341.628952889726
 31
0.0
  0
LINE
  5
30B5
330
18
100
AcDbEntity
  8
0
100
AcDbLine
 10
599.7283700532989
 20
1310.664292251892
 30
0.0
 11
599.7283700532989
 21
1358.164292251892
 31
0.0
  0
LINE
  5
30B6
330
18
100
AcDbEntity
  8
0
100
AcDbLine
 10
583.7283700532989
 20
1310.664292251892
 30
0.0
 11
599.7283700532989
 21
1310.664292251892
 31
0.0
  0
ARC
  5
30B7
330
18
100
AcDbEntity
  8
0
100
AcDbCircle
 10
577.7283700532989
 20
1380.583115668204
 30
0.0
 40
6.0
100
AcDbArc
 50
281.3099324740198
 51
0.0
  0
LINE
  5
30B8
330
18
100
AcDbEntity
  8
0
100
AcDbLine
 10
540.2032306492497
 20
1405.664292251892
 30
0.0
 11
540.2032306492497
 21
1395.664292251892
 31
0.0
  0
LINE
  5
30B9
330
18
100
AcDbEntity
  8
0
100
AcDbLine
 10
542.2871281444054
 20
1409.616104407478
 30
0.0
 11
542.287128144405
 21
1395.664292251892
 31
0.0
  0
LINE
  5
30BA
330
18
100
AcDbEntity
  8
0
100
AcDbLine
 10
546.2283700532989
 20
1423.164292251892
 30
0.0
 11
546.2283700532989
 21
1392.664292251892
 31
0.0
  0
LINE
  5
30BB
330
18
100
AcDbEntity
  8
0
100
AcDbLine
 10
563.7283700532988
 20
1371.664292251892
 30
0.0
 11
542.7283700532989
 21
1371.664292251892
 31
0.0
  0
LINE
  5
30BC
330
18
100
AcDbEntity
  8
0
100
AcDbLine
 10
550.1120970635329
 20
1390.422021417075
 30
0.0
 11
550.1120970635329
 21
1379.90656308671
 31
0.0
  0
LINE
  5
30BD
330
18
100
AcDbEntity
  8
0
100
AcDbLine
 10
539.016210318855
 20
1390.422021417075
 30
0.0
 11
539.016210318855
 21
1379.90656308671
 31
0.0
  0
ARC
  5
30BE
330
18
100
AcDbEntity
  8
0
100
AcDbCircle
 10
544.5641536911939
 20
1385.648933001649
 30
0.0
 40
7.98464074975686
100
AcDbArc
 50
225.9865730962943
 51
285.9865730962935
  0
LINE
  5
30BF
330
18
100
AcDbEntity
  8
0
100
AcDbLine
 10
550.1120970635329
 20
1379.90656308671
 30
0.0
 11
546.2283700532989
 21
1377.664292251892
 31
0.0
  0
LINE
  5
30C0
330
18
100
AcDbEntity
  8
0
100
AcDbLine
 10
550.1120970635329
 20
1379.90656308671
 30
0.0
 11
546.2283700532989
 21
1377.664292251892
 31
0.0
  0
ARC
  5
30C1
330
18
100
AcDbEntity
  8
0
100
AcDbCircle
 10
544.5641536911939
 20
1384.679651502136
 30
0.0
 40
7.98464074975686
100
AcDbArc
 50
74.0134269037064
 51
134.0134269037056
  0
ARC
  5
30C2
330
18
100
AcDbEntity
  8
0
100
AcDbCircle
 10
544.5229298570043
 20
1395.664292251892
 30
0.0
 40
3.0
100
AcDbArc
 50
270.0
 51
304.644303961939
  0
ARC
  5
30C3
330
18
100
AcDbEntity
  8
0
100
AcDbCircle
 10
537.2032306492497
 20
1395.664292251892
 30
0.0
 40
3.0
100
AcDbArc
 50
269.9999999999999
 51
0.0000000000001018
  0
LINE
  5
30C4
330
18
100
AcDbEntity
  8
0
100
AcDbLine
 10
550.1120970635329
 20
1390.422021417075
 30
0.0
 11
546.2283700532989
 21
1392.664292251892
 31
0.0
  0
ARC
  5
30C5
330
18
100
AcDbEntity
  8
0
100
AcDbCircle
 10
542.7283700532989
 20
1373.664292251892
 30
0.0
 40
2.0
100
AcDbArc
 50
180.0
 51
270.0
  0
LINE
  5
30C6
330
18
100
AcDbEntity
  8
0
100
AcDbLine
 10
540.7283700532989
 20
1377.664292251892
 30
0.0
 11
540.7283700532989
 21
1373.664292251892
 31
0.0
  0
LINE
  5
30C7
330
18
100
AcDbEntity
  8
0
100
AcDbLine
 10
578.9050668641279
 20
1374.699631614058
 30
0.0
 11
563.7283700532988
 21
1371.664292251892
 31
0.0
  0
ARC
  5
30C8
330
18
100
AcDbEntity
  8
0
100
AcDbCircle
 10
540.2283700532989
 20
1423.164292251892
 30
0.0
 40
6.0
100
AcDbArc
 50
0.0
 51
90.0
  0
ARC
  5
30C9
330
18
100
AcDbEntity
  8
0
100
AcDbCircle
 10
544.2871281444054
 20
1409.616104407478
 30
0.0
 40
2.0
100
AcDbArc
 50
131.6055451960656
 51
179.9999999999998
  0
ARC
  5
30CA
330
18
100
AcDbEntity
  8
0
100
AcDbCircle
 10
537.2032306492497
 20
1405.664292251892
 30
0.0
 40
3.0
100
AcDbArc
 50
359.9999999999998
 51
90.00000000000005
  0
LINE
  5
30CB
330
18
100
AcDbEntity
  8
0
100
AcDbLine
 10
542.9591309786364
 20
1411.111572069352
 30
0.0
 11
544.5229298570043
 21
1412.500248355206
 31
0.0
  0
ARC
  5
30CC
330
18
100
AcDbEntity
  8
0
100
AcDbCircle
 10
544.5229298570043
 20
1412.164292251892
 30
0.0
 40
3.0
100
AcDbArc
 50
55.35569603806103
 51
90.00000000000003
  0
LINE
  5
30CD
330
18
100
AcDbEntity
  8
0
100
AcDbLine
 10
599.7283700532989
 20
1405.664292251892
 30
0.0
 11
583.7283700532989
 21
1405.664292251892
 31
0.0
  0
ARC
  5
30CE
330
18
100
AcDbEntity
  8
0
100
AcDbCircle
 10
1200.270753043677
 20
1427.164292251892
 30
0.0
 40
6.0
100
AcDbArc
 50
90.0
 51
180.0
  0
LINE
  5
30CF
330
18
100
AcDbEntity
  8
0
100
AcDbLine
 10
1138.270753043677
 20
1408.164292251892
 30
0.0
 11
1156.270753043677
 21
1408.164292251892
 31
0.0
  0
LINE
  5
30D0
330
18
100
AcDbEntity
  8
0
100
AcDbLine
 10
1156.270753043677
 20
1308.164292251892
 30
0.0
 11
1138.270753043677
 21
1308.164292251892
 31
0.0
  0
LINE
  5
30D1
330
18
100
AcDbEntity
  8
0
100
AcDbLine
 10
1138.270753043677
 20
1358.164292251892
 30
0.0
 11
1138.270753043677
 21
1408.164292251892
 31
0.0
  0
LINE
  5
30D2
330
18
100
AcDbEntity
  8
0
100
AcDbLine
 10
1138.270753043677
 20
1308.164292251892
 30
0.0
 11
1138.270753043677
 21
1358.164292251892
 31
0.0
  0
LINE
  5
30D3
330
18
100
AcDbEntity
  8
0
100
AcDbLine
 10
1156.270753043677
 20
1408.164292251892
 30
0.0
 11
1156.270753043677
 21
1308.164292251892
 31
0.0
  0
LINE
  5
30D4
330
18
100
AcDbEntity
  8
0
100
AcDbLine
 10
1205.770753043677
 20
1341.164292251892
 30
0.0
 11
1176.270753043677
 21
1341.164292251892
 31
0.0
  0
ARC
  5
30D5
330
18
100
AcDbEntity
  8
0
100
AcDbCircle
 10
1162.270753043677
 20
1332.245468835581
 30
0.0
 40
6.0
100
AcDbArc
 50
101.3099324740198
 51
180.0
  0
LINE
  5
30D6
330
18
100
AcDbEntity
  8
0
100
AcDbLine
 10
1176.270753043677
 20
1341.164292251892
 30
0.0
 11
1161.094056232847
 21
1338.128952889727
 31
0.0
  0
ARC
  5
30D7
330
18
100
AcDbEntity
  8
0
100
AcDbCircle
 10
1221.770753043677
 20
1330.45147933079
 30
0.0
 40
15.0
100
AcDbArc
 50
60.00000000000006
 51
119.9999999999999
  0
ARC
  5
30D8
330
18
100
AcDbEntity
  8
0
100
AcDbCircle
 10
1205.770753043677
 20
1358.164292251892
 30
0.0
 40
17.0
100
AcDbArc
 50
270.0
 51
299.9999999999996
  0
ARC
  5
30D9
330
18
100
AcDbEntity
  8
0
100
AcDbCircle
 10
1237.770753043677
 20
1358.164292251892
 30
0.0
 40
17.0
100
AcDbArc
 50
240.0000000000003
 51
270.0
  0
LINE
  5
30DA
330
18
100
AcDbEntity
  8
0
100
AcDbLine
 10
1195.976193239971
 20
1419.164292251892
 30
0.0
 11
1218.606536681572
 21
1419.164292251892
 31
0.0
  0
ARC
  5
30DB
330
18
100
AcDbEntity
  8
0
100
AcDbCircle
 10
1203.295892447727
 20
1409.664292251892
 30
0.0
 40
3.0
100
AcDbArc
 50
89.99999999999984
 51
180.0
  0
ARC
  5
30DC
330
18
100
AcDbEntity
  8
0
100
AcDbCircle
 10
1195.934969405781
 20
1389.648933001649
 30
0.0
 40
7.98464074975686
100
AcDbArc
 50
254.0134269037064
 51
314.0134269037056
  0
ARC
  5
30DD
330
18
100
AcDbEntity
  8
0
100
AcDbCircle
 10
1203.295892447727
 20
1399.664292251892
 30
0.0
 40
3.0
100
AcDbArc
 50
179.9999999999998
 51
269.9999999999999
  0
ARC
  5
30DE
330
18
100
AcDbEntity
  8
0
100
AcDbCircle
 10
1195.934969405781
 20
1388.679651502136
 30
0.0
 40
7.98464074975686
100
AcDbArc
 50
45.9865730962944
 51
105.9865730962936
  0
LINE
  5
30DF
330
18
100
AcDbEntity
  8
0
100
AcDbLine
 10
1200.295892447727
 20
1409.664292251892
 30
0.0
 11
1200.295892447727
 21
1399.664292251892
 31
0.0
  0
LINE
  5
30E0
330
18
100
AcDbEntity
  8
0
100
AcDbLine
 10
1198.211994952571
 20
1413.616104407478
 30
0.0
 11
1198.211994952571
 21
1399.664292251892
 31
0.0
  0
LINE
  5
30E1
330
18
100
AcDbEntity
  8
0
100
AcDbLine
 10
1194.270753043677
 20
1427.164292251892
 30
0.0
 11
1194.270753043677
 21
1396.664292251892
 31
0.0
  0
LINE
  5
30E2
330
18
100
AcDbEntity
  8
0
100
AcDbLine
 10
1197.770753043677
 20
1375.164292251892
 30
0.0
 11
1176.270753043677
 21
1375.164292251892
 31
0.0
  0
LINE
  5
30E3
330
18
100
AcDbEntity
  8
0
100
AcDbLine
 10
1161.094056232847
 20
1378.199631614058
 30
0.0
 11
1176.270753043677
 21
1375.164292251892
 31
0.0
  0
ARC
  5
30E4
330
18
100
AcDbEntity
  8
0
100
AcDbCircle
 10
1162.270753043677
 20
1384.083115668204
 30
0.0
 40
6.0
100
AcDbArc
 50
180.0
 51
258.6900675259801
  0
LINE
  5
30E5
330
18
100
AcDbEntity
  8
0
100
AcDbLine
 10
1190.387026033443
 20
1394.422021417075
 30
0.0
 11
1190.387026033443
 21
1383.90656308671
 31
0.0
  0
LINE
  5
30E6
330
18
100
AcDbEntity
  8
0
100
AcDbLine
 10
1199.770753043677
 20
1381.664292251892
 30
0.0
 11
1199.770753043677
 21
1377.164292251892
 31
0.0
  0
LINE
  5
30E7
330
18
100
AcDbEntity
  8
0
100
AcDbLine
 10
1190.387026033443
 20
1383.90656308671
 30
0.0
 11
1194.270753043677
 21
1381.664292251892
 31
0.0
  0
LINE
  5
30E8
330
18
100
AcDbEntity
  8
0
100
AcDbLine
 10
1190.387026033443
 20
1383.90656308671
 30
0.0
 11
1194.270753043677
 21
1381.664292251892
 31
0.0
  0
ARC
  5
30E9
330
18
100
AcDbEntity
  8
0
100
AcDbCircle
 10
1197.770753043677
 20
1377.164292251892
 30
0.0
 40
2.0
100
AcDbArc
 50
270.0
 51
0.0
  0
LINE
  5
30EA
330
18
100
AcDbEntity
  8
0
100
AcDbLine
 10
1190.387026033443
 20
1394.422021417075
 30
0.0
 11
1194.270753043677
 21
1396.664292251892
 31
0.0
  0
ARC
  5
30EB
330
18
100
AcDbEntity
  8
0
100
AcDbCircle
 10
1195.976193239971
 20
1399.664292251892
 30
0.0
 40
3.0
100
AcDbArc
 50
235.3556960380609
 51
269.9999999999998
  0
ARC
  5
30EC
330
18
100
AcDbEntity
  8
0
100
AcDbCircle
 10
1195.976193239971
 20
1416.164292251892
 30
0.0
 40
3.0
100
AcDbArc
 50
89.99999999999991
 51
124.6443039619388
  0
ARC
  5
30ED
330
18
100
AcDbEntity
  8
0
100
AcDbCircle
 10
1196.211994952571
 20
1413.616104407478
 30
0.0
 40
2.0
100
AcDbArc
 50
0.0
 51
48.39445480393422
  0
LINE
  5
30EE
330
18
100
AcDbEntity
  8
0
100
AcDbLine
 10
1197.539992118339
 20
1415.111572069352
 30
0.0
 11
1195.976193239971
 21
1416.500248355206
 31
0.0
  0
LINE
  5
30EF
330
18
100
AcDbEntity
  8
0
100
AcDbLine
 10
1237.934969405782
 20
1409.664292251892
 30
0.0
 11
1237.934969405782
 21
1399.664292251892
 31
0.0
  0
LINE
  5
30F0
330
18
100
AcDbEntity
  8
0
100
AcDbLine
 10
1234.934969405782
 20
1416.164292251892
 30
0.0
 11
1234.934969405782
 21
1399.664292251892
 31
0.0
  0
LINE
  5
30F1
330
18
100
AcDbEntity
  8
0
100
AcDbLine
 10
1218.606536681573
 20
1409.664292251892
 30
0.0
 11
1218.606536681572
 21
1399.664292251892
 31
0.0
  0
LINE
  5
30F2
330
18
100
AcDbEntity
  8
0
100
AcDbLine
 10
1221.606536681572
 20
1416.164292251892
 30
0.0
 11
1221.606536681572
 21
1399.664292251892
 31
0.0
  0
ARC
  5
30F3
330
18
100
AcDbEntity
  8
0
100
AcDbCircle
 10
1214.876832910898
 20
1422.788868319199
 30
0.0
 40
41.12457606730651
100
AcDbArc
 50
250.992532412469
 51
289.0074675875309
  0
ARC
  5
30F4
330
18
100
AcDbEntity
  8
0
100
AcDbCircle
 10
1214.876832910898
 20
1355.539716184586
 30
0.0
 40
41.12457606730651
100
AcDbArc
 50
70.99253241246905
 51
109.0074675875309
  0
LINE
  5
30F5
330
18
100
AcDbEntity
  8
0
100
AcDbLine
 10
1201.482912778121
 20
1394.422021417075
 30
0.0
 11
1201.482912778121
 21
1383.90656308671
 31
0.0
  0
ARC
  5
30F6
330
18
100
AcDbEntity
  8
0
100
AcDbCircle
 10
1215.606536681572
 20
1399.664292251892
 30
0.0
 40
3.0
100
AcDbArc
 50
269.9999999999999
 51
359.9999999999998
  0
ARC
  5
30F7
330
18
100
AcDbEntity
  8
0
100
AcDbCircle
 10
1218.606536681572
 20
1399.664292251892
 30
0.0
 40
3.0
100
AcDbArc
 50
269.9999999999998
 51
359.9999999999998
  0
LINE
  5
30F8
330
18
100
AcDbEntity
  8
0
100
AcDbLine
 10
1228.270753043677
 20
1394.422021417075
 30
0.0
 11
1228.270753043677
 21
1383.90656308671
 31
0.0
  0
ARC
  5
30F9
330
18
100
AcDbEntity
  8
0
100
AcDbCircle
 10
1240.934969405782
 20
1399.664292251892
 30
0.0
 40
3.0
100
AcDbArc
 50
180.0
 51
269.9999999999999
  0
ARC
  5
30FA
330
18
100
AcDbEntity
  8
0
100
AcDbCircle
 10
1237.934969405782
 20
1399.664292251892
 30
0.0
 40
3.0
100
AcDbArc
 50
180.0
 51
270.0
  0
LINE
  5
30FB
330
18
100
AcDbEntity
  8
0
100
AcDbLine
 10
1203.295892447727
 20
1412.664292251892
 30
0.0
 11
1215.606536681572
 21
1412.664292251892
 31
0.0
  0
LINE
  5
30FC
330
18
100
AcDbEntity
  8
0
100
AcDbLine
 10
1218.606536681573
 20
1412.664292251892
 30
0.0
 11
1220.221921296956
 21
1416.164292251892
 31
0.0
  0
ARC
  5
30FD
330
18
100
AcDbEntity
  8
0
100
AcDbCircle
 10
1218.606536681572
 20
1416.164292251892
 30
0.0
 40
3.0
100
AcDbArc
 50
359.9999999999998
 51
89.99999999999991
  0
ARC
  5
30FE
330
18
100
AcDbEntity
  8
0
100
AcDbCircle
 10
1215.606536681572
 20
1409.664292251892
 30
0.0
 40
3.0
100
AcDbArc
 50
359.9999999999998
 51
89.99999999999984
  0
LINE
  5
30FF
330
18
100
AcDbEntity
  8
0
100
AcDbLine
 10
1237.934969405782
 20
1412.664292251892
 30
0.0
 11
1236.319584790398
 21
1416.164292251892
 31
0.0
  0
ARC
  5
3100
330
18
100
AcDbEntity
  8
0
100
AcDbCircle
 10
1240.934969405782
 20
1409.664292251892
 30
0.0
 40
3.0
100
AcDbArc
 50
90.00000000000005
 51
180.0
  0
ARC
  5
3101
330
18
100
AcDbEntity
  8
0
100
AcDbCircle
 10
1237.934969405782
 20
1416.164292251892
 30
0.0
 40
3.0
100
AcDbArc
 50
90.00000000000003
 51
180.0
  0
LINE
  5
3102
330
18
100
AcDbEntity
  8
0
100
AcDbLine
 10
1978.091297479549
 20
791.1056988241762
 30
0.0
 11
1955.460954037948
 21
791.1056988241762
 31
0.0
  0
LINE
  5
3103
330
18
100
AcDbEntity
  8
0
100
AcDbLine
 10
1973.796737675843
 20
805.1056988241763
 30
0.0
 11
1917.796737675843
 21
805.1056988241763
 31
0.0
  0
LINE
  5
3104
330
18
100
AcDbEntity
  8
0
100
AcDbLine
 10
1970.771598271793
 20
784.6056988241762
 30
0.0
 11
1958.460954037948
 21
784.6056988241762
 31
0.0
  0
LINE
  5
3105
330
18
100
AcDbEntity
  8
0
100
AcDbLine
 10
1979.796737675843
 20
768.6056988241761
 30
0.0
 11
1911.796737675843
 21
768.6056988241761
 31
0.0
  0
ARC
  5
3106
330
18
100
AcDbEntity
  8
0
100
AcDbCircle
 10
1959.190657808622
 20
727.4811227568697
 30
0.0
 40
41.12457606730651
100
AcDbArc
 50
70.99253241246902
 51
109.0074675875309
  0
LINE
  5
3107
330
18
100
AcDbEntity
  8
0
100
AcDbLine
 10
1972.584577941399
 20
768.6056988241761
 30
0.0
 11
1945.796737675843
 21
768.6056988241761
 31
0.0
  0
ARC
  5
3108
330
18
100
AcDbEntity
  8
0
100
AcDbCircle
 10
1945.796737675843
 20
764.7852293139258
 30
0.0
 40
36.64688905812354
100
AcDbArc
 50
234.7475536378898
 51
304.9976152776384
  0
LINE
  5
3109
330
18
100
AcDbEntity
  8
0
100
AcDbLine
 10
1979.796737675843
 20
753.6056988241762
 30
0.0
 11
1911.796737675843
 21
753.6056988241762
 31
0.0
  0
ARC
  5
310A
330
18
100
AcDbEntity
  8
0
100
AcDbCircle
 10
1959.190657808622
 20
794.7302748914826
 30
0.0
 40
41.12457606730651
100
AcDbArc
 50
250.992532412469
 51
289.0074675875309
  0
ARC
  5
310B
330
18
100
AcDbEntity
  8
0
100
AcDbCircle
 10
1971.296737675843
 20
709.1056988241762
 30
0.0
 40
33.0
100
AcDbArc
 50
237.1048450319142
 51
270.0
  0
LINE
  5
310C
330
18
100
AcDbEntity
  8
0
100
AcDbLine
 10
1957.587097658876
 20
529.0100862058753
 30
0.0
 11
1995.796737675843
 21
529.0100862058753
 31
0.0
  0
LINE
  5
310D
330
18
100
AcDbEntity
  8
0
100
AcDbLine
 10
1957.587097658876
 20
463.0100862058752
 30
0.0
 11
1995.796737675843
 21
463.0100862058752
 31
0.0
  0
CIRCLE
  5
310E
330
18
100
AcDbEntity
  8
0
100
AcDbCircle
 10
1945.796737675843
 20
496.0100862058753
 30
0.0
 40
20.24999999999999
  0
LINE
  5
310F
330
18
100
AcDbEntity
  8
0
100
AcDbLine
 10
1917.796737675843
 20
366.7574157700528
 30
0.0
 11
1973.796737675843
 21
366.7574157700528
 31
0.0
  0
LINE
  5
3110
330
18
100
AcDbEntity
  8
0
100
AcDbLine
 10
1970.771598271793
 20
346.257415770053
 30
0.0
 11
1958.460954037947
 21
346.2574157700528
 31
0.0
  0
LINE
  5
3111
330
18
100
AcDbEntity
  8
0
100
AcDbLine
 10
1978.091297479549
 20
352.757415770053
 30
0.0
 11
1955.460954037948
 21
352.7574157700528
 31
0.0
  0
LINE
  5
3112
330
18
100
AcDbEntity
  8
0
100
AcDbLine
 10
1911.796737675843
 20
330.2574157700528
 30
0.0
 11
1979.796737675843
 21
330.2574157700528
 31
0.0
  0
ARC
  5
3113
330
18
100
AcDbEntity
  8
0
100
AcDbCircle
 10
1959.190657808622
 20
289.1328397027464
 30
0.0
 40
41.12457606730651
100
AcDbArc
 50
70.99253241246902
 51
109.0074675875309
  0
LINE
  5
3114
330
18
100
AcDbEntity
  8
0
100
AcDbLine
 10
1911.796737675843
 20
315.2574157700528
 30
0.0
 11
1979.796737675843
 21
315.2574157700528
 31
0.0
  0
ARC
  5
3115
330
18
100
AcDbEntity
  8
0
100
AcDbCircle
 10
1959.190657808622
 20
356.3819918373592
 30
0.0
 40
41.12457606730651
100
AcDbArc
 50
250.992532412469
 51
289.0074675875309
  0
LINE
  5
3116
330
18
100
AcDbEntity
  8
0
100
AcDbLine
 10
1920.796737675843
 20
287.7574157700528
 30
0.0
 11
1970.796737675843
 21
287.7574157700528
 31
0.0
  0
LINE
  5
3117
330
18
100
AcDbEntity
  8
0
100
AcDbLine
 10
1920.796737675843
 20
253.7574157700528
 30
0.0
 11
1970.796737675843
 21
253.7574157700528
 31
0.0
  0
ARC
  5
3118
330
18
100
AcDbEntity
  8
0
100
AcDbCircle
 10
1951.796737675843
 20
222.0567997575215
 30
0.0
 40
25.0
100
AcDbArc
 50
57.10484503191369
 51
122.8951549680854
  0
TEXT
  5
3119
330
18
100
AcDbEntity
  8
0
100
AcDbText
 10
1927.051747696587
 20
186.1267755676804
 30
0.0
 40
20.0
  1
50A
 41
0.8
 11
1927.051747696587
 21
186.1267755676804
 31
0.0
100
AcDbText
 73
     1
  0
CIRCLE
  5
311A
330
18
100
AcDbEntity
  8
0
100
AcDbCircle
 10
1945.796737675843
 20
496.0100862058753
 30
0.0
 40
22.25
  0
POLYLINE
  5
311B
330
18
100
AcDbEntity
  8
0
100
AcDb2dPolyline
 66
     1
 10
0.0
 20
0.0
 30
0.0
 70
     1
  0
VERTEX
  5
3584
330
311B
100
AcDbEntity
  8
0
100
AcDbVertex
100
AcDb2dVertex
 10
1919.008897410287
 20
469.222245940319
 30
0.0
  0
VERTEX
  5
3585
330
311B
100
AcDbEntity
  8
0
100
AcDbVertex
100
AcDb2dVertex
 10
1945.796737675843
 20
458.1263591956415
 30
0.0
  0
VERTEX
  5
3586
330
311B
100
AcDbEntity
  8
0
100
AcDbVertex
100
AcDb2dVertex
 10
1972.584577941399
 20
469.222245940319
 30
0.0
  0
VERTEX
  5
3587
330
311B
100
AcDbEntity
  8
0
100
AcDbVertex
100
AcDb2dVertex
 10
1983.680464686077
 20
496.0100862058753
 30
0.0
  0
VERTEX
  5
3588
330
311B
100
AcDbEntity
  8
0
100
AcDbVertex
100
AcDb2dVertex
 10
1972.584577941399
 20
522.7979264714315
 30
0.0
  0
VERTEX
  5
3589
330
311B
100
AcDbEntity
  8
0
100
AcDbVertex
100
AcDb2dVertex
 10
1945.796737675843
 20
533.893813216109
 30
0.0
  0
VERTEX
  5
358A
330
311B
100
AcDbEntity
  8
0
100
AcDbVertex
100
AcDb2dVertex
 10
1919.008897410287
 20
522.7979264714315
 30
0.0
  0
VERTEX
  5
358B
330
311B
100
AcDbEntity
  8
0
100
AcDbVertex
100
AcDb2dVertex
 10
1907.913010665609
 20
496.0100862058753
 30
0.0
  0
SEQEND
  5
358C
330
311B
100
AcDbEntity
  8
0
  0
CIRCLE
  5
311C
330
18
100
AcDbEntity
  8
0
100
AcDbCircle
 10
1945.796737675843
 20
496.0100862058753
 30
0.0
 40
34.0
  0
ARC
  5
311D
330
18
100
AcDbEntity
  8
0
100
AcDbCircle
 10
1910.674643028585
 20
293.5167051452224
 30
0.0
 40
12.64707089698586
100
AcDbArc
 50
357.3052881522463
 51
52.441270833632
  0
LINE
  5
311E
330
18
100
AcDbEntity
  8
0
100
AcDbLine
 10
1315.105485732523
 20
340.7574157700528
 30
0.0
 11
1315.105485732523
 21
200.7574157700528
 31
0.0
  0
LINE
  5
311F
330
18
100
AcDbEntity
  8
0
100
AcDbLine
 10
1335.105485732523
 20
270.7574157700528
 30
0.0
 11
1335.105485732523
 21
340.7574157700528
 31
0.0
  0
CIRCLE
  5
3120
330
18
100
AcDbEntity
  8
0
100
AcDbCircle
 10
1436.479323361905
 20
270.7574157700528
 30
0.0
 40
70.0
  0
LINE
  5
3121
330
18
100
AcDbEntity
  8
0
100
AcDbLine
 10
1845.796737675843
 20
270.7574157700528
 30
0.0
 11
1845.796737675843
 21
348.2574157700528
 31
0.0
  0
LINE
  5
3122
330
18
100
AcDbEntity
  8
0
100
AcDbLine
 10
1865.796737675843
 20
348.2574157700528
 30
0.0
 11
1865.796737675843
 21
193.2574157700528
 31
0.0
  0
CIRCLE
  5
3123
330
18
100
AcDbEntity
  8
0
100
AcDbCircle
 10
1676.572638520049
 20
270.7574157700528
 30
0.0
 40
77.5
  0
LINE
  5
3124
330
18
100
AcDbEntity
  8
0
100
AcDbLine
 10
1335.105485732523
 20
200.7574157700528
 30
0.0
 11
1335.105485732523
 21
270.7574157700528
 31
0.0
  0
LINE
  5
3125
330
18
100
AcDbEntity
  8
0
100
AcDbLine
 10
1315.105485732523
 20
200.7574157700528
 30
0.0
 11
1335.105485732523
 21
200.7574157700528
 31
0.0
  0
LINE
  5
3126
330
18
100
AcDbEntity
  8
0
100
AcDbLine
 10
1287.105485732523
 20
242.7574157700528
 30
0.0
 11
1315.105485732523
 21
236.7574157700528
 31
0.0
  0
CIRCLE
  5
3127
330
18
100
AcDbEntity
  8
0
100
AcDbCircle
 10
1399.356217349612
 20
233.6343097577587
 30
0.0
 40
7.5
  0
CIRCLE
  5
3128
330
18
100
AcDbEntity
  8
0
100
AcDbCircle
 10
1473.602429374199
 20
233.6343097577587
 30
0.0
 40
7.5
  0
CIRCLE
  5
3129
330
18
100
AcDbEntity
  8
0
100
AcDbCircle
 10
1718.999045391242
 20
228.3310088988601
 30
0.0
 40
7.5
  0
CIRCLE
  5
312A
330
18
100
AcDbEntity
  8
0
100
AcDbCircle
 10
1634.146231648857
 20
228.3310088988601
 30
0.0
 40
7.5
  0
ARC
  5
312B
330
18
100
AcDbEntity
  8
0
100
AcDbCircle
 10
1871.796737675843
 20
226.8385923537414
 30
0.0
 40
6.0
100
AcDbArc
 50
101.3099324740198
 51
180.0
  0
LINE
  5
312C
330
18
100
AcDbEntity
  8
0
100
AcDbLine
 10
1845.796737675843
 20
193.2574157700528
 30
0.0
 11
1845.796737675843
 21
270.7574157700528
 31
0.0
  0
LINE
  5
312D
330
18
100
AcDbEntity
  8
0
100
AcDbLine
 10
1865.796737675843
 20
193.2574157700528
 30
0.0
 11
1845.796737675843
 21
193.2574157700528
 31
0.0
  0
LINE
  5
312E
330
18
100
AcDbEntity
  8
0
100
AcDbLine
 10
1895.796737675843
 20
237.7574157700528
 30
0.0
 11
1920.296737675843
 21
237.7574157700528
 31
0.0
  0
LINE
  5
312F
330
18
100
AcDbEntity
  8
0
100
AcDbLine
 10
1870.620040865014
 20
232.722076407887
 30
0.0
 11
1895.796737675843
 21
237.7574157700528
 31
0.0
  0
LINE
  5
3130
330
18
100
AcDbEntity
  8
0
100
AcDbLine
 10
1919.796737675843
 20
286.7574157700528
 30
0.0
 11
1919.796737675843
 21
254.7574157700528
 31
0.0
  0
ARC
  5
3131
330
18
100
AcDbEntity
  8
0
100
AcDbCircle
 10
1920.296737675843
 20
270.7574157700528
 30
0.0
 40
33.0
100
AcDbArc
 50
270.0
 51
302.8951549680857
  0
ARC
  5
3132
330
18
100
AcDbEntity
  8
0
100
AcDbCircle
 10
1920.796737675843
 20
254.7574157700528
 30
0.0
 40
1.0
100
AcDbArc
 50
180.0000000000002
 51
270.0
  0
ARC
  5
3133
330
18
100
AcDbEntity
  8
0
100
AcDbCircle
 10
1920.796737675843
 20
286.7574157700528
 30
0.0
 40
1.0
100
AcDbArc
 50
90.0
 51
180.0
  0
LINE
  5
3134
330
18
100
AcDbEntity
  8
0
100
AcDbLine
 10
1315.105485732523
 20
566.0100862058753
 30
0.0
 11
1315.105485732523
 21
426.0100862058752
 31
0.0
  0
LINE
  5
3135
330
18
100
AcDbEntity
  8
0
100
AcDbLine
 10
1335.105485732523
 20
496.0100862058753
 30
0.0
 11
1335.105485732523
 21
566.0100862058753
 31
0.0
  0
LINE
  5
3136
330
18
100
AcDbEntity
  8
0
100
AcDbLine
 10
1408.479323361905
 20
359.7574157700528
 30
0.0
 11
1464.479323361905
 21
359.7574157700528
 31
0.0
  0
LINE
  5
3137
330
18
100
AcDbEntity
  8
0
100
AcDbLine
 10
1468.773883165611
 20
345.7574157700529
 30
0.0
 11
1446.143539724011
 21
345.7574157700528
 31
0.0
  0
LINE
  5
3138
330
18
100
AcDbEntity
  8
0
100
AcDbLine
 10
1461.454183957856
 20
339.2574157700529
 30
0.0
 11
1450.892858667305
 21
339.2574157700528
 31
0.0
  0
LINE
  5
3139
330
18
100
AcDbEntity
  8
0
100
AcDbLine
 10
1335.105485732523
 20
426.0100862058752
 30
0.0
 11
1335.105485732523
 21
496.0100862058753
 31
0.0
  0
LINE
  5
313A
330
18
100
AcDbEntity
  8
0
100
AcDbLine
 10
1335.105485732523
 20
340.7574157700528
 30
0.0
 11
1315.105485732523
 21
340.7574157700528
 31
0.0
  0
LINE
  5
313B
330
18
100
AcDbEntity
  8
0
100
AcDbLine
 10
1315.105485732523
 20
304.7574157700528
 30
0.0
 11
1287.105485732523
 21
298.7574157700528
 31
0.0
  0
LINE
  5
313C
330
18
100
AcDbEntity
  8
0
100
AcDbLine
 10
1315.105485732523
 20
426.0100862058752
 30
0.0
 11
1335.105485732523
 21
426.0100862058752
 31
0.0
  0
LINE
  5
313D
330
18
100
AcDbEntity
  8
0
100
AcDbLine
 10
1411.504462765955
 20
339.2574157700528
 30
0.0
 11
1422.065788056506
 21
339.2574157700528
 31
0.0
  0
LINE
  5
313E
330
18
100
AcDbEntity
  8
0
100
AcDbLine
 10
1404.184763558199
 20
345.7574157700528
 30
0.0
 11
1426.8151069998
 21
345.7574157700528
 31
0.0
  0
CIRCLE
  5
313F
330
18
100
AcDbEntity
  8
0
100
AcDbCircle
 10
1399.356217349612
 20
307.8805217823465
 30
0.0
 40
7.5
  0
LINE
  5
3140
330
18
100
AcDbEntity
  8
0
100
AcDbLine
 10
1402.479323361905
 20
353.7574157700528
 30
0.0
 11
1402.479323361905
 21
331.9456499331662
 31
0.0
  0
ARC
  5
3141
330
18
100
AcDbEntity
  8
0
100
AcDbCircle
 10
1411.504462765955
 20
336.2574157700528
 30
0.0
 40
3.0
100
AcDbArc
 50
89.99999999999994
 51
180.0000000000001
  0
LINE
  5
3142
330
18
100
AcDbEntity
  8
0
100
AcDbLine
 10
1406.420565270798
 20
340.2092279256388
 30
0.0
 11
1406.420565270798
 21
333.9750641130617
 31
0.0
  0
LINE
  5
3143
330
18
100
AcDbEntity
  8
0
100
AcDbLine
 10
1408.504462765955
 20
336.2574157700528
 30
0.0
 11
1408.504462765954
 21
334.9244413722817
 31
0.0
  0
ARC
  5
3144
330
18
100
AcDbEntity
  8
0
100
AcDbCircle
 10
1404.184763558199
 20
342.7574157700528
 30
0.0
 40
3.0
100
AcDbArc
 50
89.99999999999998
 51
124.6443039619389
  0
ARC
  5
3145
330
18
100
AcDbEntity
  8
0
100
AcDbCircle
 10
1404.420565270798
 20
340.2092279256388
 30
0.0
 40
2.0
100
AcDbArc
 50
0.0000000000001018
 51
48.39445480393429
  0
LINE
  5
3146
330
18
100
AcDbEntity
  8
0
100
AcDbLine
 10
1405.748562436568
 20
341.7046955875125
 30
0.0
 11
1404.184763558199
 21
343.0933718733663
 31
0.0
  0
ARC
  5
3147
330
18
100
AcDbEntity
  8
0
100
AcDbCircle
 10
1408.479323361905
 20
353.7574157700528
 30
0.0
 40
6.0
100
AcDbArc
 50
90.0
 51
180.0
  0
LINE
  5
3148
330
18
100
AcDbEntity
  8
0
100
AcDbLine
 10
1429.8151069998
 20
342.7574157700528
 30
0.0
 11
1429.8151069998
 21
340.4394666890595
 31
0.0
  0
ARC
  5
3149
330
18
100
AcDbEntity
  8
0
100
AcDbCircle
 10
1426.8151069998
 20
342.7574157700528
 30
0.0
 40
3.0
100
AcDbArc
 50
0.0
 51
89.99999999999998
  0
LINE
  5
314A
330
18
100
AcDbEntity
  8
0
100
AcDbLine
 10
1427.223755588302
 20
340.1428210451409
 30
0.0
 11
1428.430491615185
 21
342.7574157700528
 31
0.0
  0
LINE
  5
314B
330
18
100
AcDbEntity
  8
0
100
AcDbLine
 10
1443.143539724011
 20
342.7574157700528
 30
0.0
 11
1443.143539724011
 21
340.4394666890595
 31
0.0
  0
ARC
  5
314C
330
18
100
AcDbEntity
  8
0
100
AcDbCircle
 10
1446.143539724011
 20
342.7574157700528
 30
0.0
 40
3.0
100
AcDbArc
 50
90.00000000000012
 51
180.0000000000001
  0
LINE
  5
314D
330
18
100
AcDbEntity
  8
0
100
AcDbLine
 10
1445.734891135508
 20
340.1428210451411
 30
0.0
 11
1444.528155108626
 21
342.7574157700528
 31
0.0
  0
LINE
  5
314E
330
18
100
AcDbEntity
  8
0
100
AcDbLine
 10
1287.105485732523
 20
468.0100862058752
 30
0.0
 11
1315.105485732523
 21
462.0100862058753
 31
0.0
  0
LINE
  5
314F
330
18
100
AcDbEntity
  8
0
100
AcDbLine
 10
1315.105485732523
 20
530.0100862058752
 30
0.0
 11
1287.105485732523
 21
524.0100862058752
 31
0.0
  0
CIRCLE
  5
3150
330
18
100
AcDbEntity
  8
0
100
AcDbCircle
 10
1473.602429374199
 20
307.8805217823465
 30
0.0
 40
7.5
  0
LINE
  5
3151
330
18
100
AcDbEntity
  8
0
100
AcDbLine
 10
1470.479323361905
 20
353.7574157700528
 30
0.0
 11
1470.479323361905
 21
331.9456499331662
 31
0.0
  0
ARC
  5
3152
330
18
100
AcDbEntity
  8
0
100
AcDbCircle
 10
1461.454183957856
 20
336.2574157700529
 30
0.0
 40
3.0
100
AcDbArc
 50
359.9999999999999
 51
90.00000000000014
  0
LINE
  5
3153
330
18
100
AcDbEntity
  8
0
100
AcDbLine
 10
1466.538081453011
 20
340.2092279256388
 30
0.0
 11
1466.538081453011
 21
333.9750641130622
 31
0.0
  0
LINE
  5
3154
330
18
100
AcDbEntity
  8
0
100
AcDbLine
 10
1464.454183957855
 20
336.2574157700529
 30
0.0
 11
1464.454183957855
 21
334.9244413722822
 31
0.0
  0
ARC
  5
3155
330
18
100
AcDbEntity
  8
0
100
AcDbCircle
 10
1468.773883165611
 20
342.7574157700529
 30
0.0
 40
3.0
100
AcDbArc
 50
55.35569603806112
 51
90.00000000000012
  0
ARC
  5
3156
330
18
100
AcDbEntity
  8
0
100
AcDbCircle
 10
1468.538081453012
 20
340.2092279256388
 30
0.0
 40
2.0
100
AcDbArc
 50
131.6055451960657
 51
180.0
  0
LINE
  5
3157
330
18
100
AcDbEntity
  8
0
100
AcDbLine
 10
1467.210084287243
 20
341.7046955875125
 30
0.0
 11
1468.773883165611
 21
343.0933718733663
 31
0.0
  0
ARC
  5
3158
330
18
100
AcDbEntity
  8
0
100
AcDbCircle
 10
1464.479323361905
 20
353.7574157700528
 30
0.0
 40
6.0
100
AcDbArc
 50
0.0
 51
90.0
  0
LINE
  5
3159
330
18
100
AcDbEntity
  8
0
100
AcDbLine
 10
1335.105485732523
 20
639.1056988241762
 30
0.0
 11
1335.105485732523
 21
709.1056988241762
 31
0.0
  0
LINE
  5
315A
330
18
100
AcDbEntity
  8
0
100
AcDbLine
 10
1315.105485732523
 20
779.1056988241762
 30
0.0
 11
1315.105485732523
 21
639.1056988241762
 31
0.0
  0
LINE
  5
315B
330
18
100
AcDbEntity
  8
0
100
AcDbLine
 10
1335.105485732523
 20
566.0100862058753
 30
0.0
 11
1315.105485732523
 21
566.0100862058753
 31
0.0
  0
LINE
  5
315C
330
18
100
AcDbEntity
  8
0
100
AcDbLine
 10
1315.105485732523
 20
639.1056988241762
 30
0.0
 11
1335.105485732523
 21
639.1056988241762
 31
0.0
  0
LINE
  5
315D
330
18
100
AcDbEntity
  8
0
100
AcDbLine
 10
1287.105485732523
 20
681.1056988241761
 30
0.0
 11
1315.105485732523
 21
675.1056988241762
 31
0.0
  0
LINE
  5
315E
330
18
100
AcDbEntity
  8
0
100
AcDbLine
 10
1335.105485732523
 20
709.1056988241762
 30
0.0
 11
1335.105485732523
 21
779.1056988241762
 31
0.0
  0
LINE
  5
315F
330
18
100
AcDbEntity
  8
0
100
AcDbLine
 10
1315.105485732523
 20
743.1056988241762
 30
0.0
 11
1287.105485732523
 21
737.1056988241762
 31
0.0
  0
LINE
  5
3160
330
18
100
AcDbEntity
  8
0
100
AcDbLine
 10
1335.105485732523
 20
779.1056988241762
 30
0.0
 11
1315.105485732523
 21
779.1056988241762
 31
0.0
  0
LINE
  5
3161
330
18
100
AcDbEntity
  8
0
100
AcDbLine
 10
1865.796737675843
 20
573.5100862058752
 30
0.0
 11
1865.796737675843
 21
418.5100862058752
 31
0.0
  0
LINE
  5
3162
330
18
100
AcDbEntity
  8
0
100
AcDbLine
 10
1845.796737675843
 20
496.0100862058753
 30
0.0
 11
1845.796737675843
 21
573.5100862058752
 31
0.0
  0
CIRCLE
  5
3163
330
18
100
AcDbEntity
  8
0
100
AcDbCircle
 10
1718.999045391242
 20
313.1838226412455
 30
0.0
 40
7.5
  0
CIRCLE
  5
3164
330
18
100
AcDbEntity
  8
0
100
AcDbCircle
 10
1634.146231648857
 20
313.1838226412455
 30
0.0
 40
7.5
  0
ARC
  5
3165
330
18
100
AcDbEntity
  8
0
100
AcDbCircle
 10
1704.572638520049
 20
360.7574157700528
 30
0.0
 40
6.0
100
AcDbArc
 50
0.000000000000007
 51
90.0
  0
ARC
  5
3166
330
18
100
AcDbEntity
  8
0
100
AcDbCircle
 10
1648.572638520049
 20
360.7574157700528
 30
0.0
 40
6.0
100
AcDbArc
 50
90.0
 51
180.0
  0
LINE
  5
3167
330
18
100
AcDbEntity
  8
0
100
AcDbLine
 10
1644.278078716344
 20
352.757415770053
 30
0.0
 11
1666.908422157944
 21
352.7574157700528
 31
0.0
  0
LINE
  5
3168
330
18
100
AcDbEntity
  8
0
100
AcDbLine
 10
1651.597777924099
 20
346.257415770053
 30
0.0
 11
1659.079782835514
 21
346.2574157700529
 31
0.0
  0
ARC
  5
3169
330
18
100
AcDbEntity
  8
0
100
AcDbCircle
 10
1644.278078716344
 20
349.757415770053
 30
0.0
 40
3.0
100
AcDbArc
 50
89.99999999999991
 51
124.6443039619388
  0
ARC
  5
316A
330
18
100
AcDbEntity
  8
0
100
AcDbCircle
 10
1644.513880428943
 20
347.2092279256389
 30
0.0
 40
2.0
100
AcDbArc
 50
0.000000000000007
 51
48.39445480393422
  0
ARC
  5
316B
330
18
100
AcDbEntity
  8
0
100
AcDbCircle
 10
1651.597777924099
 20
343.257415770053
 30
0.0
 40
3.0
100
AcDbArc
 50
89.99999999999987
 51
180.0
  0
LINE
  5
316C
330
18
100
AcDbEntity
  8
0
100
AcDbLine
 10
1645.841877594712
 20
348.7046955875125
 30
0.0
 11
1644.278078716344
 21
350.0933718733663
 31
0.0
  0
LINE
  5
316D
330
18
100
AcDbEntity
  8
0
100
AcDbLine
 10
1648.597777924099
 20
343.257415770053
 30
0.0
 11
1648.597777924099
 21
343.0322881299341
 31
0.0
  0
LINE
  5
316E
330
18
100
AcDbEntity
  8
0
100
AcDbLine
 10
1646.513880428943
 20
347.2092279256389
 30
0.0
 11
1646.513880428944
 21
342.1907487597741
 31
0.0
  0
LINE
  5
316F
330
18
100
AcDbEntity
  8
0
100
AcDbLine
 10
1642.572638520049
 20
360.7574157700528
 30
0.0
 11
1642.572638520049
 21
340.4011520282403
 31
0.0
  0
ARC
  5
3170
330
18
100
AcDbEntity
  8
0
100
AcDbCircle
 10
1666.908422157944
 20
349.7574157700528
 30
0.0
 40
3.0
100
AcDbArc
 50
359.9999999999998
 51
89.99999999999991
  0
LINE
  5
3171
330
18
100
AcDbEntity
  8
0
100
AcDbLine
 10
1669.908422157944
 20
349.7574157700528
 30
0.0
 11
1669.908422157944
 21
347.9703565266322
 31
0.0
  0
LINE
  5
3172
330
18
100
AcDbEntity
  8
0
100
AcDbLine
 10
1667.590449482489
 20
347.7351416399012
 30
0.0
 11
1668.523806773329
 21
349.7574157700528
 31
0.0
  0
LINE
  5
3173
330
18
100
AcDbEntity
  8
0
100
AcDbLine
 10
1708.867198323755
 20
352.7574157700528
 30
0.0
 11
1686.236854882155
 21
352.7574157700528
 31
0.0
  0
LINE
  5
3174
330
18
100
AcDbEntity
  8
0
100
AcDbLine
 10
1701.547499115999
 20
346.2574157700528
 30
0.0
 11
1694.065494204585
 21
346.2574157700528
 31
0.0
  0
ARC
  5
3175
330
18
100
AcDbEntity
  8
0
100
AcDbCircle
 10
1686.236854882155
 20
349.7574157700528
 30
0.0
 40
3.0
100
AcDbArc
 50
90.00000000000003
 51
180.0
  0
LINE
  5
3176
330
18
100
AcDbEntity
  8
0
100
AcDbLine
 10
1685.554827557609
 20
347.7351416399012
 30
0.0
 11
1684.62147026677
 21
349.7574157700528
 31
0.0
  0
LINE
  5
3177
330
18
100
AcDbEntity
  8
0
100
AcDbLine
 10
1683.236854882155
 20
349.7574157700528
 30
0.0
 11
1683.236854882155
 21
347.9703565266322
 31
0.0
  0
ARC
  5
3178
330
18
100
AcDbEntity
  8
0
100
AcDbCircle
 10
1708.867198323755
 20
349.7574157700528
 30
0.0
 40
3.0
100
AcDbArc
 50
55.35569603806104
 51
90.00000000000003
  0
ARC
  5
3179
330
18
100
AcDbEntity
  8
0
100
AcDbCircle
 10
1708.631396611156
 20
347.2092279256389
 30
0.0
 40
2.0
100
AcDbArc
 50
131.6055451960656
 51
179.9999999999998
  0
LINE
  5
317A
330
18
100
AcDbEntity
  8
0
100
AcDbLine
 10
1707.303399445387
 20
348.7046955875125
 30
0.0
 11
1708.867198323755
 21
350.0933718733663
 31
0.0
  0
ARC
  5
317B
330
18
100
AcDbEntity
  8
0
100
AcDbCircle
 10
1701.547499115999
 20
343.2574157700528
 30
0.0
 40
3.0
100
AcDbArc
 50
359.9999999999998
 51
90.00000000000005
  0
LINE
  5
317C
330
18
100
AcDbEntity
  8
0
100
AcDbLine
 10
1706.631396611156
 20
347.2092279256389
 30
0.0
 11
1706.631396611156
 21
342.1907487597734
 31
0.0
  0
LINE
  5
317D
330
18
100
AcDbEntity
  8
0
100
AcDbLine
 10
1704.547499115999
 20
343.2574157700528
 30
0.0
 11
1704.547499116
 21
343.0322881299339
 31
0.0
  0
LINE
  5
317E
330
18
100
AcDbEntity
  8
0
100
AcDbLine
 10
1710.572638520049
 20
360.7574157700528
 30
0.0
 11
1710.572638520049
 21
340.4011520282403
 31
0.0
  0
LINE
  5
317F
330
18
100
AcDbEntity
  8
0
100
AcDbLine
 10
1704.572638520049
 20
366.7574157700528
 30
0.0
 11
1648.572638520049
 21
366.7574157700528
 31
0.0
  0
LINE
  5
3180
330
18
100
AcDbEntity
  8
0
100
AcDbLine
 10
1845.796737675843
 20
418.5100862058752
 30
0.0
 11
1845.796737675843
 21
496.0100862058753
 31
0.0
  0
ARC
  5
3181
330
18
100
AcDbEntity
  8
0
100
AcDbCircle
 10
1871.796737675843
 20
314.6762391863642
 30
0.0
 40
6.0
100
AcDbArc
 50
180.0
 51
258.6900675259801
  0
LINE
  5
3182
330
18
100
AcDbEntity
  8
0
100
AcDbLine
 10
1845.796737675843
 20
348.2574157700528
 30
0.0
 11
1865.796737675843
 21
348.2574157700528
 31
0.0
  0
LINE
  5
3183
330
18
100
AcDbEntity
  8
0
100
AcDbLine
 10
1865.796737675843
 20
418.5100862058752
 30
0.0
 11
1845.796737675843
 21
418.5100862058752
 31
0.0
  0
ARC
  5
3184
330
18
100
AcDbEntity
  8
0
100
AcDbCircle
 10
1917.796737675843
 20
360.7574157700528
 30
0.0
 40
6.0
100
AcDbArc
 50
90.0
 51
180.0
  0
LINE
  5
3185
330
18
100
AcDbEntity
  8
0
100
AcDbLine
 10
1913.502177872137
 20
352.7574157700528
 30
0.0
 11
1936.132521313738
 21
352.7574157700528
 31
0.0
  0
ARC
  5
3186
330
18
100
AcDbEntity
  8
0
100
AcDbCircle
 10
1913.460954037948
 20
322.2727750202959
 30
0.0
 40
7.98464074975686
100
AcDbArc
 50
45.9865730962944
 51
105.9865730962936
  0
LINE
  5
3187
330
18
100
AcDbEntity
  8
0
100
AcDbLine
 10
1915.065976750505
 20
348.7046955875125
 30
0.0
 11
1913.502177872137
 21
350.0933718733663
 31
0.0
  0
ARC
  5
3188
330
18
100
AcDbEntity
  8
0
100
AcDbCircle
 10
1913.460954037948
 20
323.2420565198097
 30
0.0
 40
7.98464074975686
100
AcDbArc
 50
254.0134269037064
 51
314.0134269037055
  0
ARC
  5
3189
330
18
100
AcDbEntity
  8
0
100
AcDbCircle
 10
1913.296737675843
 20
307.7574157700528
 30
0.0
 40
4.0
100
AcDbArc
 50
270.0
 51
0.0
  0
LINE
  5
318A
330
18
100
AcDbEntity
  8
0
100
AcDbLine
 10
1911.796737675843
 20
360.7574157700528
 30
0.0
 11
1911.796737675843
 21
330.2574157700528
 31
0.0
  0
LINE
  5
318B
330
18
100
AcDbEntity
  8
0
100
AcDbLine
 10
1870.620040865014
 20
308.7927551322186
 30
0.0
 11
1895.796737675843
 21
303.7574157700528
 31
0.0
  0
LINE
  5
318C
330
18
100
AcDbEntity
  8
0
100
AcDbLine
 10
1907.913010665609
 20
328.0151449352354
 30
0.0
 11
1911.796737675843
 21
330.2574157700528
 31
0.0
  0
ARC
  5
318D
330
18
100
AcDbEntity
  8
0
100
AcDbCircle
 10
1913.502177872137
 20
333.2574157700528
 30
0.0
 40
3.0
100
AcDbArc
 50
235.355696038061
 51
270.0
  0
LINE
  5
318E
330
18
100
AcDbEntity
  8
0
100
AcDbLine
 10
1895.796737675843
 20
303.7574157700528
 30
0.0
 11
1913.296737675843
 21
303.7574157700528
 31
0.0
  0
LINE
  5
318F
330
18
100
AcDbEntity
  8
0
100
AcDbLine
 10
1907.913010665609
 20
317.4996866048704
 30
0.0
 11
1911.796737675843
 21
315.2574157700528
 31
0.0
  0
LINE
  5
3190
330
18
100
AcDbEntity
  8
0
100
AcDbLine
 10
1907.913010665609
 20
317.4996866048702
 30
0.0
 11
1911.796737675843
 21
315.2574157700528
 31
0.0
  0
LINE
  5
3191
330
18
100
AcDbEntity
  8
0
100
AcDbLine
 10
1907.913010665609
 20
328.0151449352354
 30
0.0
 11
1907.913010665609
 21
317.4996866048702
 31
0.0
  0
ARC
  5
3192
330
18
100
AcDbEntity
  8
0
100
AcDbCircle
 10
1913.502177872137
 20
349.7574157700528
 30
0.0
 40
3.0
100
AcDbArc
 50
89.99999999999998
 51
124.6443039619389
  0
ARC
  5
3193
330
18
100
AcDbEntity
  8
0
100
AcDbCircle
 10
1958.460954037947
 20
333.2574157700528
 30
0.0
 40
3.0
100
AcDbArc
 50
180.0000000000001
 51
270.0
  0
ARC
  5
3194
330
18
100
AcDbEntity
  8
0
100
AcDbCircle
 10
1920.821877079893
 20
333.2574157700528
 30
0.0
 40
3.0
100
AcDbArc
 50
179.9999999999998
 51
270.0
  0
ARC
  5
3195
330
18
100
AcDbEntity
  8
0
100
AcDbCircle
 10
1936.132521313738
 20
333.2574157700528
 30
0.0
 40
3.0
100
AcDbArc
 50
270.0
 51
0.0
  0
ARC
  5
3196
330
18
100
AcDbEntity
  8
0
100
AcDbCircle
 10
1933.132521313737
 20
333.2574157700528
 30
0.0
 40
3.0
100
AcDbArc
 50
270.0
 51
0.0
  0
ARC
  5
3197
330
18
100
AcDbEntity
  8
0
100
AcDbCircle
 10
1955.460954037948
 20
333.2574157700528
 30
0.0
 40
3.0
100
AcDbArc
 50
180.0000000000001
 51
270.0000000000001
  0
ARC
  5
3198
330
18
100
AcDbEntity
  8
0
100
AcDbCircle
 10
1932.402817543064
 20
289.1328397027464
 30
0.0
 40
41.12457606730651
100
AcDbArc
 50
70.992532412469
 51
109.0074675875309
  0
LINE
  5
3199
330
18
100
AcDbEntity
  8
0
100
AcDbLine
 10
1919.008897410287
 20
330.2574157700528
 30
0.0
 11
1945.796737675843
 21
330.2574157700528
 31
0.0
  0
ARC
  5
319A
330
18
100
AcDbEntity
  8
0
100
AcDbCircle
 10
1932.402817543064
 20
356.3819918373592
 30
0.0
 40
41.12457606730651
100
AcDbArc
 50
250.992532412469
 51
289.0074675875309
  0
LINE
  5
319B
330
18
100
AcDbEntity
  8
0
100
AcDbLine
 10
1917.296737675843
 20
315.2574157700528
 30
0.0
 11
1917.296737675843
 21
307.7574157700528
 31
0.0
  0
LINE
  5
319C
330
18
100
AcDbEntity
  8
0
100
AcDbLine
 10
1919.008897410287
 20
328.0151449352354
 30
0.0
 11
1919.008897410287
 21
317.4996866048702
 31
0.0
  0
LINE
  5
319D
330
18
100
AcDbEntity
  8
0
100
AcDbLine
 10
1945.796737675843
 20
328.0151449352354
 30
0.0
 11
1945.796737675843
 21
317.4996866048704
 31
0.0
  0
ARC
  5
319E
330
18
100
AcDbEntity
  8
0
100
AcDbCircle
 10
1936.132521313738
 20
349.7574157700528
 30
0.0
 40
3.0
100
AcDbArc
 50
0.0
 51
89.99999999999998
  0
LINE
  5
319F
330
18
100
AcDbEntity
  8
0
100
AcDbLine
 10
1936.132521313738
 20
346.2574157700528
 30
0.0
 11
1937.747905929122
 21
349.7574157700528
 31
0.0
  0
LINE
  5
31A0
330
18
100
AcDbEntity
  8
0
100
AcDbLine
 10
1920.821877079893
 20
346.2574157700528
 30
0.0
 11
1933.132521313737
 21
346.2574157700528
 31
0.0
  0
LINE
  5
31A1
330
18
100
AcDbEntity
  8
0
100
AcDbLine
 10
1915.737979584736
 20
347.2092279256389
 30
0.0
 11
1915.737979584737
 21
333.2574157700528
 31
0.0
  0
LINE
  5
31A2
330
18
100
AcDbEntity
  8
0
100
AcDbLine
 10
1917.821877079893
 20
343.2574157700528
 30
0.0
 11
1917.821877079893
 21
333.2574157700528
 31
0.0
  0
ARC
  5
31A3
330
18
100
AcDbEntity
  8
0
100
AcDbCircle
 10
1913.737979584736
 20
347.2092279256389
 30
0.0
 40
2.0
100
AcDbArc
 50
0.0000000000001018
 51
48.39445480393429
  0
ARC
  5
31A4
330
18
100
AcDbEntity
  8
0
100
AcDbCircle
 10
1920.821877079893
 20
343.2574157700528
 30
0.0
 40
3.0
100
AcDbArc
 50
89.99999999999994
 51
180.0000000000001
  0
LINE
  5
31A5
330
18
100
AcDbEntity
  8
0
100
AcDbLine
 10
1936.132521313738
 20
343.2574157700528
 30
0.0
 11
1936.132521313738
 21
333.2574157700528
 31
0.0
  0
ARC
  5
31A6
330
18
100
AcDbEntity
  8
0
100
AcDbCircle
 10
1933.132521313737
 20
343.2574157700528
 30
0.0
 40
3.0
100
AcDbArc
 50
0.0
 51
89.99999999999994
  0
LINE
  5
31A7
330
18
100
AcDbEntity
  8
0
100
AcDbLine
 10
1955.460954037948
 20
343.2574157700528
 30
0.0
 11
1955.460954037948
 21
333.2574157700528
 31
0.0
  0
LINE
  5
31A8
330
18
100
AcDbEntity
  8
0
100
AcDbLine
 10
1952.460954037948
 20
349.7574157700528
 30
0.0
 11
1952.460954037948
 21
333.2574157700528
 31
0.0
  0
LINE
  5
31A9
330
18
100
AcDbEntity
  8
0
100
AcDbLine
 10
1955.460954037948
 20
346.2574157700528
 30
0.0
 11
1953.845569422563
 21
349.7574157700528
 31
0.0
  0
ARC
  5
31AA
330
18
100
AcDbEntity
  8
0
100
AcDbCircle
 10
1958.460954037947
 20
343.2574157700528
 30
0.0
 40
3.0
100
AcDbArc
 50
90.00000000000014
 51
180.0000000000001
  0
LINE
  5
31AB
330
18
100
AcDbEntity
  8
0
100
AcDbLine
 10
1939.132521313737
 20
349.7574157700528
 30
0.0
 11
1939.132521313737
 21
333.2574157700528
 31
0.0
  0
ARC
  5
31AC
330
18
100
AcDbEntity
  8
0
100
AcDbCircle
 10
1955.460954037948
 20
349.7574157700528
 30
0.0
 40
3.0
100
AcDbArc
 50
90.00000000000012
 51
180.0000000000001
  0
ARC
  5
31AD
330
18
100
AcDbEntity
  8
0
100
AcDbCircle
 10
1871.796737675843
 20
539.9289096221866
 30
0.0
 40
6.0
100
AcDbArc
 50
180.0
 51
258.6900675259801
  0
ARC
  5
31AE
330
18
100
AcDbEntity
  8
0
100
AcDbCircle
 10
1871.796737675843
 20
452.0912627895638
 30
0.0
 40
6.0
100
AcDbArc
 50
101.3099324740198
 51
180.0
  0
LINE
  5
31AF
330
18
100
AcDbEntity
  8
0
100
AcDbLine
 10
1895.796737675843
 20
463.0100862058752
 30
0.0
 11
1934.00637769281
 21
463.0100862058752
 31
0.0
  0
LINE
  5
31B0
330
18
100
AcDbEntity
  8
0
100
AcDbLine
 10
1870.620040865014
 20
457.9747468437094
 30
0.0
 11
1895.796737675843
 21
463.0100862058752
 31
0.0
  0
LINE
  5
31B1
330
18
100
AcDbEntity
  8
0
100
AcDbLine
 10
1895.796737675843
 20
529.0100862058753
 30
0.0
 11
1934.006377692809
 21
529.0100862058753
 31
0.0
  0
LINE
  5
31B2
330
18
100
AcDbEntity
  8
0
100
AcDbLine
 10
1870.620040865014
 20
534.0454255680411
 30
0.0
 11
1895.796737675843
 21
529.0100862058753
 31
0.0
  0
LINE
  5
31B3
330
18
100
AcDbEntity
  8
0
100
AcDbLine
 10
1845.796737675843
 20
631.6056988241761
 30
0.0
 11
1845.796737675843
 21
709.1056988241762
 31
0.0
  0
LINE
  5
31B4
330
18
100
AcDbEntity
  8
0
100
AcDbLine
 10
1865.796737675843
 20
786.6056988241762
 30
0.0
 11
1865.796737675843
 21
631.6056988241761
 31
0.0
  0
ARC
  5
31B5
330
18
100
AcDbEntity
  8
0
100
AcDbCircle
 10
1871.796737675843
 20
665.186875407865
 30
0.0
 40
6.0
100
AcDbArc
 50
101.3099324740198
 51
180.0
  0
LINE
  5
31B6
330
18
100
AcDbEntity
  8
0
100
AcDbLine
 10
1845.796737675843
 20
573.5100862058752
 30
0.0
 11
1865.796737675843
 21
573.5100862058752
 31
0.0
  0
LINE
  5
31B7
330
18
100
AcDbEntity
  8
0
100
AcDbLine
 10
1865.796737675843
 20
631.6056988241761
 30
0.0
 11
1845.796737675843
 21
631.6056988241761
 31
0.0
  0
ARC
  5
31B8
330
18
100
AcDbEntity
  8
0
100
AcDbCircle
 10
1908.296737675843
 20
709.1056988241762
 30
0.0
 40
33.0
100
AcDbArc
 50
270.0
 51
302.8951549680857
  0
LINE
  5
31B9
330
18
100
AcDbEntity
  8
0
100
AcDbLine
 10
1870.620040865014
 20
671.0703594620103
 30
0.0
 11
1895.796737675843
 21
676.1056988241762
 31
0.0
  0
LINE
  5
31BA
330
18
100
AcDbEntity
  8
0
100
AcDbLine
 10
1908.296737675843
 20
676.1056988241762
 30
0.0
 11
1895.796737675843
 21
676.1056988241762
 31
0.0
  0
ARC
  5
31BB
330
18
100
AcDbEntity
  8
0
100
AcDbCircle
 10
1939.796737675843
 20
660.405082811645
 30
0.0
 40
25.0
100
AcDbArc
 50
57.10484503191454
 51
122.8951549680862
  0
ARC
  5
31BC
330
18
100
AcDbEntity
  8
0
100
AcDbCircle
 10
1871.796737675843
 20
753.0245222404876
 30
0.0
 40
6.0
100
AcDbArc
 50
180.0
 51
258.6900675259801
  0
LINE
  5
31BD
330
18
100
AcDbEntity
  8
0
100
AcDbLine
 10
1845.796737675843
 20
709.1056988241762
 30
0.0
 11
1845.796737675843
 21
786.6056988241762
 31
0.0
  0
LINE
  5
31BE
330
18
100
AcDbEntity
  8
0
100
AcDbLine
 10
1845.796737675843
 20
786.6056988241762
 30
0.0
 11
1865.796737675843
 21
786.6056988241762
 31
0.0
  0
LINE
  5
31BF
330
18
100
AcDbEntity
  8
0
100
AcDbLine
 10
1907.913010665609
 20
766.3634279893588
 30
0.0
 11
1907.913010665609
 21
755.8479696589936
 31
0.0
  0
LINE
  5
31C0
330
18
100
AcDbEntity
  8
0
100
AcDbLine
 10
1919.008897410287
 20
766.3634279893585
 30
0.0
 11
1919.008897410287
 21
755.8479696589936
 31
0.0
  0
LINE
  5
31C1
330
18
100
AcDbEntity
  8
0
100
AcDbLine
 10
1945.796737675843
 20
766.3634279893588
 30
0.0
 11
1945.796737675843
 21
755.8479696589938
 31
0.0
  0
ARC
  5
31C2
330
18
100
AcDbEntity
  8
0
100
AcDbCircle
 10
1913.460954037947
 20
761.590339573933
 30
0.0
 40
7.98464074975686
100
AcDbArc
 50
254.0134269037064
 51
314.0134269037056
  0
ARC
  5
31C3
330
18
100
AcDbEntity
  8
0
100
AcDbCircle
 10
1913.296737675843
 20
746.1056988241762
 30
0.0
 40
4.0
100
AcDbArc
 50
270.0
 51
0.0
  0
LINE
  5
31C4
330
18
100
AcDbEntity
  8
0
100
AcDbLine
 10
1870.620040865014
 20
747.141038186342
 30
0.0
 11
1895.796737675843
 21
742.1056988241762
 31
0.0
  0
LINE
  5
31C5
330
18
100
AcDbEntity
  8
0
100
AcDbLine
 10
1913.296737675843
 20
742.1056988241762
 30
0.0
 11
1895.796737675843
 21
742.1056988241762
 31
0.0
  0
LINE
  5
31C6
330
18
100
AcDbEntity
  8
0
100
AcDbLine
 10
1907.913010665609
 20
755.8479696589938
 30
0.0
 11
1911.796737675843
 21
753.6056988241762
 31
0.0
  0
LINE
  5
31C7
330
18
100
AcDbEntity
  8
0
100
AcDbLine
 10
1907.913010665609
 20
755.8479696589936
 30
0.0
 11
1911.796737675843
 21
753.6056988241762
 31
0.0
  0
ARC
  5
31C8
330
18
100
AcDbEntity
  8
0
100
AcDbCircle
 10
1932.402817543064
 20
794.7302748914826
 30
0.0
 40
41.12457606730651
100
AcDbArc
 50
250.992532412469
 51
289.0074675875309
  0
LINE
  5
31C9
330
18
100
AcDbEntity
  8
0
100
AcDbLine
 10
1917.296737675843
 20
753.6056988241762
 30
0.0
 11
1917.296737675843
 21
746.1056988241762
 31
0.0
  0
LINE
  5
31CA
330
18
100
AcDbEntity
  8
0
100
AcDbLine
 10
1913.502177872137
 20
791.1056988241764
 30
0.0
 11
1936.132521313738
 21
791.1056988241762
 31
0.0
  0
ARC
  5
31CB
330
18
100
AcDbEntity
  8
0
100
AcDbCircle
 10
1917.796737675843
 20
799.1056988241762
 30
0.0
 40
6.0
100
AcDbArc
 50
90.0
 51
180.0
  0
ARC
  5
31CC
330
18
100
AcDbEntity
  8
0
100
AcDbCircle
 10
1913.460954037947
 20
760.6210580744193
 30
0.0
 40
7.98464074975686
100
AcDbArc
 50
45.9865730962944
 51
105.9865730962936
  0
LINE
  5
31CD
330
18
100
AcDbEntity
  8
0
100
AcDbLine
 10
1915.065976750505
 20
787.0529786416359
 30
0.0
 11
1913.502177872137
 21
788.4416549274897
 31
0.0
  0
LINE
  5
31CE
330
18
100
AcDbEntity
  8
0
100
AcDbLine
 10
1911.796737675843
 20
799.1056988241762
 30
0.0
 11
1911.796737675843
 21
768.6056988241761
 31
0.0
  0
LINE
  5
31CF
330
18
100
AcDbEntity
  8
0
100
AcDbLine
 10
1907.913010665609
 20
766.3634279893588
 30
0.0
 11
1911.796737675843
 21
768.6056988241761
 31
0.0
  0
ARC
  5
31D0
330
18
100
AcDbEntity
  8
0
100
AcDbCircle
 10
1913.502177872137
 20
771.6056988241762
 30
0.0
 40
3.0
100
AcDbArc
 50
235.3556960380609
 51
269.9999999999998
  0
ARC
  5
31D1
330
18
100
AcDbEntity
  8
0
100
AcDbCircle
 10
1913.502177872137
 20
788.1056988241764
 30
0.0
 40
3.0
100
AcDbArc
 50
89.99999999999991
 51
124.6443039619388
  0
ARC
  5
31D2
330
18
100
AcDbEntity
  8
0
100
AcDbCircle
 10
1936.132521313738
 20
788.1056988241762
 30
0.0
 40
3.0
100
AcDbArc
 50
359.9999999999998
 51
89.99999999999991
  0
ARC
  5
31D3
330
18
100
AcDbEntity
  8
0
100
AcDbCircle
 10
1955.460954037948
 20
788.1056988241762
 30
0.0
 40
3.0
100
AcDbArc
 50
90.00000000000003
 51
180.0
  0
ARC
  5
31D4
330
18
100
AcDbEntity
  8
0
100
AcDbCircle
 10
1932.402817543064
 20
727.4811227568697
 30
0.0
 40
41.12457606730651
100
AcDbArc
 50
70.99253241246905
 51
109.0074675875309
  0
ARC
  5
31D5
330
18
100
AcDbEntity
  8
0
100
AcDbCircle
 10
1936.132521313738
 20
771.6056988241762
 30
0.0
 40
3.0
100
AcDbArc
 50
269.9999999999998
 51
359.9999999999998
  0
LINE
  5
31D6
330
18
100
AcDbEntity
  8
0
100
AcDbLine
 10
1936.132521313738
 20
784.6056988241762
 30
0.0
 11
1937.747905929122
 21
788.1056988241762
 31
0.0
  0
LINE
  5
31D7
330
18
100
AcDbEntity
  8
0
100
AcDbLine
 10
1920.821877079893
 20
784.6056988241764
 30
0.0
 11
1933.132521313739
 21
784.6056988241762
 31
0.0
  0
ARC
  5
31D8
330
18
100
AcDbEntity
  8
0
100
AcDbCircle
 10
1920.821877079893
 20
771.6056988241762
 30
0.0
 40
3.0
100
AcDbArc
 50
179.9999999999998
 51
269.9999999999999
  0
ARC
  5
31D9
330
18
100
AcDbEntity
  8
0
100
AcDbCircle
 10
1920.821877079893
 20
781.6056988241764
 30
0.0
 40
3.0
100
AcDbArc
 50
89.99999999999984
 51
180.0
  0
LINE
  5
31DA
330
18
100
AcDbEntity
  8
0
100
AcDbLine
 10
1915.737979584737
 20
785.5575109797623
 30
0.0
 11
1915.737979584737
 21
771.6056988241762
 31
0.0
  0
LINE
  5
31DB
330
18
100
AcDbEntity
  8
0
100
AcDbLine
 10
1917.821877079893
 20
781.6056988241764
 30
0.0
 11
1917.821877079893
 21
771.6056988241762
 31
0.0
  0
ARC
  5
31DC
330
18
100
AcDbEntity
  8
0
100
AcDbCircle
 10
1913.737979584737
 20
785.5575109797623
 30
0.0
 40
2.0
100
AcDbArc
 50
0.0
 51
48.39445480393422
  0
LINE
  5
31DD
330
18
100
AcDbEntity
  8
0
100
AcDbLine
 10
1936.132521313738
 20
781.6056988241762
 30
0.0
 11
1936.132521313738
 21
771.6056988241762
 31
0.0
  0
ARC
  5
31DE
330
18
100
AcDbEntity
  8
0
100
AcDbCircle
 10
1933.132521313739
 20
771.6056988241762
 30
0.0
 40
3.0
100
AcDbArc
 50
269.9999999999999
 51
359.9999999999998
  0
ARC
  5
31DF
330
18
100
AcDbEntity
  8
0
100
AcDbCircle
 10
1933.132521313739
 20
781.6056988241762
 30
0.0
 40
3.0
100
AcDbArc
 50
359.9999999999998
 51
89.99999999999984
  0
ARC
  5
31E0
330
18
100
AcDbEntity
  8
0
100
AcDbCircle
 10
1958.460954037948
 20
771.6056988241762
 30
0.0
 40
3.0
100
AcDbArc
 50
180.0
 51
269.9999999999999
  0
ARC
  5
31E1
330
18
100
AcDbEntity
  8
0
100
AcDbCircle
 10
1958.460954037948
 20
781.6056988241762
 30
0.0
 40
3.0
100
AcDbArc
 50
90.00000000000005
 51
180.0
  0
LINE
  5
31E2
330
18
100
AcDbEntity
  8
0
100
AcDbLine
 10
1955.460954037948
 20
781.6056988241762
 30
0.0
 11
1955.460954037948
 21
771.6056988241762
 31
0.0
  0
ARC
  5
31E3
330
18
100
AcDbEntity
  8
0
100
AcDbCircle
 10
1955.460954037948
 20
771.6056988241762
 30
0.0
 40
3.0
100
AcDbArc
 50
180.0
 51
270.0
  0
LINE
  5
31E4
330
18
100
AcDbEntity
  8
0
100
AcDbLine
 10
1939.132521313737
 20
788.1056988241762
 30
0.0
 11
1939.132521313737
 21
771.6056988241762
 31
0.0
  0
LINE
  5
31E5
330
18
100
AcDbEntity
  8
0
100
AcDbLine
 10
1952.460954037948
 20
788.1056988241762
 30
0.0
 11
1952.460954037948
 21
771.6056988241762
 31
0.0
  0
LINE
  5
31E6
330
18
100
AcDbEntity
  8
0
100
AcDbLine
 10
1955.460954037948
 20
784.6056988241762
 30
0.0
 11
1953.845569422563
 21
788.1056988241762
 31
0.0
  0
LINE
  5
31E7
330
18
100
AcDbEntity
  8
0
100
AcDbLine
 10
2025.796737675843
 20
348.2574157700528
 30
0.0
 11
2025.796737675843
 21
193.2574157700528
 31
0.0
  0
LINE
  5
31E8
330
18
100
AcDbEntity
  8
0
100
AcDbLine
 10
2045.796737675843
 20
270.7574157700528
 30
0.0
 11
2045.796737675843
 21
348.2574157700528
 31
0.0
  0
CIRCLE
  5
31E9
330
18
100
AcDbEntity
  8
0
100
AcDbCircle
 10
2163.499349731971
 20
270.7574157700528
 30
0.0
 40
77.5
  0
ARC
  5
31EA
330
18
100
AcDbEntity
  8
0
100
AcDbCircle
 10
1980.918832323101
 20
293.5167051452224
 30
0.0
 40
12.64707089698586
100
AcDbArc
 50
127.5587291663679
 51
182.6947118477537
  0
LINE
  5
31EB
330
18
100
AcDbEntity
  8
0
100
AcDbLine
 10
2045.796737675843
 20
193.2574157700528
 30
0.0
 11
2045.796737675843
 21
270.7574157700528
 31
0.0
  0
ARC
  5
31EC
330
18
100
AcDbEntity
  8
0
100
AcDbCircle
 10
2019.796737675843
 20
226.8385923537414
 30
0.0
 40
6.0
100
AcDbArc
 50
0.0
 51
78.69006752598011
  0
LINE
  5
31ED
330
18
100
AcDbEntity
  8
0
100
AcDbLine
 10
2025.796737675843
 20
193.2574157700528
 30
0.0
 11
2045.796737675843
 21
193.2574157700528
 31
0.0
  0
LINE
  5
31EE
330
18
100
AcDbEntity
  8
0
100
AcDbLine
 10
2020.973434486672
 20
232.722076407887
 30
0.0
 11
1995.796737675843
 21
237.7574157700528
 31
0.0
  0
LINE
  5
31EF
330
18
100
AcDbEntity
  8
0
100
AcDbLine
 10
1971.796737675843
 20
286.7574157700528
 30
0.0
 11
1971.796737675843
 21
254.7574157700528
 31
0.0
  0
LINE
  5
31F0
330
18
100
AcDbEntity
  8
0
100
AcDbLine
 10
1983.296737675843
 20
237.7574157700528
 30
0.0
 11
1995.796737675843
 21
237.7574157700528
 31
0.0
  0
ARC
  5
31F1
330
18
100
AcDbEntity
  8
0
100
AcDbCircle
 10
1983.296737675843
 20
270.7574157700528
 30
0.0
 40
33.0
100
AcDbArc
 50
237.1048450319142
 51
270.0
  0
ARC
  5
31F2
330
18
100
AcDbEntity
  8
0
100
AcDbCircle
 10
1970.796737675843
 20
254.7574157700528
 30
0.0
 40
1.0
100
AcDbArc
 50
270.0
 51
0.0
  0
ARC
  5
31F3
330
18
100
AcDbEntity
  8
0
100
AcDbCircle
 10
1970.796737675843
 20
286.7574157700528
 30
0.0
 40
1.0
100
AcDbArc
 50
0.0000000000002036
 51
90.0
  0
CIRCLE
  5
31F4
330
18
100
AcDbEntity
  8
0
100
AcDbCircle
 10
2121.072942860778
 20
228.3310088988601
 30
0.0
 40
7.5
  0
CIRCLE
  5
31F5
330
18
100
AcDbEntity
  8
0
100
AcDbCircle
 10
2205.925756603164
 20
228.3310088988601
 30
0.0
 40
7.5
  0
LINE
  5
31F6
330
18
100
AcDbEntity
  8
0
100
AcDbLine
 10
2025.796737675843
 20
573.5100862058752
 30
0.0
 11
2025.796737675843
 21
418.5100862058752
 31
0.0
  0
LINE
  5
31F7
330
18
100
AcDbEntity
  8
0
100
AcDbLine
 10
2045.796737675843
 20
496.0100862058753
 30
0.0
 11
2045.796737675843
 21
573.5100862058752
 31
0.0
  0
LINE
  5
31F8
330
18
100
AcDbEntity
  8
0
100
AcDbLine
 10
2135.499349731971
 20
366.7574157700528
 30
0.0
 11
2191.499349731971
 21
366.7574157700528
 31
0.0
  0
LINE
  5
31F9
330
18
100
AcDbEntity
  8
0
100
AcDbLine
 10
2131.204789928265
 20
352.7574157700528
 30
0.0
 11
2153.835133369865
 21
352.7574157700528
 31
0.0
  0
LINE
  5
31FA
330
18
100
AcDbEntity
  8
0
100
AcDbLine
 10
2138.52448913602
 20
346.2574157700528
 30
0.0
 11
2146.006494047435
 21
346.2574157700528
 31
0.0
  0
LINE
  5
31FB
330
18
100
AcDbEntity
  8
0
100
AcDbLine
 10
2045.796737675843
 20
418.5100862058752
 30
0.0
 11
2045.796737675843
 21
496.0100862058753
 31
0.0
  0
ARC
  5
31FC
330
18
100
AcDbEntity
  8
0
100
AcDbCircle
 10
1973.796737675843
 20
360.7574157700528
 30
0.0
 40
6.0
100
AcDbArc
 50
0.0
 51
90.0
  0
LINE
  5
31FD
330
18
100
AcDbEntity
  8
0
100
AcDbLine
 10
2020.973434486672
 20
308.7927551322186
 30
0.0
 11
1995.796737675843
 21
303.7574157700528
 31
0.0
  0
ARC
  5
31FE
330
18
100
AcDbEntity
  8
0
100
AcDbCircle
 10
1978.132521313739
 20
322.2727750202959
 30
0.0
 40
7.98464074975686
100
AcDbArc
 50
74.0134269037064
 51
134.0134269037056
  0
ARC
  5
31FF
330
18
100
AcDbEntity
  8
0
100
AcDbCircle
 10
1970.771598271793
 20
333.2574157700528
 30
0.0
 40
3.0
100
AcDbArc
 50
270.0
 51
0.000000000000191
  0
LINE
  5
3200
330
18
100
AcDbEntity
  8
0
100
AcDbLine
 10
1979.796737675843
 20
360.7574157700528
 30
0.0
 11
1979.796737675843
 21
330.2574157700528
 31
0.0
  0
LINE
  5
3201
330
18
100
AcDbEntity
  8
0
100
AcDbLine
 10
1983.680464686077
 20
328.0151449352354
 30
0.0
 11
1979.796737675843
 21
330.2574157700528
 31
0.0
  0
LINE
  5
3202
330
18
100
AcDbEntity
  8
0
100
AcDbLine
 10
1978.296737675843
 20
303.7574157700528
 30
0.0
 11
1995.796737675843
 21
303.7574157700528
 31
0.0
  0
LINE
  5
3203
330
18
100
AcDbEntity
  8
0
100
AcDbLine
 10
1983.680464686077
 20
317.4996866048704
 30
0.0
 11
1979.796737675843
 21
315.2574157700528
 31
0.0
  0
LINE
  5
3204
330
18
100
AcDbEntity
  8
0
100
AcDbLine
 10
1983.680464686077
 20
317.4996866048702
 30
0.0
 11
1979.796737675843
 21
315.2574157700528
 31
0.0
  0
ARC
  5
3205
330
18
100
AcDbEntity
  8
0
100
AcDbCircle
 10
1978.091297479549
 20
333.2574157700528
 30
0.0
 40
3.0
100
AcDbArc
 50
270.0000000000001
 51
304.644303961939
  0
ARC
  5
3206
330
18
100
AcDbEntity
  8
0
100
AcDbCircle
 10
1978.132521313739
 20
323.2420565198097
 30
0.0
 40
7.98464074975686
100
AcDbArc
 50
225.9865730962943
 51
285.9865730962935
  0
LINE
  5
3207
330
18
100
AcDbEntity
  8
0
100
AcDbLine
 10
1974.296737675843
 20
315.2574157700528
 30
0.0
 11
1974.296737675843
 21
307.7574157700528
 31
0.0
  0
ARC
  5
3208
330
18
100
AcDbEntity
  8
0
100
AcDbCircle
 10
1978.296737675843
 20
307.7574157700528
 30
0.0
 40
4.0
100
AcDbArc
 50
180.0
 51
270.0
  0
LINE
  5
3209
330
18
100
AcDbEntity
  8
0
100
AcDbLine
 10
1972.584577941399
 20
328.0151449352351
 30
0.0
 11
1972.584577941399
 21
317.4996866048702
 31
0.0
  0
LINE
  5
320A
330
18
100
AcDbEntity
  8
0
100
AcDbLine
 10
1983.680464686077
 20
328.0151449352354
 30
0.0
 11
1983.680464686077
 21
317.4996866048702
 31
0.0
  0
ARC
  5
320B
330
18
100
AcDbEntity
  8
0
100
AcDbCircle
 10
1978.091297479549
 20
349.757415770053
 30
0.0
 40
3.0
100
AcDbArc
 50
55.35569603806112
 51
90.00000000000012
  0
LINE
  5
320C
330
18
100
AcDbEntity
  8
0
100
AcDbLine
 10
1975.855495766949
 20
347.2092279256389
 30
0.0
 11
1975.855495766949
 21
333.2574157700528
 31
0.0
  0
LINE
  5
320D
330
18
100
AcDbEntity
  8
0
100
AcDbLine
 10
1973.771598271793
 20
343.257415770053
 30
0.0
 11
1973.771598271793
 21
333.2574157700528
 31
0.0
  0
ARC
  5
320E
330
18
100
AcDbEntity
  8
0
100
AcDbCircle
 10
1977.855495766949
 20
347.2092279256389
 30
0.0
 40
2.0
100
AcDbArc
 50
131.6055451960657
 51
180.0
  0
ARC
  5
320F
330
18
100
AcDbEntity
  8
0
100
AcDbCircle
 10
1970.771598271793
 20
343.257415770053
 30
0.0
 40
3.0
100
AcDbArc
 50
359.9999999999999
 51
90.00000000000014
  0
LINE
  5
3210
330
18
100
AcDbEntity
  8
0
100
AcDbLine
 10
1976.527498601181
 20
348.7046955875125
 30
0.0
 11
1978.091297479549
 21
350.0933718733663
 31
0.0
  0
ARC
  5
3211
330
18
100
AcDbEntity
  8
0
100
AcDbCircle
 10
2019.796737675843
 20
314.6762391863642
 30
0.0
 40
6.0
100
AcDbArc
 50
281.3099324740198
 51
0.0
  0
LINE
  5
3212
330
18
100
AcDbEntity
  8
0
100
AcDbLine
 10
2045.796737675843
 20
348.2574157700528
 30
0.0
 11
2025.796737675843
 21
348.2574157700528
 31
0.0
  0
LINE
  5
3213
330
18
100
AcDbEntity
  8
0
100
AcDbLine
 10
2025.796737675843
 20
418.5100862058752
 30
0.0
 11
2045.796737675843
 21
418.5100862058752
 31
0.0
  0
ARC
  5
3214
330
18
100
AcDbEntity
  8
0
100
AcDbCircle
 10
2135.499349731971
 20
360.7574157700528
 30
0.0
 40
6.0
100
AcDbArc
 50
90.0
 51
180.0
  0
CIRCLE
  5
3215
330
18
100
AcDbEntity
  8
0
100
AcDbCircle
 10
2121.072942860778
 20
313.1838226412455
 30
0.0
 40
7.5
  0
LINE
  5
3216
330
18
100
AcDbEntity
  8
0
100
AcDbLine
 10
2133.440591640864
 20
347.2092279256389
 30
0.0
 11
2133.440591640864
 21
342.1907487597734
 31
0.0
  0
ARC
  5
3217
330
18
100
AcDbEntity
  8
0
100
AcDbCircle
 10
2131.204789928265
 20
349.7574157700528
 30
0.0
 40
3.0
100
AcDbArc
 50
89.99999999999998
 51
124.6443039619389
  0
ARC
  5
3218
330
18
100
AcDbEntity
  8
0
100
AcDbCircle
 10
2131.440591640864
 20
347.2092279256389
 30
0.0
 40
2.0
100
AcDbArc
 50
0.0000000000001018
 51
48.39445480393429
  0
LINE
  5
3219
330
18
100
AcDbEntity
  8
0
100
AcDbLine
 10
2132.768588806633
 20
348.7046955875125
 30
0.0
 11
2131.204789928265
 21
350.0933718733663
 31
0.0
  0
LINE
  5
321A
330
18
100
AcDbEntity
  8
0
100
AcDbLine
 10
2135.52448913602
 20
343.2574157700528
 30
0.0
 11
2135.524489136019
 21
343.0322881299339
 31
0.0
  0
ARC
  5
321B
330
18
100
AcDbEntity
  8
0
100
AcDbCircle
 10
2138.52448913602
 20
343.2574157700528
 30
0.0
 40
3.0
100
AcDbArc
 50
89.99999999999994
 51
180.0000000000001
  0
LINE
  5
321C
330
18
100
AcDbEntity
  8
0
100
AcDbLine
 10
2129.499349731971
 20
360.7574157700528
 30
0.0
 11
2129.499349731971
 21
340.4011520282403
 31
0.0
  0
LINE
  5
321D
330
18
100
AcDbEntity
  8
0
100
AcDbLine
 10
2020.973434486672
 20
457.9747468437094
 30
0.0
 11
1995.796737675843
 21
463.0100862058752
 31
0.0
  0
ARC
  5
321E
330
18
100
AcDbEntity
  8
0
100
AcDbCircle
 10
2019.796737675843
 20
452.0912627895638
 30
0.0
 40
6.0
100
AcDbArc
 50
0.0
 51
78.69006752598011
  0
LINE
  5
321F
330
18
100
AcDbEntity
  8
0
100
AcDbLine
 10
2020.973434486672
 20
534.0454255680411
 30
0.0
 11
1995.796737675843
 21
529.0100862058753
 31
0.0
  0
ARC
  5
3220
330
18
100
AcDbEntity
  8
0
100
AcDbCircle
 10
2019.796737675843
 20
539.9289096221866
 30
0.0
 40
6.0
100
AcDbArc
 50
281.3099324740198
 51
0.0
  0
ARC
  5
3221
330
18
100
AcDbEntity
  8
0
100
AcDbCircle
 10
2191.499349731971
 20
360.7574157700528
 30
0.0
 40
6.0
100
AcDbArc
 50
0.0
 51
90.0
  0
LINE
  5
3222
330
18
100
AcDbEntity
  8
0
100
AcDbLine
 10
2195.793909535677
 20
352.757415770053
 30
0.0
 11
2173.163566094076
 21
352.7574157700528
 31
0.0
  0
LINE
  5
3223
330
18
100
AcDbEntity
  8
0
100
AcDbLine
 10
2156.835133369865
 20
349.7574157700528
 30
0.0
 11
2156.835133369865
 21
347.9703565266322
 31
0.0
  0
ARC
  5
3224
330
18
100
AcDbEntity
  8
0
100
AcDbCircle
 10
2153.835133369865
 20
349.7574157700528
 30
0.0
 40
3.0
100
AcDbArc
 50
0.0
 51
89.99999999999998
  0
LINE
  5
3225
330
18
100
AcDbEntity
  8
0
100
AcDbLine
 10
2154.517160694411
 20
347.7351416399012
 30
0.0
 11
2155.45051798525
 21
349.7574157700528
 31
0.0
  0
LINE
  5
3226
330
18
100
AcDbEntity
  8
0
100
AcDbLine
 10
2191.474210327921
 20
343.257415770053
 30
0.0
 11
2191.474210327921
 21
343.0322881299341
 31
0.0
  0
LINE
  5
3227
330
18
100
AcDbEntity
  8
0
100
AcDbLine
 10
2170.163566094076
 20
349.7574157700528
 30
0.0
 11
2170.163566094076
 21
347.9703565266322
 31
0.0
  0
LINE
  5
3228
330
18
100
AcDbEntity
  8
0
100
AcDbLine
 10
2188.474210327921
 20
346.257415770053
 30
0.0
 11
2180.992205416506
 21
346.2574157700529
 31
0.0
  0
ARC
  5
3229
330
18
100
AcDbEntity
  8
0
100
AcDbCircle
 10
2188.474210327921
 20
343.257415770053
 30
0.0
 40
3.0
100
AcDbArc
 50
359.9999999999999
 51
90.00000000000014
  0
ARC
  5
322A
330
18
100
AcDbEntity
  8
0
100
AcDbCircle
 10
2173.163566094076
 20
349.7574157700528
 30
0.0
 40
3.0
100
AcDbArc
 50
90.00000000000012
 51
180.0000000000001
  0
LINE
  5
322B
330
18
100
AcDbEntity
  8
0
100
AcDbLine
 10
2172.481538769531
 20
347.7351416399012
 30
0.0
 11
2171.548181478692
 21
349.7574157700528
 31
0.0
  0
CIRCLE
  5
322C
330
18
100
AcDbEntity
  8
0
100
AcDbCircle
 10
2205.925756603164
 20
313.1838226412455
 30
0.0
 40
7.5
  0
LINE
  5
322D
330
18
100
AcDbEntity
  8
0
100
AcDbLine
 10
2193.558107823077
 20
347.2092279256389
 30
0.0
 11
2193.558107823076
 21
342.1907487597741
 31
0.0
  0
ARC
  5
322E
330
18
100
AcDbEntity
  8
0
100
AcDbCircle
 10
2195.793909535677
 20
349.757415770053
 30
0.0
 40
3.0
100
AcDbArc
 50
55.35569603806112
 51
90.00000000000012
  0
ARC
  5
322F
330
18
100
AcDbEntity
  8
0
100
AcDbCircle
 10
2195.558107823077
 20
347.2092279256389
 30
0.0
 40
2.0
100
AcDbArc
 50
131.6055451960657
 51
180.0
  0
LINE
  5
3230
330
18
100
AcDbEntity
  8
0
100
AcDbLine
 10
2194.230110657308
 20
348.7046955875125
 30
0.0
 11
2195.793909535677
 21
350.0933718733663
 31
0.0
  0
LINE
  5
3231
330
18
100
AcDbEntity
  8
0
100
AcDbLine
 10
2197.499349731971
 20
360.7574157700528
 30
0.0
 11
2197.499349731971
 21
340.4011520282403
 31
0.0
  0
LINE
  5
3232
330
18
100
AcDbEntity
  8
0
100
AcDbLine
 10
2045.796737675843
 20
631.6056988241761
 30
0.0
 11
2045.796737675843
 21
709.1056988241762
 31
0.0
  0
LINE
  5
3233
330
18
100
AcDbEntity
  8
0
100
AcDbLine
 10
2025.796737675843
 20
786.6056988241762
 30
0.0
 11
2025.796737675843
 21
631.6056988241761
 31
0.0
  0
LINE
  5
3234
330
18
100
AcDbEntity
  8
0
100
AcDbLine
 10
2045.796737675843
 20
573.5100862058752
 30
0.0
 11
2025.796737675843
 21
573.5100862058752
 31
0.0
  0
LINE
  5
3235
330
18
100
AcDbEntity
  8
0
100
AcDbLine
 10
2020.973434486672
 20
671.0703594620103
 30
0.0
 11
1995.796737675843
 21
676.1056988241762
 31
0.0
  0
LINE
  5
3236
330
18
100
AcDbEntity
  8
0
100
AcDbLine
 10
1995.796737675843
 20
676.1056988241762
 30
0.0
 11
1971.296737675843
 21
676.1056988241762
 31
0.0
  0
LINE
  5
3237
330
18
100
AcDbEntity
  8
0
100
AcDbLine
 10
2025.796737675843
 20
631.6056988241761
 30
0.0
 11
2045.796737675843
 21
631.6056988241761
 31
0.0
  0
ARC
  5
3238
330
18
100
AcDbEntity
  8
0
100
AcDbCircle
 10
2019.796737675843
 20
665.186875407865
 30
0.0
 40
6.0
100
AcDbArc
 50
0.0
 51
78.69006752598011
  0
LINE
  5
3239
330
18
100
AcDbEntity
  8
0
100
AcDbLine
 10
2045.796737675843
 20
709.1056988241762
 30
0.0
 11
2045.796737675843
 21
786.6056988241762
 31
0.0
  0
LINE
  5
323A
330
18
100
AcDbEntity
  8
0
100
AcDbLine
 10
1972.584577941399
 20
766.3634279893588
 30
0.0
 11
1972.584577941399
 21
755.8479696589936
 31
0.0
  0
LINE
  5
323B
330
18
100
AcDbEntity
  8
0
100
AcDbLine
 10
1983.680464686077
 20
766.3634279893588
 30
0.0
 11
1983.680464686077
 21
755.8479696589936
 31
0.0
  0
LINE
  5
323C
330
18
100
AcDbEntity
  8
0
100
AcDbLine
 10
2020.973434486672
 20
747.141038186342
 30
0.0
 11
1995.796737675843
 21
742.1056988241762
 31
0.0
  0
LINE
  5
323D
330
18
100
AcDbEntity
  8
0
100
AcDbLine
 10
1983.680464686077
 20
755.8479696589938
 30
0.0
 11
1979.796737675843
 21
753.6056988241762
 31
0.0
  0
LINE
  5
323E
330
18
100
AcDbEntity
  8
0
100
AcDbLine
 10
1983.680464686077
 20
755.8479696589936
 30
0.0
 11
1979.796737675843
 21
753.6056988241762
 31
0.0
  0
LINE
  5
323F
330
18
100
AcDbEntity
  8
0
100
AcDbLine
 10
1995.796737675843
 20
742.1056988241762
 30
0.0
 11
1978.296737675843
 21
742.1056988241762
 31
0.0
  0
LINE
  5
3240
330
18
100
AcDbEntity
  8
0
100
AcDbLine
 10
1974.296737675843
 20
753.6056988241762
 30
0.0
 11
1974.296737675843
 21
746.1056988241762
 31
0.0
  0
ARC
  5
3241
330
18
100
AcDbEntity
  8
0
100
AcDbCircle
 10
1978.296737675843
 20
746.1056988241762
 30
0.0
 40
4.0
100
AcDbArc
 50
180.0
 51
270.0
  0
ARC
  5
3242
330
18
100
AcDbEntity
  8
0
100
AcDbCircle
 10
1978.132521313737
 20
761.590339573933
 30
0.0
 40
7.98464074975686
100
AcDbArc
 50
225.9865730962943
 51
285.9865730962935
  0
ARC
  5
3243
330
18
100
AcDbEntity
  8
0
100
AcDbCircle
 10
2019.796737675843
 20
753.0245222404876
 30
0.0
 40
6.0
100
AcDbArc
 50
281.3099324740198
 51
0.0
  0
LINE
  5
3244
330
18
100
AcDbEntity
  8
0
100
AcDbLine
 10
1979.796737675843
 20
799.1056988241762
 30
0.0
 11
1979.796737675843
 21
768.6056988241761
 31
0.0
  0
LINE
  5
3245
330
18
100
AcDbEntity
  8
0
100
AcDbLine
 10
1983.680464686077
 20
766.3634279893588
 30
0.0
 11
1979.796737675843
 21
768.6056988241761
 31
0.0
  0
ARC
  5
3246
330
18
100
AcDbEntity
  8
0
100
AcDbCircle
 10
1978.091297479549
 20
771.6056988241762
 30
0.0
 40
3.0
100
AcDbArc
 50
270.0
 51
304.644303961939
  0
LINE
  5
3247
330
18
100
AcDbEntity
  8
0
100
AcDbLine
 10
1975.85549576695
 20
785.5575109797623
 30
0.0
 11
1975.855495766949
 21
771.6056988241762
 31
0.0
  0
LINE
  5
3248
330
18
100
AcDbEntity
  8
0
100
AcDbLine
 10
1973.771598271793
 20
781.6056988241762
 30
0.0
 11
1973.771598271793
 21
771.6056988241762
 31
0.0
  0
ARC
  5
3249
330
18
100
AcDbEntity
  8
0
100
AcDbCircle
 10
1970.771598271793
 20
771.6056988241762
 30
0.0
 40
3.0
100
AcDbArc
 50
269.9999999999999
 51
0.0000000000001018
  0
ARC
  5
324A
330
18
100
AcDbEntity
  8
0
100
AcDbCircle
 10
1970.771598271793
 20
781.6056988241762
 30
0.0
 40
3.0
100
AcDbArc
 50
359.9999999999998
 51
90.00000000000005
  0
ARC
  5
324B
330
18
100
AcDbEntity
  8
0
100
AcDbCircle
 10
1977.85549576695
 20
785.5575109797623
 30
0.0
 40
2.0
100
AcDbArc
 50
131.6055451960656
 51
179.9999999999998
  0
ARC
  5
324C
330
18
100
AcDbEntity
  8
0
100
AcDbCircle
 10
1978.132521313737
 20
760.6210580744193
 30
0.0
 40
7.98464074975686
100
AcDbArc
 50
74.0134269037064
 51
134.0134269037056
  0
LINE
  5
324D
330
18
100
AcDbEntity
  8
0
100
AcDbLine
 10
1976.527498601181
 20
787.0529786416359
 30
0.0
 11
1978.091297479549
 21
788.4416549274897
 31
0.0
  0
ARC
  5
324E
330
18
100
AcDbEntity
  8
0
100
AcDbCircle
 10
1978.091297479549
 20
788.1056988241762
 30
0.0
 40
3.0
100
AcDbArc
 50
55.35569603806103
 51
90.00000000000003
  0
ARC
  5
324F
330
18
100
AcDbEntity
  8
0
100
AcDbCircle
 10
1973.796737675843
 20
799.1056988241762
 30
0.0
 40
6.0
100
AcDbArc
 50
0.0
 51
90.0
  0
LINE
  5
3250
330
18
100
AcDbEntity
  8
0
100
AcDbLine
 10
2045.796737675843
 20
786.6056988241762
 30
0.0
 11
2025.796737675843
 21
786.6056988241762
 31
0.0
  0
ARC
  5
3251
330
18
100
AcDbEntity
  8
0
100
AcDbCircle
 10
1939.669628949354
 20
1431.164292251892
 30
0.0
 40
6.0
100
AcDbArc
 50
90.0
 51
180.0
  0
ARC
  5
3252
330
18
100
AcDbEntity
  8
0
100
AcDbCircle
 10
1933.669628949354
 20
1393.648933001649
 30
0.0
 40
7.984640749757013
100
AcDbArc
 50
254.0134269037051
 51
314.0134269037047
  0
ARC
  5
3253
330
18
100
AcDbEntity
  8
0
100
AcDbCircle
 10
1933.669628949354
 20
1392.679651502135
 30
0.0
 40
7.984640749757013
100
AcDbArc
 50
45.98657309629529
 51
105.9865730962948
  0
LINE
  5
3254
330
18
100
AcDbEntity
  8
0
100
AcDbLine
 10
2000.005412587249
 20
1385.664292251892
 30
0.0
 11
1932.005412587249
 21
1385.664292251892
 31
0.0
  0
LINE
  5
3255
330
18
100
AcDbEntity
  8
0
100
AcDbLine
 10
2000.005412587249
 20
1400.664292251892
 30
0.0
 11
1932.005412587249
 21
1400.664292251892
 31
0.0
  0
LINE
  5
3256
330
18
100
AcDbEntity
  8
0
100
AcDbLine
 10
1941.005412587248
 20
1337.664292251892
 30
0.0
 11
1921.505412587248
 21
1337.664292251892
 31
0.0
  0
LINE
  5
3257
330
18
100
AcDbEntity
  8
0
100
AcDbLine
 10
1921.505412587248
 20
1378.664292251892
 30
0.0
 11
1934.505412587249
 21
1378.664292251892
 31
0.0
  0
LINE
  5
3258
330
18
100
AcDbEntity
  8
0
100
AcDbLine
 10
1939.217572321693
 20
1172.635562046609
 30
0.0
 11
1928.121685577015
 21
1199.423402312165
 31
0.0
  0
LINE
  5
3259
330
18
100
AcDbEntity
  8
0
100
AcDbLine
 10
1921.505412587248
 20
1178.923402312165
 30
0.0
 11
1936.613063605664
 21
1178.923402312165
 31
0.0
  0
LINE
  5
325A
330
18
100
AcDbEntity
  8
0
100
AcDbLine
 10
1936.613063605664
 20
1219.923402312165
 30
0.0
 11
1921.505412587248
 21
1219.923402312165
 31
0.0
  0
ARC
  5
325B
330
18
100
AcDbEntity
  8
0
100
AcDbCircle
 10
1939.669628949353
 20
1064.335367852072
 30
0.0
 40
6.0
100
AcDbArc
 50
90.0
 51
180.0
  0
ARC
  5
325C
330
18
100
AcDbEntity
  8
0
100
AcDbCircle
 10
1933.669628949353
 20
1025.850727102315
 30
0.0
 40
7.984640749757013
100
AcDbArc
 50
45.98657309629528
 51
105.9865730962948
  0
ARC
  5
325D
330
18
100
AcDbEntity
  8
0
100
AcDbCircle
 10
1933.669628949353
 20
1026.820008601829
 30
0.0
 40
7.984640749757013
100
AcDbArc
 50
254.0134269037051
 51
314.0134269037047
  0
LINE
  5
325E
330
18
100
AcDbEntity
  8
0
100
AcDbLine
 10
1932.005412587249
 20
1018.835367852072
 30
0.0
 11
2000.005412587249
 21
1018.835367852072
 31
0.0
  0
LINE
  5
325F
330
18
100
AcDbEntity
  8
0
100
AcDbLine
 10
1932.005412587249
 20
1033.835367852071
 30
0.0
 11
2000.005412587249
 21
1033.835367852071
 31
0.0
  0
LINE
  5
3260
330
18
100
AcDbEntity
  8
0
100
AcDbLine
 10
1921.505412587248
 20
970.8353678520721
 30
0.0
 11
1961.005412587249
 21
970.8353678520721
 31
0.0
  0
LINE
  5
3261
330
18
100
AcDbEntity
  8
0
100
AcDbLine
 10
1934.505412587249
 20
1011.835367852072
 30
0.0
 11
1921.505412587248
 21
1011.835367852072
 31
0.0
  0
CIRCLE
  5
3262
330
18
100
AcDbEntity
  8
0
100
AcDbCircle
 10
1966.005412587248
 20
1199.423402312165
 30
0.0
 40
34.0
  0
LINE
  5
3263
330
18
100
AcDbEntity
  8
0
100
AcDbLine
 10
1928.121685577015
 20
1199.423402312165
 30
0.0
 11
1939.217572321693
 21
1226.211242577722
 31
0.0
  0
LINE
  5
3264
330
18
100
AcDbEntity
  8
0
100
AcDbLine
 10
1876.005412587248
 20
1295.664292251892
 30
0.0
 11
1876.005412587248
 21
1358.164292251892
 31
0.0
  0
LINE
  5
3265
330
18
100
AcDbEntity
  8
0
100
AcDbLine
 10
1894.005412587248
 20
1420.664292251892
 30
0.0
 11
1894.005412587248
 21
1295.664292251892
 31
0.0
  0
LINE
  5
3266
330
18
100
AcDbEntity
  8
0
100
AcDbLine
 10
1433.463588976358
 20
1042.835367852072
 30
0.0
 11
1433.463588976358
 21
1032.835367852072
 31
0.0
  0
LINE
  5
3267
330
18
100
AcDbEntity
  8
0
100
AcDbLine
 10
1377.513867784458
 20
1042.835367852072
 30
0.0
 11
1377.513867784458
 21
1032.835367852072
 31
0.0
  0
LINE
  5
3268
330
18
100
AcDbEntity
  8
0
100
AcDbLine
 10
1375.429970289301
 20
1046.787180007658
 30
0.0
 11
1375.429970289302
 21
1032.835367852072
 31
0.0
  0
LINE
  5
3269
330
18
100
AcDbEntity
  8
0
100
AcDbLine
 10
1371.488728380408
 20
1060.335367852072
 30
0.0
 11
1371.488728380408
 21
1029.835367852072
 31
0.0
  0
LINE
  5
326A
330
18
100
AcDbEntity
  8
0
100
AcDbLine
 10
1435.547486471514
 20
1046.787180007658
 30
0.0
 11
1435.547486471514
 21
1032.835367852072
 31
0.0
  0
LINE
  5
326B
330
18
100
AcDbEntity
  8
0
100
AcDbLine
 10
1439.488728380408
 20
1060.335367852072
 30
0.0
 11
1439.488728380408
 21
1029.835367852072
 31
0.0
  0
LINE
  5
326C
330
18
100
AcDbEntity
  8
0
100
AcDbLine
 10
1256.245613639627
 20
1042.835367852072
 30
0.0
 11
1256.245613639627
 21
1032.835367852072
 31
0.0
  0
LINE
  5
326D
330
18
100
AcDbEntity
  8
0
100
AcDbLine
 10
1262.270753043677
 20
1060.335367852072
 30
0.0
 11
1262.270753043677
 21
1029.835367852072
 31
0.0
  0
LINE
  5
326E
330
18
100
AcDbEntity
  8
0
100
AcDbLine
 10
1258.329511134783
 20
1046.787180007658
 30
0.0
 11
1258.329511134783
 21
1032.835367852072
 31
0.0
  0
LINE
  5
326F
330
18
100
AcDbEntity
  8
0
100
AcDbLine
 10
1300.270753043677
 20
1041.335367852072
 30
0.0
 11
1300.270753043677
 21
941.3353678520721
 31
0.0
  0
LINE
  5
3270
330
18
100
AcDbEntity
  8
0
100
AcDbLine
 10
1318.270753043677
 20
991.3353678520721
 30
0.0
 11
1318.270753043677
 21
1041.335367852072
 31
0.0
  0
CIRCLE
  5
3271
330
18
100
AcDbEntity
  8
0
100
AcDbCircle
 10
1405.488728380408
 20
991.3353678520721
 30
0.0
 40
50.0
  0
CIRCLE
  5
3272
330
18
100
AcDbEntity
  8
0
100
AcDbCircle
 10
1432.005232674903
 20
964.8188635575765
 30
0.0
 40
6.0
  0
CIRCLE
  5
3273
330
18
100
AcDbEntity
  8
0
100
AcDbCircle
 10
1432.005232674903
 20
1017.851872146567
 30
0.0
 40
6.0
  0
LINE
  5
3274
330
18
100
AcDbEntity
  8
0
100
AcDbLine
 10
1318.270753043677
 20
941.3353678520721
 30
0.0
 11
1318.270753043677
 21
991.3353678520721
 31
0.0
  0
LINE
  5
3275
330
18
100
AcDbEntity
  8
0
100
AcDbLine
 10
1280.270753043677
 20
974.3353678520721
 30
0.0
 11
1295.447449854506
 21
971.3000284899063
 31
0.0
  0
LINE
  5
3276
330
18
100
AcDbEntity
  8
0
100
AcDbLine
 10
1250.770753043677
 20
974.3353678520721
 30
0.0
 11
1280.270753043677
 21
974.3353678520721
 31
0.0
  0
LINE
  5
3277
330
18
100
AcDbEntity
  8
0
100
AcDbLine
 10
1300.270753043677
 20
941.3353678520721
 30
0.0
 11
1318.270753043677
 21
941.3353678520721
 31
0.0
  0
ARC
  5
3278
330
18
100
AcDbEntity
  8
0
100
AcDbCircle
 10
1294.270753043677
 20
965.4165444357607
 30
0.0
 40
6.0
100
AcDbArc
 50
0.0
 51
78.69006752598011
  0
LINE
  5
3279
330
18
100
AcDbEntity
  8
0
100
AcDbLine
 10
1295.447449854506
 20
1011.370707214237
 30
0.0
 11
1280.270753043677
 21
1008.335367852072
 31
0.0
  0
LINE
  5
327A
330
18
100
AcDbEntity
  8
0
100
AcDbLine
 10
1258.770753043677
 20
1008.335367852072
 30
0.0
 11
1280.270753043677
 21
1008.335367852072
 31
0.0
  0
LINE
  5
327B
330
18
100
AcDbEntity
  8
0
100
AcDbLine
 10
1266.154480053911
 20
1027.593097017254
 30
0.0
 11
1262.270753043677
 21
1029.835367852072
 31
0.0
  0
ARC
  5
327C
330
18
100
AcDbEntity
  8
0
100
AcDbCircle
 10
1260.565312847383
 20
1032.835367852072
 30
0.0
 40
3.0
100
AcDbArc
 50
270.0000000000001
 51
304.644303961939
  0
LINE
  5
327D
330
18
100
AcDbEntity
  8
0
100
AcDbLine
 10
1266.154480053911
 20
1017.077638686889
 30
0.0
 11
1262.270753043677
 21
1014.835367852072
 31
0.0
  0
LINE
  5
327E
330
18
100
AcDbEntity
  8
0
100
AcDbLine
 10
1266.154480053911
 20
1017.077638686889
 30
0.0
 11
1262.270753043677
 21
1014.835367852072
 31
0.0
  0
LINE
  5
327F
330
18
100
AcDbEntity
  8
0
100
AcDbLine
 10
1266.154480053911
 20
1027.593097017254
 30
0.0
 11
1266.154480053911
 21
1017.077638686889
 31
0.0
  0
ARC
  5
3280
330
18
100
AcDbEntity
  8
0
100
AcDbCircle
 10
1253.245613639627
 20
1032.835367852072
 30
0.0
 40
3.0
100
AcDbArc
 50
270.0
 51
0.000000000000191
  0
LINE
  5
3281
330
18
100
AcDbEntity
  8
0
100
AcDbLine
 10
1255.058593309233
 20
1027.593097017254
 30
0.0
 11
1255.058593309233
 21
1017.077638686889
 31
0.0
  0
ARC
  5
3282
330
18
100
AcDbEntity
  8
0
100
AcDbCircle
 10
1260.606536681573
 20
1021.850727102315
 30
0.0
 40
7.98464074975686
100
AcDbArc
 50
74.0134269037064
 51
134.0134269037056
  0
ARC
  5
3283
330
18
100
AcDbEntity
  8
0
100
AcDbCircle
 10
1260.606536681573
 20
1022.820008601828
 30
0.0
 40
7.98464074975686
100
AcDbArc
 50
225.9865730962943
 51
285.9865730962935
  0
ARC
  5
3284
330
18
100
AcDbEntity
  8
0
100
AcDbCircle
 10
1258.770753043677
 20
1010.335367852072
 30
0.0
 40
2.0
100
AcDbArc
 50
180.0
 51
270.0
  0
LINE
  5
3285
330
18
100
AcDbEntity
  8
0
100
AcDbLine
 10
1256.770753043677
 20
1014.835367852072
 30
0.0
 11
1256.770753043677
 21
1010.335367852072
 31
0.0
  0
ARC
  5
3286
330
18
100
AcDbEntity
  8
0
100
AcDbCircle
 10
1294.270753043677
 20
1017.254191268383
 30
0.0
 40
6.0
100
AcDbArc
 50
281.3099324740198
 51
0.0
  0
CIRCLE
  5
3287
330
18
100
AcDbEntity
  8
0
100
AcDbCircle
 10
1378.972224085912
 20
964.8188635575765
 30
0.0
 40
6.0
  0
LINE
  5
3288
330
18
100
AcDbEntity
  8
0
100
AcDbLine
 10
1371.488728380408
 20
1029.835367852072
 30
0.0
 11
1373.58653409851
 21
1029.835367852072
 31
0.0
  0
ARC
  5
3289
330
18
100
AcDbEntity
  8
0
100
AcDbCircle
 10
1373.152944742513
 20
1021.850727102315
 30
0.0
 40
7.98464074975686
100
AcDbArc
 50
86.98307692167619
 51
105.9865730962936
  0
LINE
  5
328A
330
18
100
AcDbEntity
  8
0
100
AcDbLine
 10
1367.605001370174
 20
1027.593097017254
 30
0.0
 11
1367.605001370174
 21
1023.966997106739
 31
0.0
  0
ARC
  5
328B
330
18
100
AcDbEntity
  8
0
100
AcDbCircle
 10
1373.194168576702
 20
1032.835367852072
 30
0.0
 40
3.0
100
AcDbArc
 50
235.355696038061
 51
270.0
  0
LINE
  5
328C
330
18
100
AcDbEntity
  8
0
100
AcDbLine
 10
1367.605001370174
 20
1027.593097017254
 30
0.0
 11
1371.488728380408
 21
1029.835367852072
 31
0.0
  0
CIRCLE
  5
328D
330
18
100
AcDbEntity
  8
0
100
AcDbCircle
 10
1378.972224085912
 20
1017.851872146567
 30
0.0
 40
6.0
  0
LINE
  5
328E
330
18
100
AcDbEntity
  8
0
100
AcDbLine
 10
1443.372455390642
 20
1027.593097017254
 30
0.0
 11
1443.372455390642
 21
1023.966997106739
 31
0.0
  0
ARC
  5
328F
330
18
100
AcDbEntity
  8
0
100
AcDbCircle
 10
1437.783288184114
 20
1032.835367852072
 30
0.0
 40
3.0
100
AcDbArc
 50
270.0000000000001
 51
304.644303961939
  0
LINE
  5
3290
330
18
100
AcDbEntity
  8
0
100
AcDbLine
 10
1443.372455390642
 20
1027.593097017254
 30
0.0
 11
1439.488728380408
 21
1029.835367852072
 31
0.0
  0
ARC
  5
3291
330
18
100
AcDbEntity
  8
0
100
AcDbCircle
 10
1437.824512018304
 20
1021.850727102315
 30
0.0
 40
7.98464074975686
100
AcDbArc
 50
74.0134269037064
 51
93.01692307833034
  0
LINE
  5
3292
330
18
100
AcDbEntity
  8
0
100
AcDbLine
 10
1437.390922662306
 20
1029.835367852072
 30
0.0
 11
1439.488728380408
 21
1029.835367852072
 31
0.0
  0
LINE
  5
3293
330
18
100
AcDbEntity
  8
0
100
AcDbLine
 10
1437.783288184114
 20
1052.335367852072
 30
0.0
 11
1415.152944742513
 21
1052.335367852072
 31
0.0
  0
LINE
  5
3294
330
18
100
AcDbEntity
  8
0
100
AcDbLine
 10
1377.488728380408
 20
1066.335367852072
 30
0.0
 11
1433.488728380408
 21
1066.335367852072
 31
0.0
  0
ARC
  5
3295
330
18
100
AcDbEntity
  8
0
100
AcDbCircle
 10
1430.463588976358
 20
1042.835367852072
 30
0.0
 40
3.0
100
AcDbArc
 50
359.9999999999999
 51
90.00000000000014
  0
LINE
  5
3296
330
18
100
AcDbEntity
  8
0
100
AcDbLine
 10
1318.270753043677
 20
1149.423402312165
 30
0.0
 11
1318.270753043677
 21
1199.423402312165
 31
0.0
  0
LINE
  5
3297
330
18
100
AcDbEntity
  8
0
100
AcDbLine
 10
1300.270753043677
 20
1249.423402312165
 30
0.0
 11
1300.270753043677
 21
1149.423402312165
 31
0.0
  0
ARC
  5
3298
330
18
100
AcDbEntity
  8
0
100
AcDbCircle
 10
1260.329511134783
 20
1046.787180007658
 30
0.0
 40
2.0
100
AcDbArc
 50
131.6055451960657
 51
180.0
  0
ARC
  5
3299
330
18
100
AcDbEntity
  8
0
100
AcDbCircle
 10
1260.565312847383
 20
1049.335367852072
 30
0.0
 40
3.0
100
AcDbArc
 50
55.35569603806112
 51
90.00000000000012
  0
LINE
  5
329A
330
18
100
AcDbEntity
  8
0
100
AcDbLine
 10
1259.001513969015
 20
1048.282647669531
 30
0.0
 11
1260.565312847383
 21
1049.671323955385
 31
0.0
  0
ARC
  5
329B
330
18
100
AcDbEntity
  8
0
100
AcDbCircle
 10
1256.270753043677
 20
1060.335367852072
 30
0.0
 40
6.0
100
AcDbArc
 50
0.0
 51
90.0
  0
ARC
  5
329C
330
18
100
AcDbEntity
  8
0
100
AcDbCircle
 10
1253.245613639627
 20
1042.835367852072
 30
0.0
 40
3.0
100
AcDbArc
 50
359.9999999999999
 51
90.00000000000014
  0
LINE
  5
329D
330
18
100
AcDbEntity
  8
0
100
AcDbLine
 10
1318.270753043677
 20
1041.335367852072
 30
0.0
 11
1300.270753043677
 21
1041.335367852072
 31
0.0
  0
LINE
  5
329E
330
18
100
AcDbEntity
  8
0
100
AcDbLine
 10
1300.270753043677
 20
1149.423402312165
 30
0.0
 11
1318.270753043677
 21
1149.423402312165
 31
0.0
  0
LINE
  5
329F
330
18
100
AcDbEntity
  8
0
100
AcDbLine
 10
1380.513867784458
 20
1045.835367852072
 30
0.0
 11
1392.824512018302
 21
1045.835367852072
 31
0.0
  0
LINE
  5
32A0
330
18
100
AcDbEntity
  8
0
100
AcDbLine
 10
1373.194168576702
 20
1052.335367852072
 30
0.0
 11
1395.824512018302
 21
1052.335367852072
 31
0.0
  0
ARC
  5
32A1
330
18
100
AcDbEntity
  8
0
100
AcDbCircle
 10
1377.488728380408
 20
1060.335367852072
 30
0.0
 40
6.0
100
AcDbArc
 50
90.0
 51
180.0
  0
ARC
  5
32A2
330
18
100
AcDbEntity
  8
0
100
AcDbCircle
 10
1373.429970289301
 20
1046.787180007658
 30
0.0
 40
2.0
100
AcDbArc
 50
0.0000000000001018
 51
48.39445480393429
  0
LINE
  5
32A3
330
18
100
AcDbEntity
  8
0
100
AcDbLine
 10
1374.75796745507
 20
1048.282647669531
 30
0.0
 11
1373.194168576702
 21
1049.671323955385
 31
0.0
  0
ARC
  5
32A4
330
18
100
AcDbEntity
  8
0
100
AcDbCircle
 10
1373.194168576702
 20
1049.335367852072
 30
0.0
 40
3.0
100
AcDbArc
 50
89.99999999999998
 51
124.6443039619389
  0
ARC
  5
32A5
330
18
100
AcDbEntity
  8
0
100
AcDbCircle
 10
1380.513867784458
 20
1042.835367852072
 30
0.0
 40
3.0
100
AcDbArc
 50
89.99999999999994
 51
180.0000000000001
  0
ARC
  5
32A6
330
18
100
AcDbEntity
  8
0
100
AcDbCircle
 10
1395.824512018302
 20
1049.335367852072
 30
0.0
 40
3.0
100
AcDbArc
 50
0.0
 51
89.99999999999998
  0
LINE
  5
32A7
330
18
100
AcDbEntity
  8
0
100
AcDbLine
 10
1395.824512018302
 20
1045.835367852072
 30
0.0
 11
1397.439896633687
 21
1049.335367852072
 31
0.0
  0
LINE
  5
32A8
330
18
100
AcDbEntity
  8
0
100
AcDbLine
 10
1395.824512018302
 20
1042.835367852072
 30
0.0
 11
1395.824512018302
 21
1040.392507211256
 31
0.0
  0
LINE
  5
32A9
330
18
100
AcDbEntity
  8
0
100
AcDbLine
 10
1398.824512018302
 20
1049.335367852072
 30
0.0
 11
1398.824512018302
 21
1040.889259932099
 31
0.0
  0
ARC
  5
32AA
330
18
100
AcDbEntity
  8
0
100
AcDbCircle
 10
1392.824512018302
 20
1042.835367852072
 30
0.0
 40
3.0
100
AcDbArc
 50
0.0
 51
89.99999999999994
  0
ARC
  5
32AB
330
18
100
AcDbEntity
  8
0
100
AcDbCircle
 10
1415.152944742513
 20
1049.335367852072
 30
0.0
 40
3.0
100
AcDbArc
 50
90.00000000000012
 51
180.0000000000001
  0
LINE
  5
32AC
330
18
100
AcDbEntity
  8
0
100
AcDbLine
 10
1430.463588976358
 20
1045.835367852072
 30
0.0
 11
1418.152944742512
 21
1045.835367852072
 31
0.0
  0
LINE
  5
32AD
330
18
100
AcDbEntity
  8
0
100
AcDbLine
 10
1415.152944742512
 20
1045.835367852072
 30
0.0
 11
1413.537560127129
 21
1049.335367852072
 31
0.0
  0
LINE
  5
32AE
330
18
100
AcDbEntity
  8
0
100
AcDbLine
 10
1415.152944742512
 20
1042.835367852072
 30
0.0
 11
1415.152944742512
 21
1040.392507211256
 31
0.0
  0
LINE
  5
32AF
330
18
100
AcDbEntity
  8
0
100
AcDbLine
 10
1412.152944742513
 20
1049.335367852072
 30
0.0
 11
1412.152944742513
 21
1040.889259932099
 31
0.0
  0
ARC
  5
32B0
330
18
100
AcDbEntity
  8
0
100
AcDbCircle
 10
1418.152944742512
 20
1042.835367852072
 30
0.0
 40
3.0
100
AcDbArc
 50
90.00000000000014
 51
180.0000000000001
  0
LINE
  5
32B1
330
18
100
AcDbEntity
  8
0
100
AcDbLine
 10
1318.270753043677
 20
1199.423402312165
 30
0.0
 11
1318.270753043677
 21
1249.423402312165
 31
0.0
  0
LINE
  5
32B2
330
18
100
AcDbEntity
  8
0
100
AcDbLine
 10
1295.447449854506
 20
1219.458741674331
 30
0.0
 11
1280.270753043677
 21
1216.423402312165
 31
0.0
  0
LINE
  5
32B3
330
18
100
AcDbEntity
  8
0
100
AcDbLine
 10
1280.270753043677
 20
1182.423402312165
 30
0.0
 11
1295.447449854506
 21
1179.388062949999
 31
0.0
  0
LINE
  5
32B4
330
18
100
AcDbEntity
  8
0
100
AcDbLine
 10
1280.270753043678
 20
1182.423402312165
 30
0.0
 11
1259.112849493568
 21
1182.423402312165
 31
0.0
  0
LINE
  5
32B5
330
18
100
AcDbEntity
  8
0
100
AcDbLine
 10
1280.270753043677
 20
1216.423402312165
 30
0.0
 11
1258.770753043677
 21
1216.423402312165
 31
0.0
  0
ARC
  5
32B6
330
18
100
AcDbEntity
  8
0
100
AcDbCircle
 10
1294.270753043677
 20
1173.504578895854
 30
0.0
 40
6.0
100
AcDbArc
 50
0.0
 51
78.69006752598011
  0
ARC
  5
32B7
330
18
100
AcDbEntity
  8
0
100
AcDbCircle
 10
1294.270753043677
 20
1225.342225728477
 30
0.0
 40
6.0
100
AcDbArc
 50
281.3099324740198
 51
0.0
  0
LINE
  5
32B8
330
18
100
AcDbEntity
  8
0
100
AcDbLine
 10
1318.270753043677
 20
1249.423402312165
 30
0.0
 11
1300.270753043677
 21
1249.423402312165
 31
0.0
  0
ARC
  5
32B9
330
18
100
AcDbEntity
  8
0
100
AcDbCircle
 10
1433.488728380408
 20
1060.335367852072
 30
0.0
 40
6.0
100
AcDbArc
 50
0.0
 51
90.0
  0
LINE
  5
32BA
330
18
100
AcDbEntity
  8
0
100
AcDbLine
 10
1436.219489305745
 20
1048.282647669531
 30
0.0
 11
1437.783288184114
 21
1049.671323955385
 31
0.0
  0
ARC
  5
32BB
330
18
100
AcDbEntity
  8
0
100
AcDbCircle
 10
1437.783288184114
 20
1049.335367852072
 30
0.0
 40
3.0
100
AcDbArc
 50
55.35569603806112
 51
90.00000000000012
  0
ARC
  5
32BC
330
18
100
AcDbEntity
  8
0
100
AcDbCircle
 10
1437.547486471514
 20
1046.787180007658
 30
0.0
 40
2.0
100
AcDbArc
 50
131.6055451960657
 51
180.0
  0
LINE
  5
32BD
330
18
100
AcDbEntity
  8
0
100
AcDbLine
 10
1876.005412587248
 20
991.3353678520721
 30
0.0
 11
1876.005412587248
 21
1053.835367852072
 31
0.0
  0
LINE
  5
32BE
330
18
100
AcDbEntity
  8
0
100
AcDbLine
 10
1894.005412587248
 20
1053.835367852072
 30
0.0
 11
1894.005412587248
 21
928.8353678520721
 31
0.0
  0
CIRCLE
  5
32BF
330
18
100
AcDbEntity
  8
0
100
AcDbCircle
 10
1731.479030515542
 20
991.3353678520721
 30
0.0
 40
62.50000013493707
  0
CIRCLE
  5
32C0
330
18
100
AcDbEntity
  8
0
100
AcDbCircle
 10
1699.659225362148
 20
1023.155173005466
 30
0.0
 40
7.5
  0
CIRCLE
  5
32C1
330
18
100
AcDbEntity
  8
0
100
AcDbCircle
 10
1699.659225362148
 20
959.5155626986775
 30
0.0
 40
7.5
  0
CIRCLE
  5
32C2
330
18
100
AcDbEntity
  8
0
100
AcDbCircle
 10
1763.298835668937
 20
959.5155626986775
 30
0.0
 40
7.5
  0
CIRCLE
  5
32C3
330
18
100
AcDbEntity
  8
0
100
AcDbCircle
 10
1763.298835668937
 20
1023.155173005466
 30
0.0
 40
7.5
  0
LINE
  5
32C4
330
18
100
AcDbEntity
  8
0
100
AcDbLine
 10
1876.005412587248
 20
928.8353678520721
 30
0.0
 11
1876.005412587248
 21
991.3353678520721
 31
0.0
  0
LINE
  5
32C5
330
18
100
AcDbEntity
  8
0
100
AcDbLine
 10
1894.005412587248
 20
928.8353678520721
 30
0.0
 11
1876.005412587248
 21
928.8353678520721
 31
0.0
  0
LINE
  5
32C6
330
18
100
AcDbEntity
  8
0
100
AcDbLine
 10
1921.505412587248
 20
970.8353678520721
 30
0.0
 11
1898.850925822922
 21
966.3933116237728
 31
0.0
  0
ARC
  5
32C7
330
18
100
AcDbEntity
  8
0
100
AcDbCircle
 10
1900.005412587248
 20
960.5054291257099
 30
0.0
 40
6.0
100
AcDbArc
 50
101.0937230115579
 51
180.0
  0
LINE
  5
32C8
330
18
100
AcDbEntity
  8
0
100
AcDbLine
 10
1921.505412587248
 20
1011.835367852072
 30
0.0
 11
1898.850925822922
 21
1016.277424080371
 31
0.0
  0
ARC
  5
32C9
330
18
100
AcDbEntity
  8
0
100
AcDbCircle
 10
1900.005412587248
 20
1022.165306578434
 30
0.0
 40
6.0
100
AcDbArc
 50
180.0
 51
258.9062769884419
  0
LINE
  5
32CA
330
18
100
AcDbEntity
  8
0
100
AcDbLine
 10
1928.121685577015
 20
1031.593097017254
 30
0.0
 11
1928.121685577015
 21
1021.077638686889
 31
0.0
  0
LINE
  5
32CB
330
18
100
AcDbEntity
  8
0
100
AcDbLine
 10
1932.005412587249
 20
1018.835367852072
 30
0.0
 11
1928.121685577015
 21
1021.077638686889
 31
0.0
  0
LINE
  5
32CC
330
18
100
AcDbEntity
  8
0
100
AcDbLine
 10
1932.005412587249
 20
1033.835367852071
 30
0.0
 11
1928.121685577015
 21
1031.593097017254
 31
0.0
  0
LINE
  5
32CD
330
18
100
AcDbEntity
  8
0
100
AcDbLine
 10
1700.852794035527
 20
1056.335367852072
 30
0.0
 11
1723.483137477128
 21
1056.335367852072
 31
0.0
  0
LINE
  5
32CE
330
18
100
AcDbEntity
  8
0
100
AcDbLine
 10
1702.416592913896
 20
1052.282647669531
 30
0.0
 11
1700.852794035527
 21
1053.671323955385
 31
0.0
  0
ARC
  5
32CF
330
18
100
AcDbEntity
  8
0
100
AcDbCircle
 10
1705.147353839232
 20
1064.335367852072
 30
0.0
 40
6.0
100
AcDbArc
 50
90.0
 51
180.0
  0
LINE
  5
32D0
330
18
100
AcDbEntity
  8
0
100
AcDbLine
 10
1699.147353839232
 20
1064.335367852072
 30
0.0
 11
1699.147353839232
 21
1044.822868262595
 31
0.0
  0
ARC
  5
32D1
330
18
100
AcDbEntity
  8
0
100
AcDbCircle
 10
1700.852794035527
 20
1053.335367852072
 30
0.0
 40
3.0
100
AcDbArc
 50
89.99999999999998
 51
124.6443039619389
  0
ARC
  5
32D2
330
18
100
AcDbEntity
  8
0
100
AcDbCircle
 10
1900.005412587248
 20
1168.593463585803
 30
0.0
 40
6.0
100
AcDbArc
 50
101.0937230115576
 51
180.0
  0
LINE
  5
32D3
330
18
100
AcDbEntity
  8
0
100
AcDbLine
 10
1876.005412587248
 20
1136.923402312165
 30
0.0
 11
1876.005412587248
 21
1199.423402312165
 31
0.0
  0
LINE
  5
32D4
330
18
100
AcDbEntity
  8
0
100
AcDbLine
 10
1894.005412587248
 20
1261.923402312165
 30
0.0
 11
1894.005412587248
 21
1136.923402312165
 31
0.0
  0
LINE
  5
32D5
330
18
100
AcDbEntity
  8
0
100
AcDbLine
 10
1762.113480918728
 20
1056.335367852072
 30
0.0
 11
1739.483137477128
 21
1056.335367852072
 31
0.0
  0
LINE
  5
32D6
330
18
100
AcDbEntity
  8
0
100
AcDbLine
 10
1705.147353839232
 20
1070.335367852072
 30
0.0
 11
1757.818921115023
 21
1070.335367852072
 31
0.0
  0
ARC
  5
32D7
330
18
100
AcDbEntity
  8
0
100
AcDbCircle
 10
1723.483137477128
 20
1053.335367852072
 30
0.0
 40
3.0
100
AcDbArc
 50
5.716338112284705
 51
89.99999999999998
  0
LINE
  5
32D8
330
18
100
AcDbEntity
  8
0
100
AcDbLine
 10
1703.088595748126
 20
1050.787180007658
 30
0.0
 11
1703.088595748125
 21
1047.015105913454
 31
0.0
  0
ARC
  5
32D9
330
18
100
AcDbEntity
  8
0
100
AcDbCircle
 10
1708.172493243282
 20
1046.835367852072
 30
0.0
 40
3.0
100
AcDbArc
 50
89.99999999999994
 51
153.4818707460103
  0
LINE
  5
32DA
330
18
100
AcDbEntity
  8
0
100
AcDbLine
 10
1708.172493243282
 20
1049.835367852071
 30
0.0
 11
1709.479030132198
 21
1049.835367852071
 31
0.0
  0
ARC
  5
32DB
330
18
100
AcDbEntity
  8
0
100
AcDbCircle
 10
1701.088595748126
 20
1050.787180007658
 30
0.0
 40
2.0
100
AcDbArc
 50
0.0000000000001088
 51
48.39445480393429
  0
ARC
  5
32DC
330
18
100
AcDbEntity
  8
0
100
AcDbCircle
 10
1739.483137477128
 20
1053.335367852072
 30
0.0
 40
3.0
100
AcDbArc
 50
90.00000000000003
 51
174.2962515536517
  0
LINE
  5
32DD
330
18
100
AcDbEntity
  8
0
100
AcDbLine
 10
1763.818921115023
 20
1064.335367852072
 30
0.0
 11
1763.818921115023
 21
1044.817902317827
 31
0.0
  0
LINE
  5
32DE
330
18
100
AcDbEntity
  8
0
100
AcDbLine
 10
1754.793781710973
 20
1049.835367852071
 30
0.0
 11
1753.479030898886
 21
1049.835367852071
 31
0.0
  0
ARC
  5
32DF
330
18
100
AcDbEntity
  8
0
100
AcDbCircle
 10
1754.793781710973
 20
1046.835367852072
 30
0.0
 40
3.0
100
AcDbArc
 50
26.41434537551824
 51
90.00000000000005
  0
LINE
  5
32E0
330
18
100
AcDbEntity
  8
0
100
AcDbLine
 10
1759.877679206129
 20
1050.787180007658
 30
0.0
 11
1759.877679206128
 21
1047.0109169685
 31
0.0
  0
ARC
  5
32E1
330
18
100
AcDbEntity
  8
0
100
AcDbCircle
 10
1762.113480918728
 20
1053.335367852072
 30
0.0
 40
3.0
100
AcDbArc
 50
55.35569603806104
 51
90.00000000000003
  0
LINE
  5
32E2
330
18
100
AcDbEntity
  8
0
100
AcDbLine
 10
1760.54968204036
 20
1052.282647669531
 30
0.0
 11
1762.113480918728
 21
1053.671323955385
 31
0.0
  0
ARC
  5
32E3
330
18
100
AcDbEntity
  8
0
100
AcDbCircle
 10
1761.877679206129
 20
1050.787180007658
 30
0.0
 40
2.0
100
AcDbArc
 50
131.6055451960656
 51
179.9999999999998
  0
ARC
  5
32E4
330
18
100
AcDbEntity
  8
0
100
AcDbCircle
 10
1757.818921115023
 20
1064.335367852072
 30
0.0
 40
6.0
100
AcDbArc
 50
0.000000000000007
 51
90.0
  0
LINE
  5
32E5
330
18
100
AcDbEntity
  8
0
100
AcDbLine
 10
1876.005412587248
 20
1053.835367852072
 30
0.0
 11
1894.005412587248
 21
1053.835367852072
 31
0.0
  0
LINE
  5
32E6
330
18
100
AcDbEntity
  8
0
100
AcDbLine
 10
1894.005412587248
 20
1136.923402312165
 30
0.0
 11
1876.005412587248
 21
1136.923402312165
 31
0.0
  0
LINE
  5
32E7
330
18
100
AcDbEntity
  8
0
100
AcDbLine
 10
1876.005412587248
 20
1199.423402312165
 30
0.0
 11
1876.005412587248
 21
1261.923402312165
 31
0.0
  0
LINE
  5
32E8
330
18
100
AcDbEntity
  8
0
100
AcDbLine
 10
1921.505412587248
 20
1178.923402312165
 30
0.0
 11
1898.850925822922
 21
1174.481346083867
 31
0.0
  0
LINE
  5
32E9
330
18
100
AcDbEntity
  8
0
100
AcDbLine
 10
1921.505412587248
 20
1219.923402312165
 30
0.0
 11
1898.850925822922
 21
1224.365458540465
 31
0.0
  0
ARC
  5
32EA
330
18
100
AcDbEntity
  8
0
100
AcDbCircle
 10
1900.005412587248
 20
1230.253341038528
 30
0.0
 40
6.0
100
AcDbArc
 50
180.0
 51
258.906276988442
  0
LINE
  5
32EB
330
18
100
AcDbEntity
  8
0
100
AcDbLine
 10
1894.005412587248
 20
1295.664292251892
 30
0.0
 11
1876.005412587248
 21
1295.664292251892
 31
0.0
  0
LINE
  5
32EC
330
18
100
AcDbEntity
  8
0
100
AcDbLine
 10
1876.005412587248
 20
1261.923402312165
 30
0.0
 11
1894.005412587248
 21
1261.923402312165
 31
0.0
  0
ARC
  5
32ED
330
18
100
AcDbEntity
  8
0
100
AcDbCircle
 10
1256.270753043677
 20
1427.164292251892
 30
0.0
 40
6.0
100
AcDbArc
 50
0.0
 51
90.0
  0
LINE
  5
32EE
330
18
100
AcDbEntity
  8
0
100
AcDbLine
 10
1300.270753043677
 20
1408.164292251892
 30
0.0
 11
1300.270753043677
 21
1308.164292251892
 31
0.0
  0
LINE
  5
32EF
330
18
100
AcDbEntity
  8
0
100
AcDbLine
 10
1318.270753043677
 20
1358.164292251892
 30
0.0
 11
1318.270753043677
 21
1408.164292251892
 31
0.0
  0
LINE
  5
32F0
330
18
100
AcDbEntity
  8
0
100
AcDbLine
 10
1280.270753043677
 20
1341.164292251892
 30
0.0
 11
1295.447449854506
 21
1338.128952889727
 31
0.0
  0
ARC
  5
32F1
330
18
100
AcDbEntity
  8
0
100
AcDbCircle
 10
1294.270753043677
 20
1332.245468835581
 30
0.0
 40
6.0
100
AcDbArc
 50
0.0
 51
78.69006752598011
  0
LINE
  5
32F2
330
18
100
AcDbEntity
  8
0
100
AcDbLine
 10
1318.270753043677
 20
1308.164292251892
 30
0.0
 11
1318.270753043677
 21
1358.164292251892
 31
0.0
  0
LINE
  5
32F3
330
18
100
AcDbEntity
  8
0
100
AcDbLine
 10
1300.270753043677
 20
1308.164292251892
 30
0.0
 11
1318.270753043677
 21
1308.164292251892
 31
0.0
  0
LINE
  5
32F4
330
18
100
AcDbEntity
  8
0
100
AcDbLine
 10
1295.447449854506
 20
1378.199631614058
 30
0.0
 11
1280.270753043677
 21
1375.164292251892
 31
0.0
  0
LINE
  5
32F5
330
18
100
AcDbEntity
  8
0
100
AcDbLine
 10
1256.245613639627
 20
1409.664292251892
 30
0.0
 11
1256.245613639627
 21
1399.664292251892
 31
0.0
  0
LINE
  5
32F6
330
18
100
AcDbEntity
  8
0
100
AcDbLine
 10
1258.329511134784
 20
1413.616104407478
 30
0.0
 11
1258.329511134783
 21
1399.664292251892
 31
0.0
  0
LINE
  5
32F7
330
18
100
AcDbEntity
  8
0
100
AcDbLine
 10
1262.270753043677
 20
1427.164292251892
 30
0.0
 11
1262.270753043677
 21
1396.664292251892
 31
0.0
  0
LINE
  5
32F8
330
18
100
AcDbEntity
  8
0
100
AcDbLine
 10
1280.270753043677
 20
1375.164292251892
 30
0.0
 11
1258.770753043677
 21
1375.164292251892
 31
0.0
  0
LINE
  5
32F9
330
18
100
AcDbEntity
  8
0
100
AcDbLine
 10
1266.154480053911
 20
1394.422021417075
 30
0.0
 11
1266.154480053911
 21
1383.90656308671
 31
0.0
  0
LINE
  5
32FA
330
18
100
AcDbEntity
  8
0
100
AcDbLine
 10
1266.154480053911
 20
1383.90656308671
 30
0.0
 11
1262.270753043677
 21
1381.664292251892
 31
0.0
  0
LINE
  5
32FB
330
18
100
AcDbEntity
  8
0
100
AcDbLine
 10
1266.154480053911
 20
1383.90656308671
 30
0.0
 11
1262.270753043677
 21
1381.664292251892
 31
0.0
  0
LINE
  5
32FC
330
18
100
AcDbEntity
  8
0
100
AcDbLine
 10
1266.154480053911
 20
1394.422021417075
 30
0.0
 11
1262.270753043677
 21
1396.664292251892
 31
0.0
  0
ARC
  5
32FD
330
18
100
AcDbEntity
  8
0
100
AcDbCircle
 10
1260.565312847383
 20
1399.664292251892
 30
0.0
 40
3.0
100
AcDbArc
 50
270.0
 51
304.644303961939
  0
LINE
  5
32FE
330
18
100
AcDbEntity
  8
0
100
AcDbLine
 10
1255.058593309233
 20
1394.422021417075
 30
0.0
 11
1255.058593309233
 21
1383.90656308671
 31
0.0
  0
LINE
  5
32FF
330
18
100
AcDbEntity
  8
0
100
AcDbLine
 10
1256.770753043677
 20
1381.664292251892
 30
0.0
 11
1256.770753043677
 21
1377.164292251892
 31
0.0
  0
ARC
  5
3300
330
18
100
AcDbEntity
  8
0
100
AcDbCircle
 10
1253.245613639627
 20
1399.664292251892
 30
0.0
 40
3.0
100
AcDbArc
 50
269.9999999999999
 51
0.0000000000001018
  0
ARC
  5
3301
330
18
100
AcDbEntity
  8
0
100
AcDbCircle
 10
1260.606536681572
 20
1388.679651502136
 30
0.0
 40
7.98464074975686
100
AcDbArc
 50
74.0134269037064
 51
134.0134269037056
  0
ARC
  5
3302
330
18
100
AcDbEntity
  8
0
100
AcDbCircle
 10
1260.606536681572
 20
1389.648933001649
 30
0.0
 40
7.98464074975686
100
AcDbArc
 50
225.9865730962943
 51
285.9865730962935
  0
ARC
  5
3303
330
18
100
AcDbEntity
  8
0
100
AcDbCircle
 10
1258.770753043677
 20
1377.164292251892
 30
0.0
 40
2.0
100
AcDbArc
 50
180.0
 51
270.0
  0
ARC
  5
3304
330
18
100
AcDbEntity
  8
0
100
AcDbCircle
 10
1260.329511134784
 20
1413.616104407478
 30
0.0
 40
2.0
100
AcDbArc
 50
131.6055451960656
 51
179.9999999999998
  0
ARC
  5
3305
330
18
100
AcDbEntity
  8
0
100
AcDbCircle
 10
1260.565312847383
 20
1416.164292251892
 30
0.0
 40
3.0
100
AcDbArc
 50
55.35569603806103
 51
90.00000000000003
  0
LINE
  5
3306
330
18
100
AcDbEntity
  8
0
100
AcDbLine
 10
1259.001513969015
 20
1415.111572069352
 30
0.0
 11
1260.565312847383
 21
1416.500248355206
 31
0.0
  0
ARC
  5
3307
330
18
100
AcDbEntity
  8
0
100
AcDbCircle
 10
1253.245613639627
 20
1409.664292251892
 30
0.0
 40
3.0
100
AcDbArc
 50
359.9999999999998
 51
90.00000000000005
  0
ARC
  5
3308
330
18
100
AcDbEntity
  8
0
100
AcDbCircle
 10
1294.270753043677
 20
1384.083115668204
 30
0.0
 40
6.0
100
AcDbArc
 50
281.3099324740198
 51
0.0
  0
LINE
  5
3309
330
18
100
AcDbEntity
  8
0
100
AcDbLine
 10
1318.270753043677
 20
1408.164292251892
 30
0.0
 11
1300.270753043677
 21
1408.164292251892
 31
0.0
  0
LINE
  5
330A
330
18
100
AcDbEntity
  8
0
100
AcDbLine
 10
1876.005412587248
 20
1358.164292251892
 30
0.0
 11
1876.005412587248
 21
1420.664292251892
 31
0.0
  0
LINE
  5
330B
330
18
100
AcDbEntity
  8
0
100
AcDbLine
 10
1921.505412587248
 20
1337.664292251892
 30
0.0
 11
1898.850925822922
 21
1333.222236023593
 31
0.0
  0
ARC
  5
330C
330
18
100
AcDbEntity
  8
0
100
AcDbCircle
 10
1900.005412587248
 20
1327.33435352553
 30
0.0
 40
6.0
100
AcDbArc
 50
101.0937230115579
 51
180.0
  0
LINE
  5
330D
330
18
100
AcDbEntity
  8
0
100
AcDbLine
 10
1876.005412587248
 20
1420.664292251892
 30
0.0
 11
1894.005412587248
 21
1420.664292251892
 31
0.0
  0
LINE
  5
330E
330
18
100
AcDbEntity
  8
0
100
AcDbLine
 10
1921.505412587248
 20
1378.664292251892
 30
0.0
 11
1898.850925822922
 21
1383.106348480192
 31
0.0
  0
ARC
  5
330F
330
18
100
AcDbEntity
  8
0
100
AcDbCircle
 10
1900.005412587248
 20
1388.994230978254
 30
0.0
 40
6.0
100
AcDbArc
 50
180.0
 51
258.9062769884417
  0
LINE
  5
3310
330
18
100
AcDbEntity
  8
0
100
AcDbLine
 10
1928.121685577015
 20
1398.422021417075
 30
0.0
 11
1928.121685577015
 21
1387.90656308671
 31
0.0
  0
LINE
  5
3311
330
18
100
AcDbEntity
  8
0
100
AcDbLine
 10
1932.005412587249
 20
1385.664292251892
 30
0.0
 11
1928.121685577015
 21
1387.90656308671
 31
0.0
  0
LINE
  5
3312
330
18
100
AcDbEntity
  8
0
100
AcDbLine
 10
1932.005412587249
 20
1400.664292251892
 30
0.0
 11
1928.121685577015
 21
1398.422021417075
 31
0.0
  0
LINE
  5
3313
330
18
100
AcDbEntity
  8
0
100
AcDbLine
 10
2056.005412587249
 20
1295.664292251892
 30
0.0
 11
2056.005412587249
 21
1358.164292251892
 31
0.0
  0
LINE
  5
3314
330
18
100
AcDbEntity
  8
0
100
AcDbLine
 10
2038.005412587249
 20
1420.664292251892
 30
0.0
 11
2038.005412587249
 21
1295.664292251892
 31
0.0
  0
LINE
  5
3315
330
18
100
AcDbEntity
  8
0
100
AcDbLine
 10
1933.669628949353
 20
1064.335367852072
 30
0.0
 11
1933.669628949353
 21
1033.835367852071
 31
0.0
  0
LINE
  5
3316
330
18
100
AcDbEntity
  8
0
100
AcDbLine
 10
1937.610870858247
 20
1050.787180007658
 30
0.0
 11
1937.610870858247
 21
1036.835367852072
 31
0.0
  0
LINE
  5
3317
330
18
100
AcDbEntity
  8
0
100
AcDbLine
 10
1961.005412587249
 20
1053.335367852072
 30
0.0
 11
1961.005412587249
 21
1036.835367852072
 31
0.0
  0
LINE
  5
3318
330
18
100
AcDbEntity
  8
0
100
AcDbLine
 10
1971.005412587248
 20
1053.335367852072
 30
0.0
 11
1971.005412587248
 21
1036.835367852072
 31
0.0
  0
LINE
  5
3319
330
18
100
AcDbEntity
  8
0
100
AcDbLine
 10
1939.694768353403
 20
1046.835367852072
 30
0.0
 11
1939.694768353403
 21
1036.835367852072
 31
0.0
  0
LINE
  5
331A
330
18
100
AcDbEntity
  8
0
100
AcDbLine
 10
1958.005412587248
 20
1046.835367852072
 30
0.0
 11
1958.005412587248
 21
1036.835367852072
 31
0.0
  0
LINE
  5
331B
330
18
100
AcDbEntity
  8
0
100
AcDbLine
 10
1974.005412587248
 20
1046.835367852072
 30
0.0
 11
1974.005412587248
 21
1036.835367852072
 31
0.0
  0
LINE
  5
331C
330
18
100
AcDbEntity
  8
0
100
AcDbLine
 10
1998.341196225144
 20
1064.335367852072
 30
0.0
 11
1998.341196225144
 21
1033.835367852071
 31
0.0
  0
LINE
  5
331D
330
18
100
AcDbEntity
  8
0
100
AcDbLine
 10
1994.39995431625
 20
1050.787180007658
 30
0.0
 11
1994.39995431625
 21
1036.835367852072
 31
0.0
  0
LINE
  5
331E
330
18
100
AcDbEntity
  8
0
100
AcDbLine
 10
1992.316056821094
 20
1046.835367852072
 30
0.0
 11
1992.316056821094
 21
1036.835367852072
 31
0.0
  0
LINE
  5
331F
330
18
100
AcDbEntity
  8
0
100
AcDbLine
 10
2038.005412587249
 20
1053.835367852072
 30
0.0
 11
2038.005412587249
 21
928.8353678520721
 31
0.0
  0
LINE
  5
3320
330
18
100
AcDbEntity
  8
0
100
AcDbLine
 10
2056.005412587249
 20
991.3353678520721
 30
0.0
 11
2056.005412587249
 21
1053.835367852072
 31
0.0
  0
CIRCLE
  5
3321
330
18
100
AcDbEntity
  8
0
100
AcDbCircle
 10
2154.107769872233
 20
991.3353678520721
 30
0.0
 40
62.50000013493707
  0
CIRCLE
  5
3322
330
18
100
AcDbEntity
  8
0
100
AcDbCircle
 10
2122.287964718839
 20
1023.155173005466
 30
0.0
 40
7.5
  0
CIRCLE
  5
3323
330
18
100
AcDbEntity
  8
0
100
AcDbCircle
 10
2122.287964718839
 20
959.5155626986775
 30
0.0
 40
7.5
  0
LINE
  5
3324
330
18
100
AcDbEntity
  8
0
100
AcDbLine
 10
2010.505412587249
 20
970.8353678520721
 30
0.0
 11
2033.159899351575
 21
966.3933116237728
 31
0.0
  0
LINE
  5
3325
330
18
100
AcDbEntity
  8
0
100
AcDbLine
 10
2010.505412587249
 20
1011.835367852072
 30
0.0
 11
2033.159899351575
 21
1016.277424080371
 31
0.0
  0
ARC
  5
3326
330
18
100
AcDbEntity
  8
0
100
AcDbCircle
 10
1976.005412587248
 20
955.8776465490891
 30
0.0
 40
18.0
100
AcDbArc
 50
67.06974111953707
 51
112.9302588804629
  0
TEXT
  5
3327
330
18
100
AcDbEntity
  8
0
100
AcDbText
 10
1948.084796083724
 20
915.4125833446251
 30
0.0
 40
20.0
  1
25A
 41
0.8
 11
1948.084796083724
 21
915.4125833446251
 31
0.0
100
AcDbText
 73
     1
  0
ARC
  5
3328
330
18
100
AcDbEntity
  8
0
100
AcDbCircle
 10
1961.005412587249
 20
991.3353678520721
 30
0.0
 40
20.5
100
AcDbArc
 50
270.0
 51
292.9302588804629
  0
LINE
  5
3329
330
18
100
AcDbEntity
  8
0
100
AcDbLine
 10
1991.005412587248
 20
970.8353678520721
 30
0.0
 11
2010.505412587249
 21
970.8353678520721
 31
0.0
  0
ARC
  5
332A
330
18
100
AcDbEntity
  8
0
100
AcDbCircle
 10
1991.005412587248
 20
991.3353678520721
 30
0.0
 40
20.5
100
AcDbArc
 50
247.069741119537
 51
270.0
  0
ARC
  5
332B
330
18
100
AcDbEntity
  8
0
100
AcDbCircle
 10
1979.399332720027
 20
1059.959943919379
 30
0.0
 40
41.12457606730745
100
AcDbArc
 50
250.9925324124695
 51
289.0074675875304
  0
ARC
  5
332C
330
18
100
AcDbEntity
  8
0
100
AcDbCircle
 10
1979.399332720027
 20
992.7107917847648
 30
0.0
 40
41.12457606730745
100
AcDbArc
 50
70.99253241246959
 51
109.0074675875305
  0
LINE
  5
332D
330
18
100
AcDbEntity
  8
0
100
AcDbLine
 10
1983.005412587249
 20
1002.335367852072
 30
0.0
 11
1949.005412587249
 21
1002.335367852072
 31
0.0
  0
LINE
  5
332E
330
18
100
AcDbEntity
  8
0
100
AcDbLine
 10
1983.005412587249
 20
980.335367852072
 30
0.0
 11
1949.005412587249
 21
980.335367852072
 31
0.0
  0
ARC
  5
332F
330
18
100
AcDbEntity
  8
0
100
AcDbCircle
 10
1954.904989943359
 20
1023.322487423748
 30
0.0
 40
20.50414283242204
100
AcDbArc
 50
217.0799165973881
 51
250.4737331385742
  0
LINE
  5
3330
330
18
100
AcDbEntity
  8
0
100
AcDbLine
 10
1949.005412587249
 20
1002.335367852072
 30
0.0
 11
1949.005412587249
 21
980.335367852072
 31
0.0
  0
ARC
  5
3331
330
18
100
AcDbEntity
  8
0
100
AcDbCircle
 10
1952.61149245447
 20
992.7107917847648
 30
0.0
 40
41.12457606730745
100
AcDbArc
 50
70.99253241246948
 51
109.0074675875304
  0
ARC
  5
3332
330
18
100
AcDbEntity
  8
0
100
AcDbCircle
 10
1952.61149245447
 20
1059.959943919379
 30
0.0
 40
41.12457606730745
100
AcDbArc
 50
250.9925324124695
 51
289.0074675875305
  0
ARC
  5
3333
330
18
100
AcDbEntity
  8
0
100
AcDbCircle
 10
1955.005412587248
 20
1036.835367852072
 30
0.0
 40
3.0
100
AcDbArc
 50
270.0
 51
0.0
  0
LINE
  5
3334
330
18
100
AcDbEntity
  8
0
100
AcDbLine
 10
1939.217572321693
 20
1031.593097017254
 30
0.0
 11
1939.217572321693
 21
1021.077638686889
 31
0.0
  0
LINE
  5
3335
330
18
100
AcDbEntity
  8
0
100
AcDbLine
 10
1937.505412587248
 20
1014.835367852072
 30
0.0
 11
1937.505412587248
 21
1018.835367852072
 31
0.0
  0
LINE
  5
3336
330
18
100
AcDbEntity
  8
0
100
AcDbLine
 10
1936.005412587249
 20
1017.835367852071
 30
0.0
 11
1936.005412587249
 21
1018.835367852072
 31
0.0
  0
LINE
  5
3337
330
18
100
AcDbEntity
  8
0
100
AcDbLine
 10
1937.505412587248
 20
1016.335367852072
 30
0.0
 11
1936.005412587249
 21
1017.835367852071
 31
0.0
  0
ARC
  5
3338
330
18
100
AcDbEntity
  8
0
100
AcDbCircle
 10
1942.694768353403
 20
1036.835367852072
 30
0.0
 40
3.0
100
AcDbArc
 50
179.9999999999998
 51
270.0
  0
ARC
  5
3339
330
18
100
AcDbEntity
  8
0
100
AcDbCircle
 10
1935.375069145648
 20
1036.835367852072
 30
0.0
 40
3.0
100
AcDbArc
 50
235.355696038061
 51
270.0
  0
ARC
  5
333A
330
18
100
AcDbEntity
  8
0
100
AcDbCircle
 10
1934.505412587249
 20
1014.835367852072
 30
0.0
 40
3.0
100
AcDbArc
 50
270.0
 51
0.0
  0
LINE
  5
333B
330
18
100
AcDbEntity
  8
0
100
AcDbLine
 10
1966.005412587248
 20
1031.593097017254
 30
0.0
 11
1966.005412587248
 21
1021.077638686889
 31
0.0
  0
ARC
  5
333C
330
18
100
AcDbEntity
  8
0
100
AcDbCircle
 10
1958.005412587248
 20
1036.835367852072
 30
0.0
 40
3.0
100
AcDbArc
 50
270.0
 51
0.0
  0
ARC
  5
333D
330
18
100
AcDbEntity
  8
0
100
AcDbCircle
 10
1974.005412587248
 20
1036.835367852072
 30
0.0
 40
3.0
100
AcDbArc
 50
180.0
 51
270.0
  0
ARC
  5
333E
330
18
100
AcDbEntity
  8
0
100
AcDbCircle
 10
1977.005412587248
 20
1036.835367852072
 30
0.0
 40
3.0
100
AcDbArc
 50
180.0
 51
269.9999999999999
  0
ARC
  5
333F
330
18
100
AcDbEntity
  8
0
100
AcDbCircle
 10
1977.105835231137
 20
1023.322487423748
 30
0.0
 40
20.50414283242204
100
AcDbArc
 50
289.5262668614257
 51
322.9200834026119
  0
LINE
  5
3340
330
18
100
AcDbEntity
  8
0
100
AcDbLine
 10
1983.005412587249
 20
1002.335367852072
 30
0.0
 11
1983.005412587249
 21
980.335367852072
 31
0.0
  0
LINE
  5
3341
330
18
100
AcDbEntity
  8
0
100
AcDbLine
 10
2000.005412587249
 20
1018.835367852072
 30
0.0
 11
2003.889139597482
 21
1021.077638686889
 31
0.0
  0
LINE
  5
3342
330
18
100
AcDbEntity
  8
0
100
AcDbLine
 10
2000.005412587249
 20
1033.835367852071
 30
0.0
 11
2003.889139597482
 21
1031.593097017254
 31
0.0
  0
LINE
  5
3343
330
18
100
AcDbEntity
  8
0
100
AcDbLine
 10
2010.505412587249
 20
1011.835367852072
 30
0.0
 11
1997.505412587249
 21
1011.835367852072
 31
0.0
  0
LINE
  5
3344
330
18
100
AcDbEntity
  8
0
100
AcDbLine
 10
1992.793252852805
 20
1031.593097017254
 30
0.0
 11
1992.793252852805
 21
1021.077638686889
 31
0.0
  0
ARC
  5
3345
330
18
100
AcDbEntity
  8
0
100
AcDbCircle
 10
1998.341196225143
 20
1026.820008601829
 30
0.0
 40
7.984640749757013
100
AcDbArc
 50
225.9865730962952
 51
285.9865730962948
  0
LINE
  5
3346
330
18
100
AcDbEntity
  8
0
100
AcDbLine
 10
1994.505412587249
 20
1014.835367852072
 30
0.0
 11
1994.505412587249
 21
1018.835367852072
 31
0.0
  0
LINE
  5
3347
330
18
100
AcDbEntity
  8
0
100
AcDbLine
 10
1996.005412587249
 20
1017.835367852071
 30
0.0
 11
1996.005412587249
 21
1018.835367852072
 31
0.0
  0
LINE
  5
3348
330
18
100
AcDbEntity
  8
0
100
AcDbLine
 10
1994.505412587249
 20
1016.335367852072
 30
0.0
 11
1996.005412587249
 21
1017.835367852071
 31
0.0
  0
ARC
  5
3349
330
18
100
AcDbEntity
  8
0
100
AcDbCircle
 10
1998.341196225143
 20
1025.850727102315
 30
0.0
 40
7.984640749757013
100
AcDbArc
 50
74.01342690370514
 51
134.0134269037047
  0
ARC
  5
334A
330
18
100
AcDbEntity
  8
0
100
AcDbCircle
 10
1996.635756028849
 20
1036.835367852072
 30
0.0
 40
3.0
100
AcDbArc
 50
270.0
 51
304.644303961939
  0
ARC
  5
334B
330
18
100
AcDbEntity
  8
0
100
AcDbCircle
 10
1989.316056821095
 20
1036.835367852072
 30
0.0
 40
3.0
100
AcDbArc
 50
269.9999999999999
 51
0.0000000000001018
  0
ARC
  5
334C
330
18
100
AcDbEntity
  8
0
100
AcDbCircle
 10
1997.505412587249
 20
1014.835367852072
 30
0.0
 40
3.0
100
AcDbArc
 50
180.0
 51
270.0
  0
LINE
  5
334D
330
18
100
AcDbEntity
  8
0
100
AcDbLine
 10
2003.889139597482
 20
1031.593097017254
 30
0.0
 11
2003.889139597482
 21
1021.077638686889
 31
0.0
  0
LINE
  5
334E
330
18
100
AcDbEntity
  8
0
100
AcDbLine
 10
2056.005412587249
 20
928.8353678520721
 30
0.0
 11
2056.005412587249
 21
991.3353678520721
 31
0.0
  0
LINE
  5
334F
330
18
100
AcDbEntity
  8
0
100
AcDbLine
 10
2038.005412587249
 20
928.8353678520721
 30
0.0
 11
2056.005412587249
 21
928.8353678520721
 31
0.0
  0
ARC
  5
3350
330
18
100
AcDbEntity
  8
0
100
AcDbCircle
 10
2032.005412587249
 20
960.5054291257099
 30
0.0
 40
6.0
100
AcDbArc
 50
0.0
 51
78.90627698844195
  0
ARC
  5
3351
330
18
100
AcDbEntity
  8
0
100
AcDbCircle
 10
2032.005412587249
 20
1022.165306578434
 30
0.0
 40
6.0
100
AcDbArc
 50
281.0937230115568
 51
0.0
  0
CIRCLE
  5
3352
330
18
100
AcDbEntity
  8
0
100
AcDbCircle
 10
2185.927575025627
 20
959.5155626986775
 30
0.0
 40
7.5
  0
CIRCLE
  5
3353
330
18
100
AcDbEntity
  8
0
100
AcDbCircle
 10
2185.927575025627
 20
1023.155173005466
 30
0.0
 40
7.5
  0
ARC
  5
3354
330
18
100
AcDbEntity
  8
0
100
AcDbCircle
 10
2032.005412587249
 20
1168.593463585804
 30
0.0
 40
6.0
100
AcDbArc
 50
0.0
 51
78.9062769884421
  0
LINE
  5
3355
330
18
100
AcDbEntity
  8
0
100
AcDbLine
 10
1966.005412587248
 20
1161.539675301932
 30
0.0
 11
1939.217572321693
 21
1172.635562046609
 31
0.0
  0
LINE
  5
3356
330
18
100
AcDbEntity
  8
0
100
AcDbLine
 10
1992.793252852805
 20
1172.635562046609
 30
0.0
 11
1966.005412587248
 21
1161.539675301932
 31
0.0
  0
LINE
  5
3357
330
18
100
AcDbEntity
  8
0
100
AcDbLine
 10
2056.005412587249
 20
1136.923402312165
 30
0.0
 11
2056.005412587249
 21
1199.423402312165
 31
0.0
  0
LINE
  5
3358
330
18
100
AcDbEntity
  8
0
100
AcDbLine
 10
2038.005412587249
 20
1261.923402312165
 30
0.0
 11
2038.005412587249
 21
1136.923402312165
 31
0.0
  0
LINE
  5
3359
330
18
100
AcDbEntity
  8
0
100
AcDbLine
 10
1989.316056821095
 20
1049.835367852071
 30
0.0
 11
1977.005412587248
 21
1049.835367852071
 31
0.0
  0
LINE
  5
335A
330
18
100
AcDbEntity
  8
0
100
AcDbLine
 10
1992.341196225144
 20
1070.335367852072
 30
0.0
 11
1939.669628949353
 21
1070.335367852072
 31
0.0
  0
LINE
  5
335B
330
18
100
AcDbEntity
  8
0
100
AcDbLine
 10
1996.635756028849
 20
1056.335367852072
 30
0.0
 11
1974.005412587248
 21
1056.335367852072
 31
0.0
  0
ARC
  5
335C
330
18
100
AcDbEntity
  8
0
100
AcDbCircle
 10
1955.005412587248
 20
1046.835367852072
 30
0.0
 40
3.0
100
AcDbArc
 50
0.0
 51
89.99999999999994
  0
LINE
  5
335D
330
18
100
AcDbEntity
  8
0
100
AcDbLine
 10
1935.375069145648
 20
1056.335367852072
 30
0.0
 11
1958.005412587248
 21
1056.335367852072
 31
0.0
  0
ARC
  5
335E
330
18
100
AcDbEntity
  8
0
100
AcDbCircle
 10
1942.694768353403
 20
1046.835367852072
 30
0.0
 40
3.0
100
AcDbArc
 50
89.99999999999994
 51
180.0000000000001
  0
LINE
  5
335F
330
18
100
AcDbEntity
  8
0
100
AcDbLine
 10
1942.694768353403
 20
1049.835367852071
 30
0.0
 11
1955.005412587248
 21
1049.835367852071
 31
0.0
  0
ARC
  5
3360
330
18
100
AcDbEntity
  8
0
100
AcDbCircle
 10
1935.610870858247
 20
1050.787180007658
 30
0.0
 40
2.0
100
AcDbArc
 50
0.0000000000001018
 51
48.39445480393429
  0
LINE
  5
3361
330
18
100
AcDbEntity
  8
0
100
AcDbLine
 10
1936.938868024016
 20
1052.282647669531
 30
0.0
 11
1935.375069145648
 21
1053.671323955385
 31
0.0
  0
ARC
  5
3362
330
18
100
AcDbEntity
  8
0
100
AcDbCircle
 10
1935.375069145648
 20
1053.335367852072
 30
0.0
 40
3.0
100
AcDbArc
 50
89.99999999999998
 51
124.6443039619389
  0
ARC
  5
3363
330
18
100
AcDbEntity
  8
0
100
AcDbCircle
 10
1977.005412587248
 20
1046.835367852072
 30
0.0
 40
3.0
100
AcDbArc
 50
90.00000000000005
 51
180.0
  0
ARC
  5
3364
330
18
100
AcDbEntity
  8
0
100
AcDbCircle
 10
1958.005412587248
 20
1053.335367852072
 30
0.0
 40
3.0
100
AcDbArc
 50
0.0
 51
89.99999999999998
  0
LINE
  5
3365
330
18
100
AcDbEntity
  8
0
100
AcDbLine
 10
1958.005412587248
 20
1049.835367852071
 30
0.0
 11
1959.620797202633
 21
1053.335367852072
 31
0.0
  0
LINE
  5
3366
330
18
100
AcDbEntity
  8
0
100
AcDbLine
 10
1974.005412587248
 20
1049.835367852071
 30
0.0
 11
1972.390027971864
 21
1053.335367852072
 31
0.0
  0
ARC
  5
3367
330
18
100
AcDbEntity
  8
0
100
AcDbCircle
 10
1974.005412587248
 20
1053.335367852072
 30
0.0
 40
3.0
100
AcDbArc
 50
90.00000000000003
 51
180.0
  0
ARC
  5
3368
330
18
100
AcDbEntity
  8
0
100
AcDbCircle
 10
1992.341196225144
 20
1064.335367852072
 30
0.0
 40
6.0
100
AcDbArc
 50
0.0
 51
90.0
  0
ARC
  5
3369
330
18
100
AcDbEntity
  8
0
100
AcDbCircle
 10
1996.635756028849
 20
1053.335367852072
 30
0.0
 40
3.0
100
AcDbArc
 50
55.35569603806104
 51
90.00000000000003
  0
LINE
  5
336A
330
18
100
AcDbEntity
  8
0
100
AcDbLine
 10
1995.07195715048
 20
1052.282647669531
 30
0.0
 11
1996.635756028849
 21
1053.671323955385
 31
0.0
  0
ARC
  5
336B
330
18
100
AcDbEntity
  8
0
100
AcDbCircle
 10
1996.39995431625
 20
1050.787180007658
 30
0.0
 40
2.0
100
AcDbArc
 50
131.6055451960656
 51
179.9999999999998
  0
ARC
  5
336C
330
18
100
AcDbEntity
  8
0
100
AcDbCircle
 10
1989.316056821095
 20
1046.835367852072
 30
0.0
 40
3.0
100
AcDbArc
 50
359.9999999999998
 51
90.00000000000005
  0
LINE
  5
336D
330
18
100
AcDbEntity
  8
0
100
AcDbLine
 10
2056.005412587249
 20
1053.835367852072
 30
0.0
 11
2038.005412587249
 21
1053.835367852072
 31
0.0
  0
LINE
  5
336E
330
18
100
AcDbEntity
  8
0
100
AcDbLine
 10
2038.005412587249
 20
1136.923402312165
 30
0.0
 11
2056.005412587249
 21
1136.923402312165
 31
0.0
  0
LINE
  5
336F
330
18
100
AcDbEntity
  8
0
100
AcDbLine
 10
2010.505412587249
 20
1178.923402312165
 30
0.0
 11
2033.159899351575
 21
1174.481346083867
 31
0.0
  0
LINE
  5
3370
330
18
100
AcDbEntity
  8
0
100
AcDbLine
 10
2010.505412587249
 20
1219.923402312165
 30
0.0
 11
2033.159899351575
 21
1224.365458540465
 31
0.0
  0
LINE
  5
3371
330
18
100
AcDbEntity
  8
0
100
AcDbLine
 10
1966.005412587248
 20
1237.307129322399
 30
0.0
 11
1939.217572321693
 21
1226.211242577722
 31
0.0
  0
LINE
  5
3372
330
18
100
AcDbEntity
  8
0
100
AcDbLine
 10
1992.793252852805
 20
1226.211242577722
 30
0.0
 11
1966.005412587248
 21
1237.307129322399
 31
0.0
  0
CIRCLE
  5
3373
330
18
100
AcDbEntity
  8
0
100
AcDbCircle
 10
1966.005412587248
 20
1199.423402312165
 30
0.0
 40
20.24999999999999
  0
CIRCLE
  5
3374
330
18
100
AcDbEntity
  8
0
100
AcDbCircle
 10
1966.005412587248
 20
1199.423402312165
 30
0.0
 40
22.25
  0
LINE
  5
3375
330
18
100
AcDbEntity
  8
0
100
AcDbLine
 10
2003.889139597482
 20
1199.423402312165
 30
0.0
 11
1992.793252852805
 21
1226.211242577722
 31
0.0
  0
LINE
  5
3376
330
18
100
AcDbEntity
  8
0
100
AcDbLine
 10
1995.397761568834
 20
1178.923402312165
 30
0.0
 11
2010.505412587249
 21
1178.923402312165
 31
0.0
  0
LINE
  5
3377
330
18
100
AcDbEntity
  8
0
100
AcDbLine
 10
1992.793252852805
 20
1172.635562046609
 30
0.0
 11
2003.889139597482
 21
1199.423402312165
 31
0.0
  0
LINE
  5
3378
330
18
100
AcDbEntity
  8
0
100
AcDbLine
 10
2010.505412587249
 20
1219.923402312165
 30
0.0
 11
1995.397761568834
 21
1219.923402312165
 31
0.0
  0
LINE
  5
3379
330
18
100
AcDbEntity
  8
0
100
AcDbLine
 10
2056.005412587249
 20
1199.423402312165
 30
0.0
 11
2056.005412587249
 21
1261.923402312165
 31
0.0
  0
ARC
  5
337A
330
18
100
AcDbEntity
  8
0
100
AcDbCircle
 10
2032.005412587249
 20
1230.253341038528
 30
0.0
 40
6.0
100
AcDbArc
 50
281.0937230115573
 51
0.0
  0
LINE
  5
337B
330
18
100
AcDbEntity
  8
0
100
AcDbLine
 10
2056.005412587249
 20
1261.923402312165
 30
0.0
 11
2038.005412587249
 21
1261.923402312165
 31
0.0
  0
LINE
  5
337C
330
18
100
AcDbEntity
  8
0
100
AcDbLine
 10
2038.005412587249
 20
1295.664292251892
 30
0.0
 11
2056.005412587249
 21
1295.664292251892
 31
0.0
  0
LINE
  5
337D
330
18
100
AcDbEntity
  8
0
100
AcDbLine
 10
2184.734006352248
 20
1056.335367852072
 30
0.0
 11
2162.103662910648
 21
1056.335367852072
 31
0.0
  0
LINE
  5
337E
330
18
100
AcDbEntity
  8
0
100
AcDbLine
 10
2180.439446548543
 20
1070.335367852072
 30
0.0
 11
2127.767879272752
 21
1070.335367852072
 31
0.0
  0
LINE
  5
337F
330
18
100
AcDbEntity
  8
0
100
AcDbLine
 10
2123.473319469047
 20
1056.335367852072
 30
0.0
 11
2146.103662910648
 21
1056.335367852072
 31
0.0
  0
LINE
  5
3380
330
18
100
AcDbEntity
  8
0
100
AcDbLine
 10
2130.793018676802
 20
1049.835367852071
 30
0.0
 11
2132.107769488889
 21
1049.835367852071
 31
0.0
  0
LINE
  5
3381
330
18
100
AcDbEntity
  8
0
100
AcDbLine
 10
2121.767879272752
 20
1064.335367852072
 30
0.0
 11
2121.767879272752
 21
1044.817902317827
 31
0.0
  0
LINE
  5
3382
330
18
100
AcDbEntity
  8
0
100
AcDbLine
 10
2125.709121181646
 20
1050.787180007658
 30
0.0
 11
2125.709121181647
 21
1047.0109169685
 31
0.0
  0
ARC
  5
3383
330
18
100
AcDbEntity
  8
0
100
AcDbCircle
 10
2127.767879272752
 20
1064.335367852072
 30
0.0
 40
6.0
100
AcDbArc
 50
90.0
 51
180.0
  0
ARC
  5
3384
330
18
100
AcDbEntity
  8
0
100
AcDbCircle
 10
2123.709121181646
 20
1050.787180007658
 30
0.0
 40
2.0
100
AcDbArc
 50
0.0000000000001018
 51
48.39445480393429
  0
LINE
  5
3385
330
18
100
AcDbEntity
  8
0
100
AcDbLine
 10
2125.037118347415
 20
1052.282647669531
 30
0.0
 11
2123.473319469047
 21
1053.671323955385
 31
0.0
  0
ARC
  5
3386
330
18
100
AcDbEntity
  8
0
100
AcDbCircle
 10
2123.473319469047
 20
1053.335367852072
 30
0.0
 40
3.0
100
AcDbArc
 50
89.99999999999998
 51
124.6443039619389
  0
ARC
  5
3387
330
18
100
AcDbEntity
  8
0
100
AcDbCircle
 10
2130.793018676802
 20
1046.835367852072
 30
0.0
 40
3.0
100
AcDbArc
 50
89.99999999999994
 51
153.5856546244817
  0
ARC
  5
3388
330
18
100
AcDbEntity
  8
0
100
AcDbCircle
 10
2146.103662910648
 20
1053.335367852072
 30
0.0
 40
3.0
100
AcDbArc
 50
5.703748446348226
 51
89.99999999999998
  0
ARC
  5
3389
330
18
100
AcDbEntity
  8
0
100
AcDbCircle
 10
2162.103662910648
 20
1053.335367852072
 30
0.0
 40
3.0
100
AcDbArc
 50
90.00000000000003
 51
174.2836618877153
  0
LINE
  5
338A
330
18
100
AcDbEntity
  8
0
100
AcDbLine
 10
2186.439446548543
 20
1064.335367852072
 30
0.0
 11
2186.439446548543
 21
1044.822868262595
 31
0.0
  0
LINE
  5
338B
330
18
100
AcDbEntity
  8
0
100
AcDbLine
 10
2182.498204639649
 20
1050.787180007658
 30
0.0
 11
2182.49820463965
 21
1047.015105913454
 31
0.0
  0
LINE
  5
338C
330
18
100
AcDbEntity
  8
0
100
AcDbLine
 10
2177.414307144493
 20
1049.835367852071
 30
0.0
 11
2176.107770255577
 21
1049.835367852071
 31
0.0
  0
ARC
  5
338D
330
18
100
AcDbEntity
  8
0
100
AcDbCircle
 10
2177.414307144493
 20
1046.835367852072
 30
0.0
 40
3.0
100
AcDbArc
 50
26.51812925398968
 51
90.00000000000005
  0
ARC
  5
338E
330
18
100
AcDbEntity
  8
0
100
AcDbCircle
 10
2180.439446548543
 20
1064.335367852072
 30
0.0
 40
6.0
100
AcDbArc
 50
0.0
 51
90.0
  0
ARC
  5
338F
330
18
100
AcDbEntity
  8
0
100
AcDbCircle
 10
2184.734006352248
 20
1053.335367852072
 30
0.0
 40
3.0
100
AcDbArc
 50
55.35569603806104
 51
90.00000000000003
  0
LINE
  5
3390
330
18
100
AcDbEntity
  8
0
100
AcDbLine
 10
2183.170207473879
 20
1052.282647669531
 30
0.0
 11
2184.734006352248
 21
1053.671323955385
 31
0.0
  0
ARC
  5
3391
330
18
100
AcDbEntity
  8
0
100
AcDbCircle
 10
2184.498204639649
 20
1050.787180007658
 30
0.0
 40
2.0
100
AcDbArc
 50
131.6055451960656
 51
179.9999999999998
  0
ARC
  5
3392
330
18
100
AcDbEntity
  8
0
100
AcDbCircle
 10
1992.341196225143
 20
1431.164292251892
 30
0.0
 40
6.0
100
AcDbArc
 50
0.0
 51
90.0
  0
LINE
  5
3393
330
18
100
AcDbEntity
  8
0
100
AcDbLine
 10
2010.505412587249
 20
1378.664292251892
 30
0.0
 11
2033.159899351575
 21
1383.106348480191
 31
0.0
  0
LINE
  5
3394
330
18
100
AcDbEntity
  8
0
100
AcDbLine
 10
2010.505412587249
 20
1337.664292251892
 30
0.0
 11
2033.159899351575
 21
1333.222236023593
 31
0.0
  0
ARC
  5
3395
330
18
100
AcDbEntity
  8
0
100
AcDbCircle
 10
1965.543737529409
 20
1404.902886520346
 30
0.0
 40
37.41046014907909
100
AcDbArc
 50
231.333418026984
 51
310.0807695388289
  0
LINE
  5
3396
330
18
100
AcDbEntity
  8
0
100
AcDbLine
 10
2010.505412587249
 20
1337.664292251892
 30
0.0
 11
1971.005412587248
 21
1337.664292251892
 31
0.0
  0
ARC
  5
3397
330
18
100
AcDbEntity
  8
0
100
AcDbCircle
 10
1956.005412587249
 20
1322.706570948909
 30
0.0
 40
18.0
100
AcDbArc
 50
67.06974111953709
 51
112.9302588804629
  0
ARC
  5
3398
330
18
100
AcDbEntity
  8
0
100
AcDbCircle
 10
1941.005412587248
 20
1358.164292251892
 30
0.0
 40
20.5
100
AcDbArc
 50
270.0
 51
292.9302588804629
  0
ARC
  5
3399
330
18
100
AcDbEntity
  8
0
100
AcDbCircle
 10
1971.005412587248
 20
1358.164292251892
 30
0.0
 40
20.5
100
AcDbArc
 50
247.069741119537
 51
270.0
  0
LINE
  5
339A
330
18
100
AcDbEntity
  8
0
100
AcDbLine
 10
1989.316056821095
 20
1416.664292251892
 30
0.0
 11
1977.005412587248
 21
1416.664292251892
 31
0.0
  0
LINE
  5
339B
330
18
100
AcDbEntity
  8
0
100
AcDbLine
 10
1996.635756028849
 20
1423.164292251892
 30
0.0
 11
1974.005412587248
 21
1423.164292251892
 31
0.0
  0
ARC
  5
339C
330
18
100
AcDbEntity
  8
0
100
AcDbCircle
 10
1979.399332720027
 20
1359.539716184585
 30
0.0
 40
41.12457606730745
100
AcDbArc
 50
70.99253241246959
 51
109.0074675875305
  0
ARC
  5
339D
330
18
100
AcDbEntity
  8
0
100
AcDbCircle
 10
1979.399332720027
 20
1426.7888683192
 30
0.0
 40
41.12457606730745
100
AcDbArc
 50
250.9925324124695
 51
289.0074675875304
  0
ARC
  5
339E
330
18
100
AcDbEntity
  8
0
100
AcDbCircle
 10
1935.375069145648
 20
1403.664292251892
 30
0.0
 40
3.0
100
AcDbArc
 50
235.355696038061
 51
270.0
  0
ARC
  5
339F
330
18
100
AcDbEntity
  8
0
100
AcDbCircle
 10
1942.694768353403
 20
1403.664292251892
 30
0.0
 40
3.0
100
AcDbArc
 50
179.9999999999998
 51
270.0
  0
ARC
  5
33A0
330
18
100
AcDbEntity
  8
0
100
AcDbCircle
 10
1955.005412587248
 20
1403.664292251892
 30
0.0
 40
3.0
100
AcDbArc
 50
270.0
 51
0.0
  0
ARC
  5
33A1
330
18
100
AcDbEntity
  8
0
100
AcDbCircle
 10
1958.005412587248
 20
1403.664292251892
 30
0.0
 40
3.0
100
AcDbArc
 50
270.0
 51
0.0
  0
ARC
  5
33A2
330
18
100
AcDbEntity
  8
0
100
AcDbCircle
 10
1977.005412587248
 20
1403.664292251892
 30
0.0
 40
3.0
100
AcDbArc
 50
180.0
 51
269.9999999999999
  0
ARC
  5
33A3
330
18
100
AcDbEntity
  8
0
100
AcDbCircle
 10
1974.005412587248
 20
1403.664292251892
 30
0.0
 40
3.0
100
AcDbArc
 50
180.0
 51
270.0
  0
LINE
  5
33A4
330
18
100
AcDbEntity
  8
0
100
AcDbLine
 10
1933.669628949354
 20
1431.164292251892
 30
0.0
 11
1933.669628949354
 21
1400.664292251892
 31
0.0
  0
ARC
  5
33A5
330
18
100
AcDbEntity
  8
0
100
AcDbCircle
 10
1952.61149245447
 20
1426.7888683192
 30
0.0
 40
41.12457606730745
100
AcDbArc
 50
250.9925324124695
 51
289.0074675875305
  0
ARC
  5
33A6
330
18
100
AcDbEntity
  8
0
100
AcDbCircle
 10
1952.61149245447
 20
1359.539716184585
 30
0.0
 40
41.12457606730745
100
AcDbArc
 50
70.9925324124695
 51
109.0074675875303
  0
LINE
  5
33A7
330
18
100
AcDbEntity
  8
0
100
AcDbLine
 10
1937.505412587248
 20
1381.664292251892
 30
0.0
 11
1937.505412587248
 21
1385.664292251892
 31
0.0
  0
ARC
  5
33A8
330
18
100
AcDbEntity
  8
0
100
AcDbCircle
 10
1934.505412587249
 20
1381.664292251892
 30
0.0
 40
3.0
100
AcDbArc
 50
270.0
 51
0.0
  0
LINE
  5
33A9
330
18
100
AcDbEntity
  8
0
100
AcDbLine
 10
1936.005412587249
 20
1384.664292251892
 30
0.0
 11
1936.005412587249
 21
1385.664292251892
 31
0.0
  0
LINE
  5
33AA
330
18
100
AcDbEntity
  8
0
100
AcDbLine
 10
1937.505412587248
 20
1383.164292251892
 30
0.0
 11
1936.005412587249
 21
1384.664292251892
 31
0.0
  0
LINE
  5
33AB
330
18
100
AcDbEntity
  8
0
100
AcDbLine
 10
1939.217572321693
 20
1398.422021417075
 30
0.0
 11
1939.217572321693
 21
1387.90656308671
 31
0.0
  0
LINE
  5
33AC
330
18
100
AcDbEntity
  8
0
100
AcDbLine
 10
1966.005412587248
 20
1398.422021417075
 30
0.0
 11
1966.005412587248
 21
1387.90656308671
 31
0.0
  0
LINE
  5
33AD
330
18
100
AcDbEntity
  8
0
100
AcDbLine
 10
1935.375069145648
 20
1423.164292251892
 30
0.0
 11
1958.005412587248
 21
1423.164292251892
 31
0.0
  0
ARC
  5
33AE
330
18
100
AcDbEntity
  8
0
100
AcDbCircle
 10
1955.005412587248
 20
1413.664292251892
 30
0.0
 40
3.0
100
AcDbArc
 50
0.0
 51
89.99999999999994
  0
ARC
  5
33AF
330
18
100
AcDbEntity
  8
0
100
AcDbCircle
 10
1935.375069145648
 20
1420.164292251892
 30
0.0
 40
3.0
100
AcDbArc
 50
89.99999999999998
 51
124.6443039619389
  0
LINE
  5
33B0
330
18
100
AcDbEntity
  8
0
100
AcDbLine
 10
1936.938868024016
 20
1419.111572069352
 30
0.0
 11
1935.375069145648
 21
1420.500248355206
 31
0.0
  0
ARC
  5
33B1
330
18
100
AcDbEntity
  8
0
100
AcDbCircle
 10
1935.610870858247
 20
1417.616104407478
 30
0.0
 40
2.0
100
AcDbArc
 50
0.0000000000001018
 51
48.39445480393431
  0
LINE
  5
33B2
330
18
100
AcDbEntity
  8
0
100
AcDbLine
 10
1942.694768353403
 20
1416.664292251892
 30
0.0
 11
1955.005412587248
 21
1416.664292251892
 31
0.0
  0
ARC
  5
33B3
330
18
100
AcDbEntity
  8
0
100
AcDbCircle
 10
1942.694768353403
 20
1413.664292251892
 30
0.0
 40
3.0
100
AcDbArc
 50
89.99999999999994
 51
180.0000000000001
  0
LINE
  5
33B4
330
18
100
AcDbEntity
  8
0
100
AcDbLine
 10
1937.610870858247
 20
1417.616104407478
 30
0.0
 11
1937.610870858247
 21
1403.664292251892
 31
0.0
  0
LINE
  5
33B5
330
18
100
AcDbEntity
  8
0
100
AcDbLine
 10
1939.694768353403
 20
1413.664292251892
 30
0.0
 11
1939.694768353403
 21
1403.664292251892
 31
0.0
  0
LINE
  5
33B6
330
18
100
AcDbEntity
  8
0
100
AcDbLine
 10
1958.005412587248
 20
1416.664292251892
 30
0.0
 11
1959.620797202633
 21
1420.164292251892
 31
0.0
  0
ARC
  5
33B7
330
18
100
AcDbEntity
  8
0
100
AcDbCircle
 10
1958.005412587248
 20
1420.164292251892
 30
0.0
 40
3.0
100
AcDbArc
 50
0.0
 51
89.99999999999998
  0
ARC
  5
33B8
330
18
100
AcDbEntity
  8
0
100
AcDbCircle
 10
1977.005412587248
 20
1413.664292251892
 30
0.0
 40
3.0
100
AcDbArc
 50
90.00000000000005
 51
180.0
  0
ARC
  5
33B9
330
18
100
AcDbEntity
  8
0
100
AcDbCircle
 10
1974.005412587248
 20
1420.164292251892
 30
0.0
 40
3.0
100
AcDbArc
 50
90.00000000000003
 51
180.0
  0
LINE
  5
33BA
330
18
100
AcDbEntity
  8
0
100
AcDbLine
 10
1974.005412587248
 20
1416.664292251892
 30
0.0
 11
1972.390027971864
 21
1420.164292251892
 31
0.0
  0
LINE
  5
33BB
330
18
100
AcDbEntity
  8
0
100
AcDbLine
 10
1974.005412587248
 20
1413.664292251892
 30
0.0
 11
1974.005412587248
 21
1403.664292251892
 31
0.0
  0
LINE
  5
33BC
330
18
100
AcDbEntity
  8
0
100
AcDbLine
 10
1971.005412587248
 20
1420.164292251892
 30
0.0
 11
1971.005412587248
 21
1403.664292251892
 31
0.0
  0
LINE
  5
33BD
330
18
100
AcDbEntity
  8
0
100
AcDbLine
 10
1961.005412587249
 20
1420.164292251892
 30
0.0
 11
1961.005412587249
 21
1403.664292251892
 31
0.0
  0
LINE
  5
33BE
330
18
100
AcDbEntity
  8
0
100
AcDbLine
 10
1958.005412587248
 20
1413.664292251892
 30
0.0
 11
1958.005412587248
 21
1403.664292251892
 31
0.0
  0
ARC
  5
33BF
330
18
100
AcDbEntity
  8
0
100
AcDbCircle
 10
1998.341196225143
 20
1392.679651502135
 30
0.0
 40
7.984640749757013
100
AcDbArc
 50
74.01342690370514
 51
134.0134269037047
  0
ARC
  5
33C0
330
18
100
AcDbEntity
  8
0
100
AcDbCircle
 10
1996.635756028849
 20
1403.664292251892
 30
0.0
 40
3.0
100
AcDbArc
 50
270.0
 51
304.644303961939
  0
ARC
  5
33C1
330
18
100
AcDbEntity
  8
0
100
AcDbCircle
 10
1989.316056821095
 20
1403.664292251892
 30
0.0
 40
3.0
100
AcDbArc
 50
269.9999999999999
 51
0.0000000000001018
  0
LINE
  5
33C2
330
18
100
AcDbEntity
  8
0
100
AcDbLine
 10
1998.341196225143
 20
1431.164292251892
 30
0.0
 11
1998.341196225143
 21
1400.664292251892
 31
0.0
  0
LINE
  5
33C3
330
18
100
AcDbEntity
  8
0
100
AcDbLine
 10
1997.505412587249
 20
1378.664292251892
 30
0.0
 11
2010.505412587249
 21
1378.664292251892
 31
0.0
  0
LINE
  5
33C4
330
18
100
AcDbEntity
  8
0
100
AcDbLine
 10
2000.005412587249
 20
1385.664292251892
 30
0.0
 11
2003.889139597482
 21
1387.90656308671
 31
0.0
  0
LINE
  5
33C5
330
18
100
AcDbEntity
  8
0
100
AcDbLine
 10
2000.005412587249
 20
1400.664292251892
 30
0.0
 11
2003.889139597482
 21
1398.422021417075
 31
0.0
  0
LINE
  5
33C6
330
18
100
AcDbEntity
  8
0
100
AcDbLine
 10
1994.505412587249
 20
1381.664292251892
 30
0.0
 11
1994.505412587249
 21
1385.664292251892
 31
0.0
  0
ARC
  5
33C7
330
18
100
AcDbEntity
  8
0
100
AcDbCircle
 10
1997.505412587249
 20
1381.664292251892
 30
0.0
 40
3.0
100
AcDbArc
 50
180.0
 51
270.0
  0
ARC
  5
33C8
330
18
100
AcDbEntity
  8
0
100
AcDbCircle
 10
1998.341196225143
 20
1393.648933001649
 30
0.0
 40
7.984640749757013
100
AcDbArc
 50
225.9865730962952
 51
285.9865730962948
  0
LINE
  5
33C9
330
18
100
AcDbEntity
  8
0
100
AcDbLine
 10
1992.793252852805
 20
1398.422021417075
 30
0.0
 11
1992.793252852805
 21
1387.90656308671
 31
0.0
  0
LINE
  5
33CA
330
18
100
AcDbEntity
  8
0
100
AcDbLine
 10
1996.005412587249
 20
1384.664292251892
 30
0.0
 11
1996.005412587249
 21
1385.664292251892
 31
0.0
  0
LINE
  5
33CB
330
18
100
AcDbEntity
  8
0
100
AcDbLine
 10
1994.505412587249
 20
1383.164292251892
 30
0.0
 11
1996.005412587249
 21
1384.664292251892
 31
0.0
  0
LINE
  5
33CC
330
18
100
AcDbEntity
  8
0
100
AcDbLine
 10
2003.889139597482
 20
1398.422021417075
 30
0.0
 11
2003.889139597482
 21
1387.90656308671
 31
0.0
  0
ARC
  5
33CD
330
18
100
AcDbEntity
  8
0
100
AcDbCircle
 10
1996.39995431625
 20
1417.616104407478
 30
0.0
 40
2.0
100
AcDbArc
 50
131.6055451960656
 51
179.9999999999998
  0
LINE
  5
33CE
330
18
100
AcDbEntity
  8
0
100
AcDbLine
 10
1995.07195715048
 20
1419.111572069352
 30
0.0
 11
1996.635756028849
 21
1420.500248355206
 31
0.0
  0
ARC
  5
33CF
330
18
100
AcDbEntity
  8
0
100
AcDbCircle
 10
1996.635756028849
 20
1420.164292251892
 30
0.0
 40
3.0
100
AcDbArc
 50
55.35569603806103
 51
90.00000000000003
  0
ARC
  5
33D0
330
18
100
AcDbEntity
  8
0
100
AcDbCircle
 10
1989.316056821095
 20
1413.664292251892
 30
0.0
 40
3.0
100
AcDbArc
 50
359.9999999999998
 51
90.00000000000005
  0
LINE
  5
33D1
330
18
100
AcDbEntity
  8
0
100
AcDbLine
 10
1992.316056821094
 20
1413.664292251892
 30
0.0
 11
1992.316056821094
 21
1403.664292251892
 31
0.0
  0
LINE
  5
33D2
330
18
100
AcDbEntity
  8
0
100
AcDbLine
 10
1994.39995431625
 20
1417.616104407478
 30
0.0
 11
1994.39995431625
 21
1403.664292251892
 31
0.0
  0
LINE
  5
33D3
330
18
100
AcDbEntity
  8
0
100
AcDbLine
 10
2056.005412587249
 20
1358.164292251892
 30
0.0
 11
2056.005412587249
 21
1420.664292251892
 31
0.0
  0
ARC
  5
33D4
330
18
100
AcDbEntity
  8
0
100
AcDbCircle
 10
2032.005412587249
 20
1327.33435352553
 30
0.0
 40
6.0
100
AcDbArc
 50
0.0
 51
78.90627698844148
  0
ARC
  5
33D5
330
18
100
AcDbEntity
  8
0
100
AcDbCircle
 10
2032.005412587249
 20
1388.994230978254
 30
0.0
 40
6.0
100
AcDbArc
 50
281.0937230115576
 51
0.0
  0
LINE
  5
33D6
330
18
100
AcDbEntity
  8
0
100
AcDbLine
 10
2056.005412587249
 20
1420.664292251892
 30
0.0
 11
2038.005412587249
 21
1420.664292251892
 31
0.0
  0
LINE
  5
33D7
330
18
100
AcDbEntity
  8
0
100
AcDbLine
 10
1939.669628949354
 20
1437.164292251892
 30
0.0
 11
1992.341196225143
 21
1437.164292251892
 31
0.0
  0
LINE
  5
33F8
330
18
100
AcDbEntity
  8
0
100
AcDbLine
 10
1870.947296110283
 20
987.1809839454773
 30
0.0
 11
1823.678733610283
 21
987.1809839454773
 31
0.0
  0
LINE
  5
33F9
330
18
100
AcDbEntity
  8
0
100
AcDbLine
 10
1814.225358610284
 20
996.6343589454767
 30
0.0
 11
1842.585483610283
 21
996.6343589454767
 31
0.0
  0
LINE
  5
33FA
330
18
100
AcDbEntity
  8
0
100
AcDbLine
 10
1823.678733610283
 20
987.1809839454773
 30
0.0
 11
1814.225358610284
 21
996.6343589454767
 31
0.0
  0
LINE
  5
33FB
330
18
100
AcDbEntity
  8
0
100
AcDbLine
 10
1847.313858610284
 20
991.9076714454771
 30
0.0
 11
1861.288046110284
 21
991.9076714454771
 31
0.0
  0
LINE
  5
33FC
330
18
100
AcDbEntity
  8
0
100
AcDbLine
 10
1842.585483610283
 20
996.6343589454767
 30
0.0
 11
1847.313858610284
 21
991.9076714454771
 31
0.0
  0
LINE
  5
33FD
330
18
100
AcDbEntity
  8
0
100
AcDbLine
 10
1861.288046110284
 20
996.6343589454767
 30
0.0
 11
1870.947296110283
 21
987.1809839454773
 31
0.0
  0
LINE
  5
33FE
330
18
100
AcDbEntity
  8
0
100
AcDbLine
 10
1861.288046110284
 20
991.9076714454771
 30
0.0
 11
1861.288046110284
 21
996.6343589454767
 31
0.0
  0
LINE
  5
33FF
330
18
100
AcDbEntity
  8
0
100
AcDbLine
 10
1868.604543926507
 20
1196.704638124681
 30
0.0
 11
1821.335981426506
 21
1196.704638124681
 31
0.0
  0
LINE
  5
3400
330
18
100
AcDbEntity
  8
0
100
AcDbLine
 10
1811.882606426507
 20
1206.158013124681
 30
0.0
 11
1840.242731426507
 21
1206.158013124681
 31
0.0
  0
LINE
  5
3401
330
18
100
AcDbEntity
  8
0
100
AcDbLine
 10
1821.335981426506
 20
1196.704638124681
 30
0.0
 11
1811.882606426507
 21
1206.158013124681
 31
0.0
  0
LINE
  5
3402
330
18
100
AcDbEntity
  8
0
100
AcDbLine
 10
1844.971106426507
 20
1201.431325624681
 30
0.0
 11
1858.945293926508
 21
1201.431325624681
 31
0.0
  0
LINE
  5
3403
330
18
100
AcDbEntity
  8
0
100
AcDbLine
 10
1840.242731426507
 20
1206.158013124681
 30
0.0
 11
1844.971106426507
 21
1201.431325624681
 31
0.0
  0
LINE
  5
3404
330
18
100
AcDbEntity
  8
0
100
AcDbLine
 10
1858.945293926508
 20
1206.158013124681
 30
0.0
 11
1868.604543926507
 21
1196.704638124681
 31
0.0
  0
LINE
  5
3405
330
18
100
AcDbEntity
  8
0
100
AcDbLine
 10
1858.945293926508
 20
1201.431325624681
 30
0.0
 11
1858.945293926508
 21
1206.158013124681
 31
0.0
  0
LINE
  5
3406
330
18
100
AcDbEntity
  8
0
100
AcDbLine
 10
1131.354730161852
 20
1197.875159169012
 30
0.0
 11
1084.086167661852
 21
1197.875159169012
 31
0.0
  0
LINE
  5
3407
330
18
100
AcDbEntity
  8
0
100
AcDbLine
 10
1074.632792661852
 20
1207.328534169012
 30
0.0
 11
1102.992917661853
 21
1207.328534169012
 31
0.0
  0
LINE
  5
3408
330
18
100
AcDbEntity
  8
0
100
AcDbLine
 10
1084.086167661852
 20
1197.875159169012
 30
0.0
 11
1074.632792661852
 21
1207.328534169012
 31
0.0
  0
LINE
  5
3409
330
18
100
AcDbEntity
  8
0
100
AcDbLine
 10
1107.721292661853
 20
1202.601846669012
 30
0.0
 11
1121.695480161853
 21
1202.601846669012
 31
0.0
  0
LINE
  5
340A
330
18
100
AcDbEntity
  8
0
100
AcDbLine
 10
1102.992917661853
 20
1207.328534169012
 30
0.0
 11
1107.721292661853
 21
1202.601846669012
 31
0.0
  0
LINE
  5
340B
330
18
100
AcDbEntity
  8
0
100
AcDbLine
 10
1121.695480161853
 20
1207.328534169012
 30
0.0
 11
1131.354730161852
 21
1197.875159169012
 31
0.0
  0
LINE
  5
340C
330
18
100
AcDbEntity
  8
0
100
AcDbLine
 10
1121.695480161853
 20
1202.601846669012
 30
0.0
 11
1121.695480161853
 21
1207.328534169012
 31
0.0
  0
LINE
  5
340D
330
18
100
AcDbEntity
  8
0
100
AcDbLine
 10
1130.183350496484
 20
989.5220299456941
 30
0.0
 11
1082.914787996483
 21
989.5220299456941
 31
0.0
  0
LINE
  5
340E
330
18
100
AcDbEntity
  8
0
100
AcDbLine
 10
1073.461412996484
 20
998.9754049456937
 30
0.0
 11
1101.821537996484
 21
998.9754049456937
 31
0.0
  0
LINE
  5
340F
330
18
100
AcDbEntity
  8
0
100
AcDbLine
 10
1082.914787996483
 20
989.5220299456941
 30
0.0
 11
1073.461412996484
 21
998.9754049456937
 31
0.0
  0
LINE
  5
3410
330
18
100
AcDbEntity
  8
0
100
AcDbLine
 10
1106.549912996484
 20
994.2487174456939
 30
0.0
 11
1120.524100496485
 21
994.2487174456939
 31
0.0
  0
LINE
  5
3411
330
18
100
AcDbEntity
  8
0
100
AcDbLine
 10
1101.821537996484
 20
998.9754049456937
 30
0.0
 11
1106.549912996484
 21
994.2487174456939
 31
0.0
  0
LINE
  5
3412
330
18
100
AcDbEntity
  8
0
100
AcDbLine
 10
1120.524100496485
 20
998.9754049456937
 30
0.0
 11
1130.183350496484
 21
989.5220299456941
 31
0.0
  0
LINE
  5
3413
330
18
100
AcDbEntity
  8
0
100
AcDbLine
 10
1120.524100496485
 20
994.2487174456939
 30
0.0
 11
1120.524100496485
 21
998.9754049456937
 31
0.0
  0
LINE
  5
3414
330
18
100
AcDbEntity
  8
0
100
AcDbLine
 10
414.4721688431919
 20
1199.045664567124
 30
0.0
 11
367.2036063431915
 21
1199.045664567124
 31
0.0
  0
LINE
  5
3415
330
18
100
AcDbEntity
  8
0
100
AcDbLine
 10
357.7502313431919
 20
1208.499039567124
 30
0.0
 11
386.110356343192
 21
1208.499039567124
 31
0.0
  0
LINE
  5
3416
330
18
100
AcDbEntity
  8
0
100
AcDbLine
 10
367.2036063431915
 20
1199.045664567124
 30
0.0
 11
357.7502313431919
 21
1208.499039567124
 31
0.0
  0
LINE
  5
3417
330
18
100
AcDbEntity
  8
0
100
AcDbLine
 10
390.8387313431921
 20
1203.772352067124
 30
0.0
 11
404.8129188431926
 21
1203.772352067124
 31
0.0
  0
LINE
  5
3418
330
18
100
AcDbEntity
  8
0
100
AcDbLine
 10
386.110356343192
 20
1208.499039567124
 30
0.0
 11
390.8387313431921
 21
1203.772352067124
 31
0.0
  0
LINE
  5
3419
330
18
100
AcDbEntity
  8
0
100
AcDbLine
 10
404.8129188431926
 20
1208.499039567124
 30
0.0
 11
414.4721688431919
 21
1199.045664567124
 31
0.0
  0
LINE
  5
341A
330
18
100
AcDbEntity
  8
0
100
AcDbLine
 10
404.8129188431926
 20
1203.772352067124
 30
0.0
 11
404.8129188431926
 21
1208.499039567124
 31
0.0
  0
LINE
  5
341B
330
18
100
AcDbEntity
  8
0
100
AcDbLine
 10
414.4721688431919
 20
988.351477608924
 30
0.0
 11
367.2036063431915
 21
988.351477608924
 31
0.0
  0
LINE
  5
341C
330
18
100
AcDbEntity
  8
0
100
AcDbLine
 10
357.7502313431919
 20
997.8048526089237
 30
0.0
 11
386.110356343192
 21
997.8048526089237
 31
0.0
  0
LINE
  5
341D
330
18
100
AcDbEntity
  8
0
100
AcDbLine
 10
367.2036063431915
 20
988.351477608924
 30
0.0
 11
357.7502313431919
 21
997.8048526089237
 31
0.0
  0
LINE
  5
341E
330
18
100
AcDbEntity
  8
0
100
AcDbLine
 10
390.8387313431921
 20
993.0781651089239
 30
0.0
 11
404.8129188431926
 21
993.0781651089239
 31
0.0
  0
LINE
  5
341F
330
18
100
AcDbEntity
  8
0
100
AcDbLine
 10
386.110356343192
 20
997.8048526089237
 30
0.0
 11
390.8387313431921
 21
993.0781651089239
 31
0.0
  0
LINE
  5
3420
330
18
100
AcDbEntity
  8
0
100
AcDbLine
 10
404.8129188431926
 20
997.8048526089237
 30
0.0
 11
414.4721688431919
 21
988.351477608924
 31
0.0
  0
LINE
  5
3421
330
18
100
AcDbEntity
  8
0
100
AcDbLine
 10
404.8129188431926
 20
993.0781651089239
 30
0.0
 11
404.8129188431926
 21
997.8048526089237
 31
0.0
  0
LINE
  5
3422
330
18
100
AcDbEntity
  8
0
100
AcDbLine
 10
413.3007891778233
 20
492.8952628983592
 30
0.0
 11
366.032226677823
 21
492.8952628983592
 31
0.0
  0
LINE
  5
3423
330
18
100
AcDbEntity
  8
0
100
AcDbLine
 10
356.5788516778234
 20
502.3486378983589
 30
0.0
 11
384.9389766778235
 21
502.3486378983589
 31
0.0
  0
LINE
  5
3424
330
18
100
AcDbEntity
  8
0
100
AcDbLine
 10
366.032226677823
 20
492.8952628983592
 30
0.0
 11
356.5788516778234
 21
502.3486378983589
 31
0.0
  0
LINE
  5
3425
330
18
100
AcDbEntity
  8
0
100
AcDbLine
 10
389.6673516778237
 20
497.6219503983591
 30
0.0
 11
403.6415391778241
 21
497.6219503983591
 31
0.0
  0
LINE
  5
3426
330
18
100
AcDbEntity
  8
0
100
AcDbLine
 10
384.9389766778235
 20
502.3486378983589
 30
0.0
 11
389.6673516778237
 21
497.6219503983591
 31
0.0
  0
LINE
  5
3427
330
18
100
AcDbEntity
  8
0
100
AcDbLine
 10
403.6415391778241
 20
502.3486378983589
 30
0.0
 11
413.3007891778233
 21
492.8952628983592
 31
0.0
  0
LINE
  5
3428
330
18
100
AcDbEntity
  8
0
100
AcDbLine
 10
403.6415391778241
 20
497.6219503983591
 30
0.0
 11
403.6415391778241
 21
502.3486378983589
 31
0.0
  0
LINE
  5
3429
330
18
100
AcDbEntity
  8
0
100
AcDbLine
 10
414.4721688431919
 20
265.8137500270841
 30
0.0
 11
367.2036063431915
 21
265.8137500270841
 31
0.0
  0
LINE
  5
342A
330
18
100
AcDbEntity
  8
0
100
AcDbLine
 10
357.7502313431919
 20
275.2671250270836
 30
0.0
 11
386.110356343192
 21
275.2671250270836
 31
0.0
  0
LINE
  5
342B
330
18
100
AcDbEntity
  8
0
100
AcDbLine
 10
367.2036063431915
 20
265.8137500270841
 30
0.0
 11
357.7502313431919
 21
275.2671250270836
 31
0.0
  0
LINE
  5
342C
330
18
100
AcDbEntity
  8
0
100
AcDbLine
 10
390.8387313431921
 20
270.5404375270838
 30
0.0
 11
404.8129188431926
 21
270.5404375270838
 31
0.0
  0
LINE
  5
342D
330
18
100
AcDbEntity
  8
0
100
AcDbLine
 10
386.110356343192
 20
275.2671250270836
 30
0.0
 11
390.8387313431921
 21
270.5404375270838
 31
0.0
  0
LINE
  5
342E
330
18
100
AcDbEntity
  8
0
100
AcDbLine
 10
404.8129188431926
 20
275.2671250270836
 30
0.0
 11
414.4721688431919
 21
265.8137500270841
 31
0.0
  0
LINE
  5
342F
330
18
100
AcDbEntity
  8
0
100
AcDbLine
 10
404.8129188431926
 20
270.5404375270838
 30
0.0
 11
404.8129188431926
 21
275.2671250270836
 31
0.0
  0
LINE
  5
3430
330
18
100
AcDbEntity
  8
0
100
AcDbLine
 10
1125.497931892454
 20
494.0657878542451
 30
0.0
 11
1078.229369392454
 21
494.0657878542451
 31
0.0
  0
LINE
  5
3431
330
18
100
AcDbEntity
  8
0
100
AcDbLine
 10
1068.775994392454
 20
503.5191628542447
 30
0.0
 11
1097.136119392454
 21
503.5191628542447
 31
0.0
  0
LINE
  5
3432
330
18
100
AcDbEntity
  8
0
100
AcDbLine
 10
1078.229369392454
 20
494.0657878542451
 30
0.0
 11
1068.775994392454
 21
503.5191628542447
 31
0.0
  0
LINE
  5
3433
330
18
100
AcDbEntity
  8
0
100
AcDbLine
 10
1101.864494392454
 20
498.792475354245
 30
0.0
 11
1115.838681892455
 21
498.792475354245
 31
0.0
  0
LINE
  5
3434
330
18
100
AcDbEntity
  8
0
100
AcDbLine
 10
1097.136119392454
 20
503.5191628542447
 30
0.0
 11
1101.864494392454
 21
498.792475354245
 31
0.0
  0
LINE
  5
3435
330
18
100
AcDbEntity
  8
0
100
AcDbLine
 10
1115.838681892455
 20
503.5191628542447
 30
0.0
 11
1125.497931892454
 21
494.0657878542451
 31
0.0
  0
LINE
  5
3436
330
18
100
AcDbEntity
  8
0
100
AcDbLine
 10
1115.838681892455
 20
498.792475354245
 30
0.0
 11
1115.838681892455
 21
503.5191628542447
 31
0.0
  0
LINE
  5
3437
330
18
100
AcDbEntity
  8
0
100
AcDbLine
 10
1125.497931892454
 20
265.8137500270841
 30
0.0
 11
1078.229369392454
 21
265.8137500270841
 31
0.0
  0
LINE
  5
3438
330
18
100
AcDbEntity
  8
0
100
AcDbLine
 10
1068.775994392454
 20
275.2671250270836
 30
0.0
 11
1097.136119392454
 21
275.2671250270836
 31
0.0
  0
LINE
  5
3439
330
18
100
AcDbEntity
  8
0
100
AcDbLine
 10
1078.229369392454
 20
265.8137500270841
 30
0.0
 11
1068.775994392454
 21
275.2671250270836
 31
0.0
  0
LINE
  5
343A
330
18
100
AcDbEntity
  8
0
100
AcDbLine
 10
1101.864494392454
 20
270.5404375270838
 30
0.0
 11
1115.838681892455
 21
270.5404375270838
 31
0.0
  0
LINE
  5
343B
330
18
100
AcDbEntity
  8
0
100
AcDbLine
 10
1097.136119392454
 20
275.2671250270836
 30
0.0
 11
1101.864494392454
 21
270.5404375270838
 31
0.0
  0
LINE
  5
343C
330
18
100
AcDbEntity
  8
0
100
AcDbLine
 10
1115.838681892455
 20
275.2671250270836
 30
0.0
 11
1125.497931892454
 21
265.8137500270841
 31
0.0
  0
LINE
  5
343D
330
18
100
AcDbEntity
  8
0
100
AcDbLine
 10
1115.838681892455
 20
270.5404375270838
 30
0.0
 11
1115.838681892455
 21
275.2671250270836
 31
0.0
  0
LINE
  5
343E
330
18
100
AcDbEntity
  8
0
100
AcDbLine
 10
1835.806070529309
 20
263.4727040268671
 30
0.0
 11
1788.537508029308
 21
263.4727040268671
 31
0.0
  0
LINE
  5
343F
330
18
100
AcDbEntity
  8
0
100
AcDbLine
 10
1779.084133029309
 20
272.9260790268667
 30
0.0
 11
1807.444258029309
 21
272.9260790268667
 31
0.0
  0
LINE
  5
3440
330
18
100
AcDbEntity
  8
0
100
AcDbLine
 10
1788.537508029308
 20
263.4727040268671
 30
0.0
 11
1779.084133029309
 21
272.9260790268667
 31
0.0
  0
LINE
  5
3441
330
18
100
AcDbEntity
  8
0
100
AcDbLine
 10
1812.172633029309
 20
268.1993915268669
 30
0.0
 11
1826.146820529309
 21
268.1993915268669
 31
0.0
  0
LINE
  5
3442
330
18
100
AcDbEntity
  8
0
100
AcDbLine
 10
1807.444258029309
 20
272.9260790268667
 30
0.0
 11
1812.172633029309
 21
268.1993915268669
 31
0.0
  0
LINE
  5
3443
330
18
100
AcDbEntity
  8
0
100
AcDbLine
 10
1826.146820529309
 20
272.9260790268667
 30
0.0
 11
1835.806070529309
 21
263.4727040268671
 31
0.0
  0
LINE
  5
3444
330
18
100
AcDbEntity
  8
0
100
AcDbLine
 10
1826.146820529309
 20
268.1993915268669
 30
0.0
 11
1826.146820529309
 21
272.9260790268667
 31
0.0
  0
LINE
  5
3445
330
18
100
AcDbEntity
  8
0
100
AcDbLine
 10
1841.662961709192
 20
484.7015999418217
 30
0.0
 11
1794.394399209191
 21
484.7015999418217
 31
0.0
  0
LINE
  5
3446
330
18
100
AcDbEntity
  8
0
100
AcDbLine
 10
1784.941024209192
 20
494.1549749418213
 30
0.0
 11
1813.301149209192
 21
494.1549749418213
 31
0.0
  0
LINE
  5
3447
330
18
100
AcDbEntity
  8
0
100
AcDbLine
 10
1794.394399209191
 20
484.7015999418217
 30
0.0
 11
1784.941024209192
 21
494.1549749418213
 31
0.0
  0
LINE
  5
3448
330
18
100
AcDbEntity
  8
0
100
AcDbLine
 10
1818.029524209192
 20
489.4282874418215
 30
0.0
 11
1832.003711709193
 21
489.4282874418215
 31
0.0
  0
LINE
  5
3449
330
18
100
AcDbEntity
  8
0
100
AcDbLine
 10
1813.301149209192
 20
494.1549749418213
 30
0.0
 11
1818.029524209192
 21
489.4282874418215
 31
0.0
  0
LINE
  5
344A
330
18
100
AcDbEntity
  8
0
100
AcDbLine
 10
1832.003711709193
 20
494.1549749418213
 30
0.0
 11
1841.662961709192
 21
484.7015999418217
 31
0.0
  0
LINE
  5
344B
330
18
100
AcDbEntity
  8
0
100
AcDbLine
 10
1832.003711709193
 20
489.4282874418215
 30
0.0
 11
1832.003711709193
 21
494.1549749418213
 31
0.0
  0
LINE
  5
344C
330
18
100
AcDbEntity
  8
0
100
AcDbLine
 10
2065.836850685319
 20
1363.765453031573
 30
0.0
 11
2113.105413185319
 21
1363.765453031573
 31
0.0
  0
LINE
  5
344D
330
18
100
AcDbEntity
  8
0
100
AcDbLine
 10
2094.198663185319
 20
1373.218828031572
 30
0.0
 11
2089.470288185319
 21
1368.492140531572
 31
0.0
  0
LINE
  5
344E
330
18
100
AcDbEntity
  8
0
100
AcDbLine
 10
2075.496100685318
 20
1373.218828031572
 30
0.0
 11
2065.836850685319
 21
1363.765453031573
 31
0.0
  0
LINE
  5
344F
330
18
100
AcDbEntity
  8
0
100
AcDbLine
 10
2089.470288185319
 20
1368.492140531572
 30
0.0
 11
2075.496100685318
 21
1368.492140531572
 31
0.0
  0
LINE
  5
3450
330
18
100
AcDbEntity
  8
0
100
AcDbLine
 10
2075.496100685318
 20
1368.492140531572
 30
0.0
 11
2075.496100685318
 21
1373.218828031572
 31
0.0
  0
LINE
  5
3451
330
18
100
AcDbEntity
  8
0
100
AcDbLine
 10
2122.558788185319
 20
1373.218828031572
 30
0.0
 11
2094.198663185319
 21
1373.218828031572
 31
0.0
  0
LINE
  5
3452
330
18
100
AcDbEntity
  8
0
100
AcDbLine
 10
2113.105413185319
 20
1363.765453031573
 30
0.0
 11
2122.558788185319
 21
1373.218828031572
 31
0.0
  0
LINE
  5
3453
330
18
100
AcDbEntity
  8
0
100
AcDbLine
 10
1333.272512700378
 20
1354.401269030704
 30
0.0
 11
1380.541075200379
 21
1354.401269030704
 31
0.0
  0
LINE
  5
3454
330
18
100
AcDbEntity
  8
0
100
AcDbLine
 10
1361.634325200378
 20
1363.854644030704
 30
0.0
 11
1356.905950200378
 21
1359.127956530704
 31
0.0
  0
LINE
  5
3455
330
18
100
AcDbEntity
  8
0
100
AcDbLine
 10
1342.931762700378
 20
1363.854644030704
 30
0.0
 11
1333.272512700378
 21
1354.401269030704
 31
0.0
  0
LINE
  5
3456
330
18
100
AcDbEntity
  8
0
100
AcDbLine
 10
1356.905950200378
 20
1359.127956530704
 30
0.0
 11
1342.931762700378
 21
1359.127956530704
 31
0.0
  0
LINE
  5
3457
330
18
100
AcDbEntity
  8
0
100
AcDbLine
 10
1342.931762700378
 20
1359.127956530704
 30
0.0
 11
1342.931762700378
 21
1363.854644030704
 31
0.0
  0
LINE
  5
3458
330
18
100
AcDbEntity
  8
0
100
AcDbLine
 10
1389.994450200378
 20
1363.854644030704
 30
0.0
 11
1361.634325200378
 21
1363.854644030704
 31
0.0
  0
LINE
  5
3459
330
18
100
AcDbEntity
  8
0
100
AcDbLine
 10
1380.541075200379
 20
1354.401269030704
 30
0.0
 11
1389.994450200378
 21
1363.854644030704
 31
0.0
  0
LINE
  5
345A
330
18
100
AcDbEntity
  8
0
100
AcDbLine
 10
614.2812335637527
 20
1360.25388207547
 30
0.0
 11
661.549796063753
 21
1360.25388207547
 31
0.0
  0
LINE
  5
345B
330
18
100
AcDbEntity
  8
0
100
AcDbLine
 10
642.6430460637525
 20
1369.70725707547
 30
0.0
 11
637.9146710637524
 21
1364.98056957547
 31
0.0
  0
LINE
  5
345C
330
18
100
AcDbEntity
  8
0
100
AcDbLine
 10
623.9404835637519
 20
1369.70725707547
 30
0.0
 11
614.2812335637527
 21
1360.25388207547
 31
0.0
  0
LINE
  5
345D
330
18
100
AcDbEntity
  8
0
100
AcDbLine
 10
637.9146710637524
 20
1364.98056957547
 30
0.0
 11
623.9404835637519
 21
1364.98056957547
 31
0.0
  0
LINE
  5
345E
330
18
100
AcDbEntity
  8
0
100
AcDbLine
 10
623.9404835637519
 20
1364.98056957547
 30
0.0
 11
623.9404835637519
 21
1369.70725707547
 31
0.0
  0
LINE
  5
345F
330
18
100
AcDbEntity
  8
0
100
AcDbLine
 10
671.0031710637527
 20
1369.70725707547
 30
0.0
 11
642.6430460637525
 21
1369.70725707547
 31
0.0
  0
LINE
  5
3460
330
18
100
AcDbEntity
  8
0
100
AcDbLine
 10
661.549796063753
 20
1360.25388207547
 30
0.0
 11
671.0031710637527
 21
1369.70725707547
 31
0.0
  0
LINE
  5
3461
330
18
100
AcDbEntity
  8
0
100
AcDbLine
 10
638.8801779486566
 20
707.5844757166923
 30
0.0
 11
686.1487404486569
 21
707.5844757166923
 31
0.0
  0
LINE
  5
3462
330
18
100
AcDbEntity
  8
0
100
AcDbLine
 10
667.2419904486564
 20
717.037850716692
 30
0.0
 11
662.5136154486563
 21
712.3111632166922
 31
0.0
  0
LINE
  5
3463
330
18
100
AcDbEntity
  8
0
100
AcDbLine
 10
648.5394279486558
 20
717.037850716692
 30
0.0
 11
638.8801779486566
 21
707.5844757166923
 31
0.0
  0
LINE
  5
3464
330
18
100
AcDbEntity
  8
0
100
AcDbLine
 10
662.5136154486563
 20
712.3111632166922
 30
0.0
 11
648.5394279486558
 21
712.3111632166922
 31
0.0
  0
LINE
  5
3465
330
18
100
AcDbEntity
  8
0
100
AcDbLine
 10
648.5394279486558
 20
712.3111632166922
 30
0.0
 11
648.5394279486558
 21
717.037850716692
 31
0.0
  0
LINE
  5
3466
330
18
100
AcDbEntity
  8
0
100
AcDbLine
 10
695.6021154486566
 20
717.037850716692
 30
0.0
 11
667.2419904486564
 21
717.037850716692
 31
0.0
  0
LINE
  5
3467
330
18
100
AcDbEntity
  8
0
100
AcDbLine
 10
686.1487404486569
 20
707.5844757166923
 30
0.0
 11
695.6021154486566
 21
717.037850716692
 31
0.0
  0
LINE
  5
3468
330
18
100
AcDbEntity
  8
0
100
AcDbLine
 10
1348.735590494849
 20
711.0960427612408
 30
0.0
 11
1396.00415299485
 21
711.0960427612408
 31
0.0
  0
LINE
  5
3469
330
18
100
AcDbEntity
  8
0
100
AcDbLine
 10
1377.097402994849
 20
720.5494177612404
 30
0.0
 11
1372.369027994849
 21
715.8227302612406
 31
0.0
  0
LINE
  5
346A
330
18
100
AcDbEntity
  8
0
100
AcDbLine
 10
1358.394840494849
 20
720.5494177612404
 30
0.0
 11
1348.735590494849
 21
711.0960427612408
 31
0.0
  0
LINE
  5
346B
330
18
100
AcDbEntity
  8
0
100
AcDbLine
 10
1372.369027994849
 20
715.8227302612406
 30
0.0
 11
1358.394840494849
 21
715.8227302612406
 31
0.0
  0
LINE
  5
346C
330
18
100
AcDbEntity
  8
0
100
AcDbLine
 10
1358.394840494849
 20
715.8227302612406
 30
0.0
 11
1358.394840494849
 21
720.5494177612404
 31
0.0
  0
LINE
  5
346D
330
18
100
AcDbEntity
  8
0
100
AcDbLine
 10
1405.457527994849
 20
720.5494177612404
 30
0.0
 11
1377.097402994849
 21
720.5494177612404
 31
0.0
  0
LINE
  5
346E
330
18
100
AcDbEntity
  8
0
100
AcDbLine
 10
1396.00415299485
 20
711.0960427612408
 30
0.0
 11
1405.457527994849
 21
720.5494177612404
 31
0.0
  0
LINE
  5
346F
330
18
100
AcDbEntity
  8
0
100
AcDbLine
 10
2058.808637015749
 20
706.4139507608065
 30
0.0
 11
2106.07719951575
 21
706.4139507608065
 31
0.0
  0
LINE
  5
3470
330
18
100
AcDbEntity
  8
0
100
AcDbLine
 10
2087.170449515749
 20
715.8673257608061
 30
0.0
 11
2082.442074515749
 21
711.1406382608063
 31
0.0
  0
LINE
  5
3471
330
18
100
AcDbEntity
  8
0
100
AcDbLine
 10
2068.467887015749
 20
715.8673257608061
 30
0.0
 11
2058.808637015749
 21
706.4139507608065
 31
0.0
  0
LINE
  5
3472
330
18
100
AcDbEntity
  8
0
100
AcDbLine
 10
2082.442074515749
 20
711.1406382608063
 30
0.0
 11
2068.467887015749
 21
711.1406382608063
 31
0.0
  0
LINE
  5
3473
330
18
100
AcDbEntity
  8
0
100
AcDbLine
 10
2068.467887015749
 20
711.1406382608063
 30
0.0
 11
2068.467887015749
 21
715.8673257608061
 31
0.0
  0
LINE
  5
3474
330
18
100
AcDbEntity
  8
0
100
AcDbLine
 10
2115.530574515749
 20
715.8673257608061
 30
0.0
 11
2087.170449515749
 21
715.8673257608061
 31
0.0
  0
LINE
  5
3475
330
18
100
AcDbEntity
  8
0
100
AcDbLine
 10
2106.07719951575
 20
706.4139507608065
 30
0.0
 11
2115.530574515749
 21
715.8673257608061
 31
0.0
  0
VIEWPORT
  5
41
330
15
100
AcDbEntity
 67
     1
  8
0
100
AcDbViewport
 10
117.358407079646
 20
73.5
 30
0.0
 40
234.716814159292
 41
147.0
 68
     1
 69
     1
1001
ACAD
1000
MVIEW
1002
{
1070
    16
1010
0.0
1020
0.0
1030
0.0
1010
0.0
1020
0.0
1030
1.0
1040
0.0
1040
147.0
1040
117.358407079646
1040
73.5
1040
50.0
1040
0.0
1040
0.0
1070
     0
1070
   100
1070
     1
1070
     1
1070
     0
1070
     0
1070
     0
1070
     0
1040
0.0
1040
0.0
1040
0.0
1040
1.0
1040
1.0
1040
0.0
1040
0.0
1070
     0
1002
{
1002
}
1002
}
  0
ENDSEC
  0
SECTION
  2
OBJECTS
  0
DICTIONARY
  5
C
330
0
100
AcDbDictionary
  3
ACAD_GROUP
350
D
  3
ACAD_LAYOUT
350
34F0
  3
ACAD_MLINESTYLE
350
E
  3
ACAD_PLOTSETTINGS
350
34F1
1001
ACAD
1000
TREAT_AS_HARD
1070
     0
  0
DICTIONARY
  5
3559
330
18
100
AcDbDictionary
  3
ACAD_LAYOUTSELFREF
350
355A
  0
DICTIONARY
  5
3557
330
15
100
AcDbDictionary
  3
ACAD_LAYOUTSELFREF
350
3558
  0
DICTIONARY
  5
D
102
{ACAD_REACTORS
330
C
102
}
330
C
100
AcDbDictionary
1001
ACAD
1000
TREAT_AS_HARD
1070
     0
  0
DICTIONARY
  5
34F0
102
{ACAD_REACTORS
330
C
102
}
330
C
100
AcDbDictionary
1001
ACAD
1000
TREAT_AS_HARD
1070
     0
  0
DICTIONARY
  5
E
102
{ACAD_REACTORS
330
C
102
}
330
C
100
AcDbDictionary
  3
STANDARD
350
1B
1001
ACAD
1000
TREAT_AS_HARD
1070
     0
  0
DICTIONARY
  5
34F1
102
{ACAD_REACTORS
330
C
102
}
330
C
100
AcDbDictionary
1001
ACAD
1000
TREAT_AS_HARD
1070
     0
  0
XRECORD
  5
355A
102
{ACAD_REACTORS
330
3559
102
}
330
3559
100
AcDbXrecord
340
18
  0
XRECORD
  5
3558
102
{ACAD_REACTORS
330
3557
102
}
330
3557
100
AcDbXrecord
340
15
  0
MLINESTYLE
  5
1B
102
{ACAD_REACTORS
330
E
102
}
330
E
100
AcDbMlineStyle
  2
STANDARD
 70
     0
  3

 62
     0
 51
90.0
 52
90.0
 71
     2
 49
0.5
 62
   256
  6
BYLAYER
 49
-0.5
 62
   256
  6
BYLAYER
  0
ENDSEC
  0
EOF
