  0
SECTION
  2
HEADER
  9
$ACADVER
  1
AC1012
  9
$DWGCODEPAGE
  3
dos932
  9
$INSBASE
 10
0.0
 20
0.0
 30
0.0
  9
$EXTMIN
 10
55.0
 20
25.0
 30
0.0
  9
$EXTMAX
 10
1430.0
 20
955.0
 30
0.0
  9
$LIMMIN
 10
0.0
 20
0.0
  9
$LIMMAX
 10
1485.0
 20
1050.0
  9
$ORTHOMODE
 70
     1
  9
$REGENMODE
 70
     1
  9
$FILLMODE
 70
     1
  9
$QTEXTMODE
 70
     0
  9
$MIRRTEXT
 70
     1
  9
$DRAGMODE
 70
     2
  9
$LTSCALE
 40
20.0
  9
$OSMODE
 70
     0
  9
$ATTMODE
 70
     1
  9
$TEXTSIZE
 40
20.0
  9
$TRACEWID
 40
0.05
  9
$TEXTSTYLE
  7
STANDARD
  9
$CLAYER
  8
0
  9
$CELTYPE
  6
BYLAYER
  9
$CECOLOR
 62
   256
  9
$CELTSCALE
 40
1.0
  9
$DELOBJ
 70
     1
  9
$DISPSILH
 70
     0
  9
$DIMSCALE
 40
5.0
  9
$DIMASZ
 40
2.799999999999999
  9
$DIMEXO
 40
1.0
  9
$DIMDLI
 40
5.0
  9
$DIMRND
 40
0.1
  9
$DIMDLE
 40
0.0
  9
$DIMEXE
 40
1.0
  9
$DIMTP
 40
0.0
  9
$DIMTM
 40
0.0
  9
$DIMTXT
 40
2.5
  9
$DIMCEN
 40
0.0
  9
$DIMTSZ
 40
0.0
  9
$DIMTOL
 70
     0
  9
$DIMLIM
 70
     0
  9
$DIMTIH
 70
     0
  9
$DIMTOH
 70
     0
  9
$DIMSE1
 70
     0
  9
$DIMSE2
 70
     0
  9
$DIMTAD
 70
     3
  9
$DIMZIN
 70
     8
  9
$DIMBLK
  1

  9
$DIMASO
 70
     1
  9
$DIMSHO
 70
     1
  9
$DIMPOST
  1

  9
$DIMAPOST
  1

  9
$DIMALT
 70
     0
  9
$DIMALTD
 70
     2
  9
$DIMALTF
 40
1.0
  9
$DIMLFAC
 40
1.0
  9
$DIMTOFL
 70
     1
  9
$DIMTVP
 40
0.0
  9
$DIMTIX
 70
     0
  9
$DIMSOXD
 70
     0
  9
$DIMSAH
 70
     1
  9
$DIMBLK1
  1
OPEN
  9
$DIMBLK2
  1
OPEN
  9
$DIMSTYLE
  2
DIM1
  9
$DIMCLRD
 70
     2
  9
$DIMCLRE
 70
     2
  9
$DIMCLRT
 70
     2
  9
$DIMTFAC
 40
0.7
  9
$DIMGAP
 40
0.85
  9
$DIMJUST
 70
     0
  9
$DIMSD1
 70
     0
  9
$DIMSD2
 70
     0
  9
$DIMTOLJ
 70
     1
  9
$DIMTZIN
 70
     8
  9
$DIMALTZ
 70
     8
  9
$DIMALTTZ
 70
     8
  9
$DIMFIT
 70
     3
  9
$DIMUPT
 70
     0
  9
$DIMUNIT
 70
     2
  9
$DIMDEC
 70
     2
  9
$DIMTDEC
 70
     3
  9
$DIMALTU
 70
     2
  9
$DIMALTTD
 70
     3
  9
$DIMTXSTY
  7
DIM
  9
$DIMAUNIT
 70
     0
  9
$LUNITS
 70
     2
  9
$LUPREC
 70
     4
  9
$SKETCHINC
 40
0.1
  9
$FILLETRAD
 40
0.0
  9
$AUNITS
 70
     0
  9
$AUPREC
 70
     0
  9
$MENU
  1
C:\ACADR13\WIN\SUPPORT\ACAD.mnc
  9
$ELEVATION
 40
0.0
  9
$PELEVATION
 40
0.0
  9
$THICKNESS
 40
0.0
  9
$LIMCHECK
 70
     0
  9
$BLIPMODE
 70
     0
  9
$CHAMFERA
 40
0.0
  9
$CHAMFERB
 40
0.0
  9
$CHAMFERC
 40
0.0
  9
$CHAMFERD
 40
0.0
  9
$SKPOLY
 70
     0
  9
$TDCREATE
 40
2451564.706131446
  9
$TDUPDATE
 40
2452128.543250683
  9
$TDINDWG
 40
0.0096796875
  9
$TDUSRTIMER
 40
0.0096796875
  9
$USRTIMER
 70
     1
  9
$ANGBASE
 50
0.0
  9
$ANGDIR
 70
     0
  9
$PDMODE
 70
     0
  9
$PDSIZE
 40
0.0
  9
$PLINEWID
 40
0.0
  9
$COORDS
 70
     2
  9
$SPLFRAME
 70
     0
  9
$SPLINETYPE
 70
     6
  9
$SPLINESEGS
 70
     8
  9
$ATTDIA
 70
     0
  9
$ATTREQ
 70
     1
  9
$HANDLING
 70
-16383
  9
$HANDSEED
  5
3213
  9
$SURFTAB1
 70
     6
  9
$SURFTAB2
 70
     6
  9
$SURFTYPE
 70
     6
  9
$SURFU
 70
     6
  9
$SURFV
 70
     6
  9
$UCSNAME
  2

  9
$UCSORG
 10
0.0
 20
0.0
 30
0.0
  9
$UCSXDIR
 10
1.0
 20
0.0
 30
0.0
  9
$UCSYDIR
 10
0.0
 20
1.0
 30
0.0
  9
$PUCSNAME
  2

  9
$PUCSORG
 10
0.0
 20
0.0
 30
0.0
  9
$PUCSXDIR
 10
1.0
 20
0.0
 30
0.0
  9
$PUCSYDIR
 10
0.0
 20
1.0
 30
0.0
  9
$USERI1
 70
     0
  9
$USERI2
 70
     0
  9
$USERI3
 70
     0
  9
$USERI4
 70
     0
  9
$USERI5
 70
     0
  9
$USERR1
 40
0.0
  9
$USERR2
 40
0.0
  9
$USERR3
 40
0.0
  9
$USERR4
 40
0.0
  9
$USERR5
 40
0.0
  9
$WORLDVIEW
 70
     1
  9
$SHADEDGE
 70
     3
  9
$SHADEDIF
 70
    70
  9
$TILEMODE
 70
     1
  9
$MAXACTVP
 70
    16
  9
$PINSBASE
 10
0.0
 20
0.0
 30
0.0
  9
$PLIMCHECK
 70
     0
  9
$PEXTMIN
 10
1.000000000000000E+20
 20
1.000000000000000E+20
 30
1.000000000000000E+20
  9
$PEXTMAX
 10
-1.000000000000000E+20
 20
-1.000000000000000E+20
 30
-1.000000000000000E+20
  9
$PLIMMIN
 10
0.0
 20
0.0
  9
$PLIMMAX
 10
20.0
 20
147.0
  9
$UNITMODE
 70
     0
  9
$VISRETAIN
 70
     0
  9
$PLINEGEN
 70
     0
  9
$PSLTSCALE
 70
     1
  9
$TREEDEPTH
 70
  3020
  9
$PICKSTYLE
 70
     1
  9
$CMLSTYLE
  2
STANDARD
  9
$CMLJUST
 70
     0
  9
$CMLSCALE
 40
1.0
  9
$SAVEIMAGES
 70
     1
  0
ENDSEC
  0
SECTION
  2
CLASSES
  0
CLASS
  1
LWPOLYLINE
  2
AcDbPolyline
  3
AutoCAD 2000
 90
    32768
280
     0
281
     1
  0
CLASS
  1
ACDBDICTIONARYWDFLT
  2
AcDbDictionaryWithDefault
  3
AutoCAD 2000
 90
    32768
280
     0
281
     0
  0
CLASS
  1
ACDBPLACEHOLDER
  2
AcDbPlaceHolder
  3
AutoCAD 2000
 90
    32768
280
     0
281
     0
  0
CLASS
  1
LAYOUT
  2
AcDbLayout
  3
AutoCAD 2000
 90
    32768
280
     0
281
     0
  0
CLASS
  1
LONG_TRANSACTION
  2
AcDbLongTransaction
  3
AutoCAD 2000
 90
    32768
280
     0
281
     0
  0
CLASS
  1
LWPOLYLINE
  2
AcDbPolyline
  3
AutoCAD 2000
 90
    32768
280
     0
281
     1
  0
CLASS
  1
HATCH
  2
AcDbHatch
  3
AutoCAD 2000
 90
    32768
280
     0
281
     1
  0
CLASS
  1
XRECORD
  2
AcDbXrecord
  3
AutoCAD 2000
 90
    32768
280
     0
281
     0
  0
ENDSEC
  0
SECTION
  2
TABLES
  0
TABLE
  2
VPORT
  5
8
330
0
100
AcDbSymbolTable
 70
     3
  0
VPORT
  5
31D3
330
8
100
AcDbSymbolTableRecord
100
AcDbViewportTableRecord
  2
*ACTIVE
 70
     0
 10
0.0
 20
0.0
 11
1.0
 21
1.0
 12
742.6225219542839
 22
561.8970750846191
 13
0.0
 23
0.0
 14
1.0
 24
1.0
 15
0.0
 25
0.0
 16
0.0
 26
0.0
 36
1.0
 17
0.0
 27
0.0
 37
0.0
 40
1137.585563438053
 41
1.593103448275862
 42
50.0
 43
0.0
 44
0.0
 50
0.0
 51
0.0
 71
     0
 72
   100
 73
     1
 74
     1
 75
     0
 76
     0
 77
     0
 78
     0
  0
ENDTAB
  0
TABLE
  2
LTYPE
  5
5
330
0
100
AcDbSymbolTable
 70
     1
  0
LTYPE
  5
12
330
5
100
AcDbSymbolTableRecord
100
AcDbLinetypeTableRecord
  2
BYBLOCK
 70
     0
  3

 72
    65
 73
     0
 40
0.0
  0
LTYPE
  5
13
330
5
100
AcDbSymbolTableRecord
100
AcDbLinetypeTableRecord
  2
BYLAYER
 70
     0
  3

 72
    65
 73
     0
 40
0.0
  0
LTYPE
  5
14
330
5
100
AcDbSymbolTableRecord
100
AcDbLinetypeTableRecord
  2
CONTINUOUS
 70
     0
  3
Solid line
 72
    65
 73
     0
 40
0.0
  0
ENDTAB
  0
TABLE
  2
LAYER
  5
2
330
0
100
AcDbSymbolTable
 70
     1
  0
LAYER
  5
F
330
2
100
AcDbSymbolTableRecord
100
AcDbLayerTableRecord
  2
0
 70
     0
 62
     7
  6
CONTINUOUS
  0
ENDTAB
  0
TABLE
  2
STYLE
  5
3
330
0
100
AcDbSymbolTable
 70
     3
  0
STYLE
  5
10
330
3
100
AcDbSymbolTableRecord
100
AcDbTextStyleTableRecord
  2
STANDARD
 70
     0
 40
0.0
 41
0.8
 50
0.0
 71
     0
 42
20.0
  3
simplex
  4
extfont
  0
STYLE
  5
237C
330
3
100
AcDbSymbolTableRecord
100
AcDbTextStyleTableRecord
  2
PTSH
 70
     0
 40
0.0
 41
0.9
 50
0.0
 71
     0
 42
4.0
  3
SIMPLEX
  4
EXTFONT
  0
STYLE
  5
2592
330
3
100
AcDbSymbolTableRecord
100
AcDbTextStyleTableRecord
  2
DIM
 70
     0
 40
0.0
 41
0.8
 50
0.0
 71
     0
 42
4.0
  3
simplex
  4
extfont
  0
ENDTAB
  0
TABLE
  2
VIEW
  5
6
330
0
100
AcDbSymbolTable
 70
     0
  0
ENDTAB
  0
TABLE
  2
UCS
  5
7
330
0
100
AcDbSymbolTable
 70
     0
  0
ENDTAB
  0
TABLE
  2
APPID
  5
9
330
0
100
AcDbSymbolTable
 70
     1
  0
APPID
  5
11
330
9
100
AcDbSymbolTableRecord
100
AcDbRegAppTableRecord
  2
ACAD
 70
     0
  0
ENDTAB
  0
TABLE
  2
DIMSTYLE
  5
A
330
0
100
AcDbSymbolTable
 70
     1
  0
DIMSTYLE
105
2237
330
A
100
AcDbSymbolTableRecord
100
AcDbDimStyleTableRecord
  2
DIM1
 70
     0
  3

  4

  5

  6
OPEN
  7
OPEN
 40
5.0
 41
2.799999999999999
 42
1.0
 43
5.0
 44
1.0
 45
0.1
 46
0.0
 47
0.0
 48
0.0
140
2.5
141
0.0
142
0.0
143
1.0
144
1.0
145
0.0
146
0.7
147
0.85
 71
     0
 72
     0
 73
     0
 74
     0
 75
     0
 76
     0
 77
     3
 78
     8
170
     0
171
     2
172
     1
173
     1
174
     0
175
     0
176
     2
177
     2
178
     2
270
     2
271
     2
272
     3
273
     2
274
     3
340
2592
275
     0
280
     0
281
     0
282
     0
283
     1
284
     8
285
     8
286
     8
287
     3
288
     0
  0
ENDTAB
  0
TABLE
  2
BLOCK_RECORD
  5
1
330
0
100
AcDbSymbolTable
 70
     1
  0
BLOCK_RECORD
  5
18
102
{ACAD_XDICTIONARY
360
31D6
102
}
330
1
100
AcDbSymbolTableRecord
100
AcDbBlockTableRecord
  2
*MODEL_SPACE
  0
BLOCK_RECORD
  5
15
102
{ACAD_XDICTIONARY
360
31D4
102
}
330
1
100
AcDbSymbolTableRecord
100
AcDbBlockTableRecord
  2
*PAPER_SPACE
  0
BLOCK_RECORD
  5
2448
330
1
100
AcDbSymbolTableRecord
100
AcDbBlockTableRecord
  2
_OPEN
  0
ENDTAB
  0
ENDSEC
  0
SECTION
  2
BLOCKS
  0
BLOCK
  5
3C
330
18
100
AcDbEntity
  8
0
100
AcDbBlockBegin
  2
*MODEL_SPACE
 70
     0
 10
0.0
 20
0.0
 30
0.0
  3
*MODEL_SPACE
  1

  0
ENDBLK
  5
3D
330
18
100
AcDbEntity
  8
0
100
AcDbBlockEnd
  0
BLOCK
  5
3A
330
15
100
AcDbEntity
 67
     1
  8
0
100
AcDbBlockBegin
  2
*PAPER_SPACE
 70
     0
 10
0.0
 20
0.0
 30
0.0
  3
*PAPER_SPACE
  1

  0
ENDBLK
  5
3B
330
15
100
AcDbEntity
 67
     1
  8
0
100
AcDbBlockEnd
  0
BLOCK
  5
2449
330
2448
100
AcDbEntity
  8
0
 48
4.0
100
AcDbBlockBegin
  2
_OPEN
 70
     0
 10
0.0
 20
0.0
 30
0.0
  3
_OPEN
  1
H1111.DWG
  0
LINE
  5
244A
330
2448
100
AcDbEntity
  8
0
  6
BYBLOCK
 62
     0
 48
4.0
100
AcDbLine
 10
-1.0
 20
0.1666666666666666
 30
0.0
 11
0.0
 21
0.0
 31
0.0
  0
LINE
  5
244B
330
2448
100
AcDbEntity
  8
0
  6
BYBLOCK
 62
     0
 48
4.0
100
AcDbLine
 10
0.0
 20
0.0
 30
0.0
 11
-1.0
 21
-0.1666666666666666
 31
0.0
  0
LINE
  5
244C
330
2448
100
AcDbEntity
  8
0
  6
BYBLOCK
 62
     0
 48
4.0
100
AcDbLine
 10
0.0
 20
0.0
 30
0.0
 11
-1.0
 21
0.0
 31
0.0
  0
ENDBLK
  5
244D
330
2448
100
AcDbEntity
  8
0
 48
4.0
100
AcDbBlockEnd
  0
ENDSEC
  0
SECTION
  2
ENTITIES
  0
MTEXT
  5
ADA
330
18
100
AcDbEntity
  8
0
100
AcDbMText
 10
1900.696398858539
 20
249.2315556811138
 30
0.0
 40
1.0
 41
236.1323242437311
 71
     1
 72
     1
  1

1001
ACAD
1000
MTEXTBEGIN
1070
    73
1070
     1
1070
    44
1040
1.0
1070
    74
1070
     0
1000
MTEXTEND
  0
MTEXT
  5
ADB
330
18
100
AcDbEntity
  8
0
100
AcDbMText
 10
1945.249665834572
 20
289.2539686644954
 30
0.0
 40
1.0
 41
227.2216708485234
 71
     1
 72
     1
  1

1001
ACAD
1000
MTEXTBEGIN
1070
    73
1070
     1
1070
    44
1040
1.0
1070
    74
1070
     0
1000
MTEXTEND
  0
MTEXT
  5
ADC
330
18
100
AcDbEntity
  8
0
100
AcDbMText
 10
1918.517705648952
 20
-239.9312320274634
 30
0.0
 40
1.0
 41
258.408957731749
 71
     1
 72
     1
  1

1001
ACAD
1000
MTEXTBEGIN
1070
    73
1070
     1
1070
    44
1040
1.0
1070
    74
1070
     0
1000
MTEXTEND
  0
TEXT
  5
2529
330
18
100
AcDbEntity
  8
0
  6
CONTINUOUS
100
AcDbText
 10
1320.181426027465
 20
40.30347886914159
 30
0.0
 40
15.0
  1
T8N_T10N
 41
0.9
  7
PTSH
 72
     1
 11
1369.038568884608
 21
47.80347886914159
 31
0.0
100
AcDbText
 73
     2
  0
POLYLINE
  5
2563
330
18
100
AcDbEntity
  8
0
100
AcDb2dPolyline
 66
     1
 10
0.0
 20
0.0
 30
0.0
 70
     1
  0
VERTEX
  5
31D8
330
2563
100
AcDbEntity
  8
0
100
AcDbVertex
100
AcDb2dVertex
 10
55.0
 20
25.0
 30
0.0
  0
VERTEX
  5
31D9
330
2563
100
AcDbEntity
  8
0
100
AcDbVertex
100
AcDb2dVertex
 10
1430.0
 20
25.0
 30
0.0
  0
VERTEX
  5
31DA
330
2563
100
AcDbEntity
  8
0
100
AcDbVertex
100
AcDb2dVertex
 10
1430.0
 20
955.0
 30
0.0
  0
VERTEX
  5
31DB
330
2563
100
AcDbEntity
  8
0
100
AcDbVertex
100
AcDb2dVertex
 10
55.0
 20
955.0
 30
0.0
  0
SEQEND
  5
31DC
330
2563
100
AcDbEntity
  8
0
  0
LINE
  5
2B44
330
18
100
AcDbEntity
  8
0
100
AcDbLine
 10
781.2140490579113
 20
506.7275059267094
 30
0.0
 11
802.2140490579113
 21
506.7275059267094
 31
0.0
  0
LINE
  5
2B45
330
18
100
AcDbEntity
  8
0
100
AcDbLine
 10
781.2140490579113
 20
436.7275059267092
 30
0.0
 11
802.2140490579113
 21
436.7275059267094
 31
0.0
  0
LINE
  5
2B46
330
18
100
AcDbEntity
  8
0
100
AcDbLine
 10
781.2140490579113
 20
386.4682772650858
 30
0.0
 11
802.2140490579113
 21
386.4682772650858
 31
0.0
  0
LINE
  5
2B47
330
18
100
AcDbEntity
  8
0
100
AcDbLine
 10
781.2140490579113
 20
316.4682772650858
 30
0.0
 11
802.2140490579113
 21
316.4682772650858
 31
0.0
  0
LINE
  5
2B48
330
18
100
AcDbEntity
  8
0
100
AcDbLine
 10
781.2140490579113
 20
219.8992794452797
 30
0.0
 11
802.2140490579113
 21
219.8992794452797
 31
0.0
  0
LINE
  5
2B49
330
18
100
AcDbEntity
  8
0
100
AcDbLine
 10
781.2140490579113
 20
149.8992794452797
 30
0.0
 11
802.2140490579113
 21
149.8992794452797
 31
0.0
  0
TEXT
  5
2B4A
330
18
100
AcDbEntity
  8
0
100
AcDbText
 10
578.1850394834837
 20
71.72259192300362
 30
0.0
 40
20.0
  1
TLV  T8N･T10N (PT)
100
AcDbText
  0
ARC
  5
2B4B
330
18
100
AcDbEntity
  8
0
100
AcDbCircle
 10
343.7641839580069
 20
501.7275059267094
 30
0.0
 40
1.0
100
AcDbArc
 50
270.0
 51
0.0
  0
ARC
  5
2B4C
330
18
100
AcDbEntity
  8
0
100
AcDbCircle
 10
343.7641839580023
 20
441.7275059267094
 30
0.0
 40
1.0
100
AcDbArc
 50
0.0
 51
90.0
  0
ARC
  5
2B4D
330
18
100
AcDbEntity
  8
0
100
AcDbCircle
 10
345.7641839580051
 20
441.7275059267094
 30
0.0
 40
1.0
100
AcDbArc
 50
180.0000000000002
 51
270.0
  0
ARC
  5
2B4E
330
18
100
AcDbEntity
  8
0
100
AcDbCircle
 10
345.7641839580042
 20
381.4682772650858
 30
0.0
 40
1.0
100
AcDbArc
 50
90.00000000000003
 51
180.0
  0
ARC
  5
2B4F
330
18
100
AcDbEntity
  8
0
100
AcDbCircle
 10
343.764183958005
 20
381.4682772650858
 30
0.0
 40
1.0
100
AcDbArc
 50
270.0
 51
0.0
  0
ARC
  5
2B50
330
18
100
AcDbEntity
  8
0
100
AcDbCircle
 10
343.7641839580014
 20
321.4682772650858
 30
0.0
 40
1.0
100
AcDbArc
 50
0.0
 51
90.0
  0
ARC
  5
2B51
330
18
100
AcDbEntity
  8
0
100
AcDbCircle
 10
345.7641839580042
 20
321.4682772650858
 30
0.0
 40
1.0
100
AcDbArc
 50
180.0000000000002
 51
270.0
  0
ARC
  5
2B52
330
18
100
AcDbEntity
  8
0
100
AcDbCircle
 10
343.7641839580069
 20
214.8992794452797
 30
0.0
 40
1.0
100
AcDbArc
 50
270.0
 51
0.0
  0
ARC
  5
2B53
330
18
100
AcDbEntity
  8
0
100
AcDbCircle
 10
345.7641839580051
 20
214.8992794452797
 30
0.0
 40
1.0
100
AcDbArc
 50
90.00000000000003
 51
180.0
  0
ARC
  5
2B54
330
18
100
AcDbEntity
  8
0
100
AcDbCircle
 10
343.7641839580023
 20
154.8992794452797
 30
0.0
 40
1.0
100
AcDbArc
 50
0.0
 51
90.0
  0
ARC
  5
2B55
330
18
100
AcDbEntity
  8
0
100
AcDbCircle
 10
345.7641839580051
 20
154.8992794452797
 30
0.0
 40
1.0
100
AcDbArc
 50
180.0000000000002
 51
270.0
  0
TEXT
  5
2B56
330
18
100
AcDbEntity
  8
0
100
AcDbText
 10
304.7374003269201
 20
112.0201487645667
 30
0.0
 40
15.0
  1
32A
 41
0.8
 11
304.7374003269201
 21
112.0201487645667
 31
0.0
100
AcDbText
 73
     1
  0
ARC
  5
2B57
330
18
100
AcDbEntity
  8
0
100
AcDbCircle
 10
345.7641839580051
 20
501.7275059267094
 30
0.0
 40
1.0
100
AcDbArc
 50
90.00000000000003
 51
180.0
  0
LINE
  5
2B58
330
18
100
AcDbEntity
  8
0
100
AcDbLine
 10
331.7251898999106
 20
257.8809461119462
 30
0.0
 11
331.7251898999106
 21
248.8992794452797
 31
0.0
  0
LINE
  5
2B59
330
18
100
AcDbEntity
  8
0
100
AcDbLine
 10
285.8031780160995
 20
257.8809461119462
 30
0.0
 11
285.8031780160995
 21
248.8992794452797
 31
0.0
  0
LINE
  5
2B5A
330
18
100
AcDbEntity
  8
0
100
AcDbLine
 10
308.7641839580051
 20
248.8992794452797
 30
0.0
 11
308.7641839580051
 21
257.8809461119462
 31
0.0
  0
LINE
  5
2B5B
330
18
100
AcDbEntity
  8
0
100
AcDbLine
 10
164.1700883041035
 20
257.8809461119462
 30
0.0
 11
164.1700883041035
 21
248.8992794452797
 31
0.0
  0
LINE
  5
2B5C
330
18
100
AcDbEntity
  8
0
100
AcDbLine
 10
276.2641839580051
 20
232.8992794452797
 30
0.0
 11
276.2641839580051
 21
257.8809461119462
 31
0.0
  0
LINE
  5
2B5D
330
18
100
AcDbEntity
  8
0
100
AcDbLine
 10
341.2641839580051
 20
232.8992794452797
 30
0.0
 11
341.2641839580051
 21
257.8809461119462
 31
0.0
  0
LINE
  5
2B5E
330
18
100
AcDbEntity
  8
0
100
AcDbLine
 10
173.7090823621979
 20
232.8992794452797
 30
0.0
 11
173.7090823621979
 21
257.8809461119462
 31
0.0
  0
LINE
  5
2B5F
330
18
100
AcDbEntity
  8
0
100
AcDbLine
 10
141.2090823621979
 20
248.8992794452797
 30
0.0
 11
141.2090823621979
 21
257.8809461119462
 31
0.0
  0
LINE
  5
2B60
330
18
100
AcDbEntity
  8
0
100
AcDbLine
 10
118.2480764202923
 20
257.8809461119462
 30
0.0
 11
118.2480764202923
 21
248.8992794452797
 31
0.0
  0
LINE
  5
2B61
330
18
100
AcDbEntity
  8
0
100
AcDbLine
 10
108.7090823621979
 20
232.8992794452797
 30
0.0
 11
108.7090823621979
 21
257.8809461119462
 31
0.0
  0
ARC
  5
2B62
330
18
100
AcDbEntity
  8
0
100
AcDbCircle
 10
170.2090823621961
 20
168.8992794452797
 30
0.0
 40
1.0
100
AcDbArc
 50
270.0
 51
0.0000000000056557
  0
CIRCLE
  5
2B63
330
18
100
AcDbEntity
  8
0
100
AcDbCircle
 10
141.2090823621979
 20
184.8992794452797
 30
0.0
 40
31.0
  0
CIRCLE
  5
2B64
330
18
100
AcDbEntity
  8
0
100
AcDbCircle
 10
141.2090823621979
 20
184.8992794452797
 30
0.0
 40
29.0
  0
LINE
  5
2B65
330
18
100
AcDbEntity
  8
0
100
AcDbLine
 10
170.2090823621961
 20
167.8992794452797
 30
0.0
 11
167.132045155829
 21
167.8992794452797
 31
0.0
  0
ARC
  5
2B66
330
18
100
AcDbEntity
  8
0
100
AcDbCircle
 10
117.0604047236643
 20
208.8333841561352
 30
0.0
 40
3.0
100
AcDbArc
 50
315.255684903056
 51
42.37564016389927
  0
LINE
  5
2B67
330
18
100
AcDbEntity
  8
0
100
AcDbLine
 10
172.7090823621979
 20
231.8992794452797
 30
0.0
 11
109.7090823621979
 21
231.8992794452797
 31
0.0
  0
LINE
  5
2B68
330
18
100
AcDbEntity
  8
0
100
AcDbLine
 10
173.7090823621979
 20
248.8992794452797
 30
0.0
 11
108.7090823621979
 21
248.8992794452797
 31
0.0
  0
ARC
  5
2B69
330
18
100
AcDbEntity
  8
0
100
AcDbCircle
 10
110.2090823621979
 20
184.8992794452797
 30
0.0
 40
2.0
100
AcDbArc
 50
88.15142835477308
 51
271.8485716452269
  0
ARC
  5
2B6A
330
18
100
AcDbEntity
  8
0
100
AcDbCircle
 10
114.7090823621988
 20
228.8992794452797
 30
0.0
 40
3.0
100
AcDbArc
 50
0.000000000000007
 51
90.0
  0
LINE
  5
2B6B
330
18
100
AcDbEntity
  8
0
100
AcDbLine
 10
117.7090823621979
 20
228.8992794452797
 30
0.0
 11
117.7090823621979
 21
214.8992794452797
 31
0.0
  0
ARC
  5
2B6C
330
18
100
AcDbEntity
  8
0
100
AcDbCircle
 10
123.7090823621979
 20
214.8992794452797
 30
0.0
 40
6.0
100
AcDbArc
 50
180.0
 51
222.3756401638986
  0
LINE
  5
2B6D
330
18
100
AcDbEntity
  8
0
100
AcDbLine
 10
109.7090823621979
 20
231.8992794452797
 30
0.0
 11
108.7090823621979
 21
232.8992794452797
 31
0.0
  0
ARC
  5
2B6E
330
18
100
AcDbEntity
  8
0
100
AcDbCircle
 10
165.3577600007306
 20
208.8333841561357
 30
0.0
 40
3.0
100
AcDbArc
 50
137.6243598361071
 51
224.74431509695
  0
ARC
  5
2B6F
330
18
100
AcDbEntity
  8
0
100
AcDbCircle
 10
172.2090823621979
 20
184.8992794452797
 30
0.0
 40
2.0
100
AcDbArc
 50
268.1514283547731
 51
91.84857164522693
  0
LINE
  5
2B70
330
18
100
AcDbEntity
  8
0
100
AcDbLine
 10
171.2090823621961
 20
177.0890297693672
 30
0.0
 11
171.2090823621961
 21
168.8992794452797
 31
0.0
  0
LINE
  5
2B71
330
18
100
AcDbEntity
  8
0
100
AcDbLine
 10
170.209082362197
 20
201.8992794452797
 30
0.0
 11
167.132045155829
 21
201.8992794452797
 31
0.0
  0
ARC
  5
2B72
330
18
100
AcDbEntity
  8
0
100
AcDbCircle
 10
170.209082362197
 20
200.8992794452796
 30
0.0
 40
1.0
100
AcDbArc
 50
359.9999999999943
 51
90.0
  0
LINE
  5
2B73
330
18
100
AcDbEntity
  8
0
100
AcDbLine
 10
171.209082362197
 20
200.8992794452796
 30
0.0
 11
171.209082362197
 21
192.7095291211903
 31
0.0
  0
ARC
  5
2B74
330
18
100
AcDbEntity
  8
0
100
AcDbCircle
 10
167.7090823621988
 20
228.8992794452797
 30
0.0
 40
3.0
100
AcDbArc
 50
90.0
 51
180.0
  0
ARC
  5
2B75
330
18
100
AcDbEntity
  8
0
100
AcDbCircle
 10
158.709082362197
 20
214.8992794452797
 30
0.0
 40
6.0
100
AcDbArc
 50
317.6243598361013
 51
0.000000000000007
  0
LINE
  5
2B76
330
18
100
AcDbEntity
  8
0
100
AcDbLine
 10
164.709082362197
 20
228.8992794452797
 30
0.0
 11
164.709082362197
 21
214.8992794452797
 31
0.0
  0
LINE
  5
2B77
330
18
100
AcDbEntity
  8
0
100
AcDbLine
 10
172.7090823621979
 20
231.8992794452797
 30
0.0
 11
173.7090823621979
 21
232.8992794452797
 31
0.0
  0
LINE
  5
2B78
330
18
100
AcDbEntity
  8
0
100
AcDbLine
 10
344.7641839580051
 20
214.8992794452797
 30
0.0
 11
344.7641839580051
 21
154.8992794452797
 31
0.0
  0
LINE
  5
2B79
330
18
100
AcDbEntity
  8
0
100
AcDbLine
 10
334.7641839580051
 20
201.8992794452797
 30
0.0
 11
334.7641839580051
 21
167.8992794452797
 31
0.0
  0
LINE
  5
2B7A
330
18
100
AcDbEntity
  8
0
100
AcDbLine
 10
248.7641839580051
 20
184.8992794452797
 30
0.0
 11
248.7641839580051
 21
155.8992794452797
 31
0.0
  0
LINE
  5
2B7B
330
18
100
AcDbEntity
  8
0
100
AcDbLine
 10
272.7641839580051
 20
214.8992794452797
 30
0.0
 11
272.7641839580051
 21
154.8992794452797
 31
0.0
  0
LINE
  5
2B7C
330
18
100
AcDbEntity
  8
0
100
AcDbLine
 10
282.7641839580051
 20
201.8992794452797
 30
0.0
 11
282.7641839580051
 21
167.8992794452797
 31
0.0
  0
LINE
  5
2B7D
330
18
100
AcDbEntity
  8
0
100
AcDbLine
 10
273.7641839580078
 20
155.8992794452797
 30
0.0
 11
343.7641839580023
 21
155.8992794452797
 31
0.0
  0
LINE
  5
2B7E
330
18
100
AcDbEntity
  8
0
100
AcDbLine
 10
282.7641839580051
 20
167.8992794452797
 30
0.0
 11
334.7641839580051
 21
167.8992794452797
 31
0.0
  0
LINE
  5
2B7F
330
18
100
AcDbEntity
  8
0
100
AcDbLine
 10
271.7641839580051
 20
153.8992794452797
 30
0.0
 11
250.7641839580051
 21
153.8992794452797
 31
0.0
  0
LINE
  5
2B80
330
18
100
AcDbEntity
  8
0
100
AcDbLine
 10
250.7641839580051
 20
153.8992794452797
 30
0.0
 11
248.7641839580051
 21
155.8992794452797
 31
0.0
  0
ARC
  5
2B81
330
18
100
AcDbEntity
  8
0
100
AcDbCircle
 10
271.7641839580051
 20
154.8992794452797
 30
0.0
 40
1.0
100
AcDbArc
 50
270.0
 51
359.9999999999997
  0
ARC
  5
2B82
330
18
100
AcDbEntity
  8
0
100
AcDbCircle
 10
273.7641839580078
 20
154.8992794452797
 30
0.0
 40
1.0
100
AcDbArc
 50
90.0
 51
180.0
  0
LINE
  5
2B83
330
18
100
AcDbEntity
  8
0
100
AcDbLine
 10
276.2641839580051
 20
248.8992794452797
 30
0.0
 11
341.2641839580051
 21
248.8992794452797
 31
0.0
  0
LINE
  5
2B84
330
18
100
AcDbEntity
  8
0
100
AcDbLine
 10
277.264183958005
 20
231.8992794452797
 30
0.0
 11
340.2641839580051
 21
231.8992794452797
 31
0.0
  0
LINE
  5
2B85
330
18
100
AcDbEntity
  8
0
100
AcDbLine
 10
282.7641839580051
 20
201.8992794452797
 30
0.0
 11
334.7641839580051
 21
201.8992794452797
 31
0.0
  0
ARC
  5
2B86
330
18
100
AcDbEntity
  8
0
100
AcDbCircle
 10
308.7641839580051
 20
281.6242794452791
 30
0.0
 40
72.72499999999964
100
AcDbArc
 50
251.4905140967021
 51
288.5094859032976
  0
LINE
  5
2B87
330
18
100
AcDbEntity
  8
0
100
AcDbLine
 10
248.7641839580051
 20
213.8992794452797
 30
0.0
 11
248.7641839580051
 21
184.8992794452797
 31
0.0
  0
LINE
  5
2B88
330
18
100
AcDbEntity
  8
0
100
AcDbLine
 10
266.764183958005
 20
182.8992794452797
 30
0.0
 11
255.7641839580051
 21
182.8992794452797
 31
0.0
  0
LINE
  5
2B89
330
18
100
AcDbEntity
  8
0
100
AcDbLine
 10
266.764183958005
 20
186.8992794452797
 30
0.0
 11
255.7641839580051
 21
186.8992794452797
 31
0.0
  0
ARC
  5
2B8A
330
18
100
AcDbEntity
  8
0
100
AcDbCircle
 10
255.7641839580051
 20
184.8992794452797
 30
0.0
 40
2.0
100
AcDbArc
 50
90.0
 51
270.0
  0
ARC
  5
2B8B
330
18
100
AcDbEntity
  8
0
100
AcDbCircle
 10
266.764183958005
 20
184.8992794452797
 30
0.0
 40
2.0
100
AcDbArc
 50
270.0
 51
90.0
  0
LINE
  5
2B8C
330
18
100
AcDbEntity
  8
0
100
AcDbLine
 10
271.7641839580051
 20
215.8992794452797
 30
0.0
 11
250.7641839580051
 21
215.8992794452797
 31
0.0
  0
LINE
  5
2B8D
330
18
100
AcDbEntity
  8
0
100
AcDbLine
 10
250.7641839580051
 20
215.8992794452797
 30
0.0
 11
248.7641839580051
 21
213.8992794452797
 31
0.0
  0
ARC
  5
2B8E
330
18
100
AcDbEntity
  8
0
100
AcDbCircle
 10
282.2641839580051
 20
228.8992794452797
 30
0.0
 40
3.0
100
AcDbArc
 50
0.0
 51
90.0000000000001
  0
ARC
  5
2B8F
330
18
100
AcDbEntity
  8
0
100
AcDbCircle
 10
271.7641839580051
 20
214.8992794452797
 30
0.0
 40
1.0
100
AcDbArc
 50
0.0
 51
90.0
  0
LINE
  5
2B90
330
18
100
AcDbEntity
  8
0
100
AcDbLine
 10
285.2641839580051
 20
228.8992794452797
 30
0.0
 11
285.2641839580051
 21
216.8992794452797
 31
0.0
  0
LINE
  5
2B91
330
18
100
AcDbEntity
  8
0
100
AcDbLine
 10
273.7641839580041
 20
213.8992794452797
 30
0.0
 11
282.2641839580051
 21
213.8992794452797
 31
0.0
  0
ARC
  5
2B92
330
18
100
AcDbEntity
  8
0
100
AcDbCircle
 10
273.7641839580041
 20
214.8992794452797
 30
0.0
 40
1.0
100
AcDbArc
 50
180.0
 51
270.0
  0
ARC
  5
2B93
330
18
100
AcDbEntity
  8
0
100
AcDbCircle
 10
282.2641839580051
 20
216.8992794452797
 30
0.0
 40
3.0
100
AcDbArc
 50
269.9999999999999
 51
0.0
  0
LINE
  5
2B94
330
18
100
AcDbEntity
  8
0
100
AcDbLine
 10
277.264183958005
 20
231.8992794452797
 30
0.0
 11
276.2641839580051
 21
232.8992794452797
 31
0.0
  0
ARC
  5
2B95
330
18
100
AcDbEntity
  8
0
100
AcDbCircle
 10
335.2641839580051
 20
228.8992794452797
 30
0.0
 40
3.0
100
AcDbArc
 50
90.0
 51
180.0
  0
ARC
  5
2B96
330
18
100
AcDbEntity
  8
0
100
AcDbCircle
 10
335.2641839580051
 20
216.8992794452797
 30
0.0
 40
3.0
100
AcDbArc
 50
180.0
 51
270.0
  0
LINE
  5
2B97
330
18
100
AcDbEntity
  8
0
100
AcDbLine
 10
332.2641839580051
 20
228.8992794452797
 30
0.0
 11
332.2641839580051
 21
216.8992794452797
 31
0.0
  0
LINE
  5
2B98
330
18
100
AcDbEntity
  8
0
100
AcDbLine
 10
335.2641839580051
 20
213.8992794452797
 30
0.0
 11
343.7641839580069
 21
213.8992794452797
 31
0.0
  0
LINE
  5
2B99
330
18
100
AcDbEntity
  8
0
100
AcDbLine
 10
340.2641839580051
 20
231.8992794452797
 30
0.0
 11
341.2641839580051
 21
232.8992794452797
 31
0.0
  0
ARC
  5
2B9A
330
18
100
AcDbEntity
  8
0
100
AcDbCircle
 10
129.7285793912456
 20
226.2389281875184
 30
0.0
 40
33.66035125776125
100
AcDbArc
 50
70.05798215649917
 51
109.9420178435008
  0
LINE
  5
2B9B
330
18
100
AcDbEntity
  8
0
100
AcDbLine
 10
112.2090823621979
 20
259.8992794452797
 30
0.0
 11
170.2090823621979
 21
259.8992794452797
 31
0.0
  0
ARC
  5
2B9C
330
18
100
AcDbEntity
  8
0
100
AcDbCircle
 10
113.4785793912456
 20
253.2547942103574
 30
0.0
 40
6.644500231519874
100
AcDbArc
 50
44.12593225479907
 51
104.0671635547659
  0
LINE
  5
2B9D
330
18
100
AcDbEntity
  8
0
100
AcDbLine
 10
112.2090823621979
 20
259.8992794452797
 30
0.0
 11
108.7090823621979
 21
257.8809461119462
 31
0.0
  0
ARC
  5
2B9E
330
18
100
AcDbEntity
  8
0
100
AcDbCircle
 10
152.6895853331502
 20
226.2389281875184
 30
0.0
 40
33.66035125776125
100
AcDbArc
 50
70.05798215649914
 51
109.9420178435008
  0
LINE
  5
2B9F
330
18
100
AcDbEntity
  8
0
100
AcDbLine
 10
173.7090823621979
 20
257.8809461119462
 30
0.0
 11
170.2090823621979
 21
259.8992794452797
 31
0.0
  0
ARC
  5
2BA0
330
18
100
AcDbEntity
  8
0
100
AcDbCircle
 10
168.9395853331502
 20
253.2547942103574
 30
0.0
 40
6.644500231519874
100
AcDbArc
 50
75.93283644523387
 51
135.8740677452009
  0
CIRCLE
  5
2BA1
330
18
100
AcDbEntity
  8
0
100
AcDbCircle
 10
308.7641839580042
 20
351.4682772650858
 30
0.0
 40
21.0
  0
CIRCLE
  5
2BA2
330
18
100
AcDbEntity
  8
0
100
AcDbCircle
 10
308.7641839580042
 20
351.4682772650858
 30
0.0
 40
29.0
  0
POLYLINE
  5
2BA3
330
18
100
AcDbEntity
  8
0
100
AcDb2dPolyline
 66
     1
 10
0.0
 20
0.0
 30
0.0
 70
     1
  0
VERTEX
  5
31DD
330
2BA3
100
AcDbEntity
  8
0
100
AcDbVertex
100
AcDb2dVertex
 10
285.8031780160986
 20
374.4292832069911
 30
0.0
  0
VERTEX
  5
31DE
330
2BA3
100
AcDbEntity
  8
0
100
AcDbVertex
100
AcDb2dVertex
 10
276.2924179492324
 20
351.4682772650858
 30
0.0
  0
VERTEX
  5
31DF
330
2BA3
100
AcDbEntity
  8
0
100
AcDbVertex
100
AcDb2dVertex
 10
285.8031780160986
 20
328.5072713231802
 30
0.0
  0
VERTEX
  5
31E0
330
2BA3
100
AcDbEntity
  8
0
100
AcDbVertex
100
AcDb2dVertex
 10
308.7641839580042
 20
318.996511256314
 30
0.0
  0
VERTEX
  5
31E1
330
2BA3
100
AcDbEntity
  8
0
100
AcDbVertex
100
AcDb2dVertex
 10
331.7251898999097
 20
328.5072713231802
 30
0.0
  0
VERTEX
  5
31E2
330
2BA3
100
AcDbEntity
  8
0
100
AcDbVertex
100
AcDb2dVertex
 10
341.2359499667759
 20
351.4682772650858
 30
0.0
  0
VERTEX
  5
31E3
330
2BA3
100
AcDbEntity
  8
0
100
AcDbVertex
100
AcDb2dVertex
 10
331.7251898999097
 20
374.4292832069911
 30
0.0
  0
VERTEX
  5
31E4
330
2BA3
100
AcDbEntity
  8
0
100
AcDbVertex
100
AcDb2dVertex
 10
308.7641839580042
 20
383.9400432738575
 30
0.0
  0
SEQEND
  5
31E5
330
2BA3
100
AcDbEntity
  8
0
  0
CIRCLE
  5
2BA4
330
18
100
AcDbEntity
  8
0
100
AcDbCircle
 10
308.7641839580042
 20
351.4682772650858
 30
0.0
 40
32.5
  0
LINE
  5
2BA5
330
18
100
AcDbEntity
  8
0
100
AcDbLine
 10
272.7641839580042
 20
381.4682772650858
 30
0.0
 11
272.7641839580042
 21
321.4682772650858
 31
0.0
  0
LINE
  5
2BA6
330
18
100
AcDbEntity
  8
0
100
AcDbLine
 10
248.7641839580041
 20
351.4682772650858
 30
0.0
 11
248.7641839580041
 21
322.4682772650858
 31
0.0
  0
LINE
  5
2BA7
330
18
100
AcDbEntity
  8
0
100
AcDbLine
 10
344.7641839580041
 20
381.4682772650858
 30
0.0
 11
344.7641839580041
 21
321.4682772650858
 31
0.0
  0
LINE
  5
2BA8
330
18
100
AcDbEntity
  8
0
100
AcDbLine
 10
273.7641839580069
 20
322.4682772650858
 30
0.0
 11
294.0927832068832
 21
322.4682772650858
 31
0.0
  0
ARC
  5
2BA9
330
18
100
AcDbEntity
  8
0
100
AcDbCircle
 10
297.2836809870528
 20
226.2389281875184
 30
0.0
 40
33.66035125776125
100
AcDbArc
 50
70.05798215649914
 51
109.9420178435008
  0
LINE
  5
2BAA
330
18
100
AcDbEntity
  8
0
100
AcDbLine
 10
337.764183958005
 20
259.8992794452797
 30
0.0
 11
279.7641839580051
 21
259.8992794452797
 31
0.0
  0
LINE
  5
2BAB
330
18
100
AcDbEntity
  8
0
100
AcDbLine
 10
276.2641839580051
 20
257.8809461119462
 30
0.0
 11
279.7641839580051
 21
259.8992794452797
 31
0.0
  0
ARC
  5
2BAC
330
18
100
AcDbEntity
  8
0
100
AcDbCircle
 10
281.0336809870527
 20
253.2547942103574
 30
0.0
 40
6.644500231519874
100
AcDbArc
 50
44.12593225479906
 51
104.0671635547661
  0
LINE
  5
2BAD
330
18
100
AcDbEntity
  8
0
100
AcDbLine
 10
266.7641839580042
 20
318.4682772650858
 30
0.0
 11
255.7641839580042
 21
318.4682772650858
 31
0.0
  0
LINE
  5
2BAE
330
18
100
AcDbEntity
  8
0
100
AcDbLine
 10
271.7641839580041
 20
320.4682772650858
 30
0.0
 11
250.7641839580041
 21
320.4682772650858
 31
0.0
  0
ARC
  5
2BAF
330
18
100
AcDbEntity
  8
0
100
AcDbCircle
 10
255.7641839580042
 20
320.4682772650858
 30
0.0
 40
2.0
100
AcDbArc
 50
180.0
 51
269.9999999999998
  0
LINE
  5
2BB0
330
18
100
AcDbEntity
  8
0
100
AcDbLine
 10
250.7641839580041
 20
320.4682772650858
 30
0.0
 11
248.7641839580041
 21
322.4682772650858
 31
0.0
  0
ARC
  5
2BB1
330
18
100
AcDbEntity
  8
0
100
AcDbCircle
 10
271.7641839580041
 20
321.4682772650858
 30
0.0
 40
1.0
100
AcDbArc
 50
270.0
 51
359.9999999999997
  0
ARC
  5
2BB2
330
18
100
AcDbEntity
  8
0
100
AcDbCircle
 10
266.7641839580042
 20
320.4682772650858
 30
0.0
 40
2.0
100
AcDbArc
 50
270.0
 51
0.0
  0
ARC
  5
2BB3
330
18
100
AcDbEntity
  8
0
100
AcDbCircle
 10
273.7641839580069
 20
321.4682772650858
 30
0.0
 40
1.0
100
AcDbArc
 50
90.0
 51
180.0
  0
ARC
  5
2BB4
330
18
100
AcDbEntity
  8
0
100
AcDbCircle
 10
320.2446869289574
 20
226.2389281875184
 30
0.0
 40
33.66035125776125
100
AcDbArc
 50
70.05798215649917
 51
109.9420178435008
  0
ARC
  5
2BB5
330
18
100
AcDbEntity
  8
0
100
AcDbCircle
 10
336.4946869289574
 20
253.2547942103574
 30
0.0
 40
6.644500231519874
100
AcDbArc
 50
75.93283644523404
 51
135.8740677452009
  0
LINE
  5
2BB6
330
18
100
AcDbEntity
  8
0
100
AcDbLine
 10
337.764183958005
 20
259.8992794452797
 30
0.0
 11
341.2641839580051
 21
257.8809461119462
 31
0.0
  0
LINE
  5
2BB7
330
18
100
AcDbEntity
  8
0
100
AcDbLine
 10
323.4355847091251
 20
322.4682772650858
 30
0.0
 11
343.7641839580014
 21
322.4682772650858
 31
0.0
  0
LINE
  5
2BB8
330
18
100
AcDbEntity
  8
0
100
AcDbLine
 10
273.7641839580033
 20
380.4682772650858
 30
0.0
 11
294.0927832068823
 21
380.4682772650858
 31
0.0
  0
LINE
  5
2BB9
330
18
100
AcDbEntity
  8
0
100
AcDbLine
 10
248.7641839580041
 20
351.4682772650858
 30
0.0
 11
248.7641839580041
 21
380.4682772650858
 31
0.0
  0
LINE
  5
2BBA
330
18
100
AcDbEntity
  8
0
100
AcDbLine
 10
266.7641839580042
 20
384.4682772650858
 30
0.0
 11
255.7641839580042
 21
384.4682772650858
 31
0.0
  0
LINE
  5
2BBB
330
18
100
AcDbEntity
  8
0
100
AcDbLine
 10
271.7641839580041
 20
382.4682772650858
 30
0.0
 11
250.7641839580041
 21
382.4682772650858
 31
0.0
  0
ARC
  5
2BBC
330
18
100
AcDbEntity
  8
0
100
AcDbCircle
 10
255.7641839580042
 20
382.4682772650858
 30
0.0
 40
2.0
100
AcDbArc
 50
90.00000000000012
 51
180.0
  0
LINE
  5
2BBD
330
18
100
AcDbEntity
  8
0
100
AcDbLine
 10
250.7641839580041
 20
382.4682772650858
 30
0.0
 11
248.7641839580041
 21
380.4682772650858
 31
0.0
  0
ARC
  5
2BBE
330
18
100
AcDbEntity
  8
0
100
AcDbCircle
 10
271.7641839580041
 20
381.4682772650858
 30
0.0
 40
1.0
100
AcDbArc
 50
0.0
 51
90.0
  0
ARC
  5
2BBF
330
18
100
AcDbEntity
  8
0
100
AcDbCircle
 10
266.7641839580042
 20
382.4682772650858
 30
0.0
 40
2.0
100
AcDbArc
 50
0.0
 51
90.0
  0
ARC
  5
2BC0
330
18
100
AcDbEntity
  8
0
100
AcDbCircle
 10
273.7641839580033
 20
381.4682772650858
 30
0.0
 40
1.0
100
AcDbArc
 50
180.0
 51
270.0
  0
CIRCLE
  5
2BC1
330
18
100
AcDbEntity
  8
0
100
AcDbCircle
 10
308.7641839580042
 20
351.4682772650858
 30
0.0
 40
18.5
  0
LINE
  5
2BC2
330
18
100
AcDbEntity
  8
0
100
AcDbLine
 10
323.4355847091251
 20
380.4682772650858
 30
0.0
 11
343.764183958005
 21
380.4682772650858
 31
0.0
  0
LINE
  5
2BC3
330
18
100
AcDbEntity
  8
0
100
AcDbLine
 10
344.7641839580051
 20
501.7275059267094
 30
0.0
 11
344.7641839580051
 21
441.7275059267094
 31
0.0
  0
LINE
  5
2BC4
330
18
100
AcDbEntity
  8
0
100
AcDbLine
 10
248.7641839580051
 20
471.7275059267094
 30
0.0
 11
248.7641839580051
 21
500.7275059267094
 31
0.0
  0
LINE
  5
2BC5
330
18
100
AcDbEntity
  8
0
100
AcDbLine
 10
272.7641839580051
 20
501.7275059267094
 30
0.0
 11
272.7641839580051
 21
441.7275059267094
 31
0.0
  0
ARC
  5
2BC6
330
18
100
AcDbEntity
  8
0
100
AcDbCircle
 10
308.7641839580051
 20
568.4525059267091
 30
0.0
 40
72.72499999999964
100
AcDbArc
 50
251.4905140967021
 51
288.5094859032976
  0
LINE
  5
2BC7
330
18
100
AcDbEntity
  8
0
100
AcDbLine
 10
273.7641839580078
 20
442.7275059267095
 30
0.0
 11
343.7641839580023
 21
442.7275059267095
 31
0.0
  0
LINE
  5
2BC8
330
18
100
AcDbEntity
  8
0
100
AcDbLine
 10
248.7641839580051
 20
471.7275059267094
 30
0.0
 11
248.7641839580051
 21
442.7275059267095
 31
0.0
  0
LINE
  5
2BC9
330
18
100
AcDbEntity
  8
0
100
AcDbLine
 10
271.7641839580051
 20
440.7275059267094
 30
0.0
 11
250.7641839580051
 21
440.7275059267094
 31
0.0
  0
LINE
  5
2BCA
330
18
100
AcDbEntity
  8
0
100
AcDbLine
 10
250.7641839580051
 20
440.7275059267094
 30
0.0
 11
248.7641839580051
 21
442.7275059267095
 31
0.0
  0
ARC
  5
2BCB
330
18
100
AcDbEntity
  8
0
100
AcDbCircle
 10
271.7641839580051
 20
441.7275059267094
 30
0.0
 40
1.0
100
AcDbArc
 50
270.0
 51
359.9999999999997
  0
ARC
  5
2BCC
330
18
100
AcDbEntity
  8
0
100
AcDbCircle
 10
273.7641839580078
 20
441.7275059267094
 30
0.0
 40
1.0
100
AcDbArc
 50
90.0
 51
180.0
  0
LINE
  5
2BCD
330
18
100
AcDbEntity
  8
0
100
AcDbLine
 10
266.764183958005
 20
469.7275059267094
 30
0.0
 11
255.7641839580051
 21
469.7275059267094
 31
0.0
  0
LINE
  5
2BCE
330
18
100
AcDbEntity
  8
0
100
AcDbLine
 10
266.764183958005
 20
473.7275059267094
 30
0.0
 11
255.7641839580051
 21
473.7275059267094
 31
0.0
  0
ARC
  5
2BCF
330
18
100
AcDbEntity
  8
0
100
AcDbCircle
 10
255.7641839580051
 20
471.7275059267094
 30
0.0
 40
2.0
100
AcDbArc
 50
90.0
 51
270.0
  0
ARC
  5
2BD0
330
18
100
AcDbEntity
  8
0
100
AcDbCircle
 10
266.764183958005
 20
471.7275059267094
 30
0.0
 40
2.0
100
AcDbArc
 50
270.0
 51
90.0
  0
ARC
  5
2BD1
330
18
100
AcDbEntity
  8
0
100
AcDbCircle
 10
297.2836809870528
 20
513.0671546689482
 30
0.0
 40
33.66035125776125
100
AcDbArc
 50
70.05798215649914
 51
109.9420178435008
  0
LINE
  5
2BD2
330
18
100
AcDbEntity
  8
0
100
AcDbLine
 10
337.764183958005
 20
546.7275059267094
 30
0.0
 11
279.7641839580051
 21
546.7275059267094
 31
0.0
  0
LINE
  5
2BD3
330
18
100
AcDbEntity
  8
0
100
AcDbLine
 10
276.2641839580051
 20
535.7275059267094
 30
0.0
 11
341.2641839580051
 21
535.7275059267094
 31
0.0
  0
LINE
  5
2BD4
330
18
100
AcDbEntity
  8
0
100
AcDbLine
 10
277.264183958005
 20
518.7275059267094
 30
0.0
 11
340.2641839580051
 21
518.7275059267094
 31
0.0
  0
LINE
  5
2BD5
330
18
100
AcDbEntity
  8
0
100
AcDbLine
 10
276.2641839580051
 20
519.7275059267094
 30
0.0
 11
276.2641839580051
 21
544.709172593376
 31
0.0
  0
LINE
  5
2BD6
330
18
100
AcDbEntity
  8
0
100
AcDbLine
 10
285.8031780160995
 20
544.709172593376
 30
0.0
 11
285.8031780160995
 21
535.7275059267094
 31
0.0
  0
LINE
  5
2BD7
330
18
100
AcDbEntity
  8
0
100
AcDbLine
 10
271.7641839580051
 20
502.7275059267094
 30
0.0
 11
250.7641839580051
 21
502.7275059267094
 31
0.0
  0
LINE
  5
2BD8
330
18
100
AcDbEntity
  8
0
100
AcDbLine
 10
250.7641839580051
 20
502.7275059267094
 30
0.0
 11
248.7641839580051
 21
500.7275059267094
 31
0.0
  0
ARC
  5
2BD9
330
18
100
AcDbEntity
  8
0
100
AcDbCircle
 10
282.2641839580051
 20
515.7275059267094
 30
0.0
 40
3.0
100
AcDbArc
 50
0.0
 51
90.0000000000001
  0
ARC
  5
2BDA
330
18
100
AcDbEntity
  8
0
100
AcDbCircle
 10
271.7641839580051
 20
501.7275059267094
 30
0.0
 40
1.0
100
AcDbArc
 50
0.0
 51
90.0
  0
LINE
  5
2BDB
330
18
100
AcDbEntity
  8
0
100
AcDbLine
 10
285.2641839580051
 20
515.7275059267094
 30
0.0
 11
285.2641839580051
 21
503.7275059267094
 31
0.0
  0
LINE
  5
2BDC
330
18
100
AcDbEntity
  8
0
100
AcDbLine
 10
273.7641839580041
 20
500.7275059267094
 30
0.0
 11
282.2641839580051
 21
500.7275059267094
 31
0.0
  0
ARC
  5
2BDD
330
18
100
AcDbEntity
  8
0
100
AcDbCircle
 10
273.7641839580041
 20
501.7275059267094
 30
0.0
 40
1.0
100
AcDbArc
 50
180.0
 51
270.0
  0
ARC
  5
2BDE
330
18
100
AcDbEntity
  8
0
100
AcDbCircle
 10
282.2641839580051
 20
503.7275059267094
 30
0.0
 40
3.0
100
AcDbArc
 50
269.9999999999999
 51
0.0
  0
LINE
  5
2BDF
330
18
100
AcDbEntity
  8
0
100
AcDbLine
 10
277.264183958005
 20
518.7275059267094
 30
0.0
 11
276.2641839580051
 21
519.7275059267094
 31
0.0
  0
LINE
  5
2BE0
330
18
100
AcDbEntity
  8
0
100
AcDbLine
 10
276.2641839580051
 20
544.709172593376
 30
0.0
 11
279.7641839580051
 21
546.7275059267094
 31
0.0
  0
ARC
  5
2BE1
330
18
100
AcDbEntity
  8
0
100
AcDbCircle
 10
281.0336809870527
 20
540.0830206917869
 30
0.0
 40
6.644500231519874
100
AcDbArc
 50
44.12593225479906
 51
104.0671635547661
  0
LINE
  5
2BE2
330
18
100
AcDbEntity
  8
0
100
AcDbLine
 10
331.7251898999106
 20
544.709172593376
 30
0.0
 11
331.7251898999106
 21
535.7275059267094
 31
0.0
  0
LINE
  5
2BE3
330
18
100
AcDbEntity
  8
0
100
AcDbLine
 10
341.2641839580051
 20
519.7275059267094
 30
0.0
 11
341.2641839580051
 21
544.709172593376
 31
0.0
  0
LINE
  5
2BE4
330
18
100
AcDbEntity
  8
0
100
AcDbLine
 10
308.7641839580051
 20
535.7275059267094
 30
0.0
 11
308.7641839580051
 21
544.709172593376
 31
0.0
  0
ARC
  5
2BE5
330
18
100
AcDbEntity
  8
0
100
AcDbCircle
 10
335.2641839580051
 20
515.7275059267094
 30
0.0
 40
3.0
100
AcDbArc
 50
90.0
 51
180.0
  0
LINE
  5
2BE6
330
18
100
AcDbEntity
  8
0
100
AcDbLine
 10
332.2641839580051
 20
515.7275059267094
 30
0.0
 11
332.2641839580051
 21
503.7275059267094
 31
0.0
  0
LINE
  5
2BE7
330
18
100
AcDbEntity
  8
0
100
AcDbLine
 10
335.2641839580051
 20
500.7275059267094
 30
0.0
 11
343.7641839580069
 21
500.7275059267094
 31
0.0
  0
ARC
  5
2BE8
330
18
100
AcDbEntity
  8
0
100
AcDbCircle
 10
335.2641839580051
 20
503.7275059267094
 30
0.0
 40
3.0
100
AcDbArc
 50
180.0
 51
270.0
  0
LINE
  5
2BE9
330
18
100
AcDbEntity
  8
0
100
AcDbLine
 10
340.2641839580051
 20
518.7275059267094
 30
0.0
 11
341.2641839580051
 21
519.7275059267094
 31
0.0
  0
ARC
  5
2BEA
330
18
100
AcDbEntity
  8
0
100
AcDbCircle
 10
320.2446869289574
 20
513.0671546689482
 30
0.0
 40
33.66035125776125
100
AcDbArc
 50
70.05798215649917
 51
109.9420178435008
  0
ARC
  5
2BEB
330
18
100
AcDbEntity
  8
0
100
AcDbCircle
 10
336.4946869289574
 20
540.0830206917869
 30
0.0
 40
6.644500231519874
100
AcDbArc
 50
75.93283644523404
 51
135.8740677452009
  0
LINE
  5
2BEC
330
18
100
AcDbEntity
  8
0
100
AcDbLine
 10
337.764183958005
 20
546.7275059267094
 30
0.0
 11
341.2641839580051
 21
544.709172593376
 31
0.0
  0
LINE
  5
2BED
330
18
100
AcDbEntity
  8
0
100
AcDbLine
 10
776.7140490579113
 20
235.8992794452797
 30
0.0
 11
776.7140490579113
 21
260.8809461119462
 31
0.0
  0
LINE
  5
2BEE
330
18
100
AcDbEntity
  8
0
100
AcDbLine
 10
711.7140490579113
 20
235.8992794452797
 30
0.0
 11
711.7140490579113
 21
260.8809461119462
 31
0.0
  0
LINE
  5
2BEF
330
18
100
AcDbEntity
  8
0
100
AcDbLine
 10
608.1088334447386
 20
235.8992794452797
 30
0.0
 11
608.1088334447386
 21
260.8809461119462
 31
0.0
  0
LINE
  5
2BF0
330
18
100
AcDbEntity
  8
0
100
AcDbLine
 10
543.1088334447386
 20
235.8992794452797
 30
0.0
 11
543.1088334447386
 21
260.8809461119462
 31
0.0
  0
LINE
  5
2BF1
330
18
100
AcDbEntity
  8
0
100
AcDbLine
 10
402.6513816196761
 20
257.8809461119462
 30
0.0
 11
402.6513816196761
 21
248.8992794452797
 31
0.0
  0
LINE
  5
2BF2
330
18
100
AcDbEntity
  8
0
100
AcDbLine
 10
425.6123875615817
 20
248.8992794452797
 30
0.0
 11
425.6123875615817
 21
257.8809461119462
 31
0.0
  0
LINE
  5
2BF3
330
18
100
AcDbEntity
  8
0
100
AcDbLine
 10
448.5733935034873
 20
257.8809461119462
 30
0.0
 11
448.5733935034873
 21
248.8992794452797
 31
0.0
  0
LINE
  5
2BF4
330
18
100
AcDbEntity
  8
0
100
AcDbLine
 10
393.1123875615817
 20
232.8992794452797
 30
0.0
 11
393.1123875615817
 21
257.8809461119462
 31
0.0
  0
LINE
  5
2BF5
330
18
100
AcDbEntity
  8
0
100
AcDbLine
 10
458.1123875615817
 20
232.8992794452797
 30
0.0
 11
458.1123875615817
 21
257.8809461119462
 31
0.0
  0
LINE
  5
2BF6
330
18
100
AcDbEntity
  8
0
100
AcDbLine
 10
368.764183958005
 20
184.8992794452797
 30
0.0
 11
368.764183958005
 21
155.8992794452797
 31
0.0
  0
ARC
  5
2BF7
330
18
100
AcDbEntity
  8
0
100
AcDbCircle
 10
396.6123875615835
 20
168.8992794452797
 30
0.0
 40
1.0
100
AcDbArc
 50
179.9999999999943
 51
270.0
  0
CIRCLE
  5
2BF8
330
18
100
AcDbEntity
  8
0
100
AcDbCircle
 10
425.6123875615817
 20
184.8992794452797
 30
0.0
 40
31.0
  0
CIRCLE
  5
2BF9
330
18
100
AcDbEntity
  8
0
100
AcDbCircle
 10
425.6123875615817
 20
184.8992794452797
 30
0.0
 40
29.0
  0
LINE
  5
2BFA
330
18
100
AcDbEntity
  8
0
100
AcDbLine
 10
345.7641839580051
 20
153.8992794452797
 30
0.0
 11
366.764183958005
 21
153.8992794452797
 31
0.0
  0
LINE
  5
2BFB
330
18
100
AcDbEntity
  8
0
100
AcDbLine
 10
368.764183958005
 20
155.8992794452797
 30
0.0
 11
366.764183958005
 21
153.8992794452797
 31
0.0
  0
LINE
  5
2BFC
330
18
100
AcDbEntity
  8
0
100
AcDbLine
 10
396.6123875615835
 20
167.8992794452797
 30
0.0
 11
399.6894247679506
 21
167.8992794452797
 31
0.0
  0
LINE
  5
2BFD
330
18
100
AcDbEntity
  8
0
100
AcDbLine
 10
393.1123875615817
 20
248.8992794452797
 30
0.0
 11
458.1123875615817
 21
248.8992794452797
 31
0.0
  0
ARC
  5
2BFE
330
18
100
AcDbEntity
  8
0
100
AcDbCircle
 10
408.1123875615826
 20
214.8992794452797
 30
0.0
 40
6.0
100
AcDbArc
 50
180.0
 51
222.3756401638986
  0
LINE
  5
2BFF
330
18
100
AcDbEntity
  8
0
100
AcDbLine
 10
394.1123875615817
 20
231.8992794452797
 30
0.0
 11
457.1123875615817
 21
231.8992794452797
 31
0.0
  0
LINE
  5
2C00
330
18
100
AcDbEntity
  8
0
100
AcDbLine
 10
368.764183958005
 20
213.8992794452797
 30
0.0
 11
368.764183958005
 21
184.8992794452797
 31
0.0
  0
LINE
  5
2C01
330
18
100
AcDbEntity
  8
0
100
AcDbLine
 10
350.7641839580051
 20
186.8992794452797
 30
0.0
 11
361.7641839580051
 21
186.8992794452797
 31
0.0
  0
LINE
  5
2C02
330
18
100
AcDbEntity
  8
0
100
AcDbLine
 10
350.7641839580051
 20
182.8992794452797
 30
0.0
 11
361.7641839580051
 21
182.8992794452797
 31
0.0
  0
ARC
  5
2C03
330
18
100
AcDbEntity
  8
0
100
AcDbCircle
 10
350.7641839580051
 20
184.8992794452797
 30
0.0
 40
2.0
100
AcDbArc
 50
90.0
 51
270.0
  0
ARC
  5
2C04
330
18
100
AcDbEntity
  8
0
100
AcDbCircle
 10
361.7641839580051
 20
184.8992794452797
 30
0.0
 40
2.0
100
AcDbArc
 50
270.0
 51
90.0
  0
ARC
  5
2C05
330
18
100
AcDbEntity
  8
0
100
AcDbCircle
 10
394.6123875615817
 20
184.8992794452797
 30
0.0
 40
2.0
100
AcDbArc
 50
88.15142835477306
 51
271.8485716452269
  0
LINE
  5
2C06
330
18
100
AcDbEntity
  8
0
100
AcDbLine
 10
395.6123875615835
 20
177.0890297693672
 30
0.0
 11
395.6123875615835
 21
168.8992794452797
 31
0.0
  0
ARC
  5
2C07
330
18
100
AcDbEntity
  8
0
100
AcDbCircle
 10
396.6123875615826
 20
200.8992794452796
 30
0.0
 40
1.0
100
AcDbArc
 50
90.0
 51
180.0000000000056
  0
LINE
  5
2C08
330
18
100
AcDbEntity
  8
0
100
AcDbLine
 10
396.6123875615826
 20
201.8992794452797
 30
0.0
 11
399.6894247679506
 21
201.8992794452797
 31
0.0
  0
LINE
  5
2C09
330
18
100
AcDbEntity
  8
0
100
AcDbLine
 10
395.6123875615826
 20
200.8992794452796
 30
0.0
 11
395.6123875615826
 21
192.7095291211903
 31
0.0
  0
LINE
  5
2C0A
330
18
100
AcDbEntity
  8
0
100
AcDbLine
 10
345.7641839580051
 20
215.8992794452797
 30
0.0
 11
366.764183958005
 21
215.8992794452797
 31
0.0
  0
LINE
  5
2C0B
330
18
100
AcDbEntity
  8
0
100
AcDbLine
 10
366.764183958005
 20
215.8992794452797
 30
0.0
 11
368.764183958005
 21
213.8992794452797
 31
0.0
  0
ARC
  5
2C0C
330
18
100
AcDbEntity
  8
0
100
AcDbCircle
 10
399.1123875615808
 20
228.8992794452797
 30
0.0
 40
3.0
100
AcDbArc
 50
0.0
 51
90.0
  0
LINE
  5
2C0D
330
18
100
AcDbEntity
  8
0
100
AcDbLine
 10
402.1123875615826
 20
228.8992794452797
 30
0.0
 11
402.1123875615826
 21
214.8992794452797
 31
0.0
  0
LINE
  5
2C0E
330
18
100
AcDbEntity
  8
0
100
AcDbLine
 10
394.1123875615817
 20
231.8992794452797
 30
0.0
 11
393.1123875615817
 21
232.8992794452797
 31
0.0
  0
ARC
  5
2C0F
330
18
100
AcDbEntity
  8
0
100
AcDbCircle
 10
449.7610652001153
 20
208.8333841561352
 30
0.0
 40
3.0
100
AcDbArc
 50
137.6243598361007
 51
224.7443150969439
  0
ARC
  5
2C10
330
18
100
AcDbEntity
  8
0
100
AcDbCircle
 10
401.463709923049
 20
208.8333841561357
 30
0.0
 40
3.0
100
AcDbArc
 50
315.2556849030499
 51
42.37564016389284
  0
ARC
  5
2C11
330
18
100
AcDbEntity
  8
0
100
AcDbCircle
 10
456.6123875615817
 20
184.8992794452797
 30
0.0
 40
2.0
100
AcDbArc
 50
268.1514283547731
 51
91.84857164522693
  0
ARC
  5
2C12
330
18
100
AcDbEntity
  8
0
100
AcDbCircle
 10
452.1123875615808
 20
228.8992794452797
 30
0.0
 40
3.0
100
AcDbArc
 50
90.0
 51
180.0
  0
LINE
  5
2C13
330
18
100
AcDbEntity
  8
0
100
AcDbLine
 10
449.1123875615817
 20
228.8992794452797
 30
0.0
 11
449.1123875615817
 21
214.8992794452797
 31
0.0
  0
ARC
  5
2C14
330
18
100
AcDbEntity
  8
0
100
AcDbCircle
 10
443.1123875615817
 20
214.8992794452797
 30
0.0
 40
6.0
100
AcDbArc
 50
317.6243598361013
 51
0.0
  0
LINE
  5
2C15
330
18
100
AcDbEntity
  8
0
100
AcDbLine
 10
457.1123875615817
 20
231.8992794452797
 30
0.0
 11
458.1123875615817
 21
232.8992794452797
 31
0.0
  0
LINE
  5
2C16
330
18
100
AcDbEntity
  8
0
100
AcDbLine
 10
684.2140490579112
 20
217.8992794452797
 30
0.0
 11
686.2140490579113
 21
219.8992794452797
 31
0.0
  0
LINE
  5
2C17
330
18
100
AcDbEntity
  8
0
100
AcDbLine
 10
684.2140490579112
 20
151.8992794452797
 30
0.0
 11
686.2140490579113
 21
149.8992794452797
 31
0.0
  0
LINE
  5
2C18
330
18
100
AcDbEntity
  8
0
100
AcDbLine
 10
684.2140490579112
 20
184.8992794452797
 30
0.0
 11
684.2140490579112
 21
151.8992794452797
 31
0.0
  0
ARC
  5
2C19
330
18
100
AcDbEntity
  8
0
100
AcDbCircle
 10
607.6088334447385
 20
168.8992794452797
 30
0.0
 40
1.0
100
AcDbArc
 50
270.0
 51
0.000000000000007
  0
CIRCLE
  5
2C1A
330
18
100
AcDbEntity
  8
0
100
AcDbCircle
 10
575.6088334447386
 20
184.8992794452797
 30
0.0
 40
35.0
  0
CIRCLE
  5
2C1B
330
18
100
AcDbEntity
  8
0
100
AcDbCircle
 10
575.6088334447386
 20
184.8992794452797
 30
0.0
 40
33.0
  0
LINE
  5
2C1C
330
18
100
AcDbEntity
  8
0
100
AcDbLine
 10
607.6088334447385
 20
167.8992794452797
 30
0.0
 11
606.2029505262954
 21
167.8992794452797
 31
0.0
  0
LINE
  5
2C1D
330
18
100
AcDbEntity
  8
0
100
AcDbLine
 10
607.1088334447385
 20
234.8992794452797
 30
0.0
 11
544.1088334447385
 21
234.8992794452797
 31
0.0
  0
ARC
  5
2C1E
330
18
100
AcDbEntity
  8
0
100
AcDbCircle
 10
540.6088334447385
 20
184.8992794452797
 30
0.0
 40
2.0
100
AcDbArc
 50
88.36275492221993
 51
271.63724507778
  0
LINE
  5
2C1F
330
18
100
AcDbEntity
  8
0
100
AcDbLine
 10
544.1088334447385
 20
234.8992794452797
 30
0.0
 11
543.1088334447386
 21
235.8992794452797
 31
0.0
  0
LINE
  5
2C20
330
18
100
AcDbEntity
  8
0
100
AcDbLine
 10
552.1088334447377
 20
231.8992794452797
 30
0.0
 11
552.1088334447386
 21
217.8992794452797
 31
0.0
  0
ARC
  5
2C21
330
18
100
AcDbEntity
  8
0
100
AcDbCircle
 10
558.1088334447385
 20
217.8992794452797
 30
0.0
 40
6.0
100
AcDbArc
 50
180.0
 51
235.3330595164579
  0
ARC
  5
2C22
330
18
100
AcDbEntity
  8
0
100
AcDbCircle
 10
549.1088334447376
 20
231.8992794452797
 30
0.0
 40
3.0
100
AcDbArc
 50
0.000000000000007
 51
90.0
  0
LINE
  5
2C23
330
18
100
AcDbEntity
  8
0
100
AcDbLine
 10
684.2140490579112
 20
217.8992794452797
 30
0.0
 11
684.2140490579112
 21
184.8992794452797
 31
0.0
  0
ARC
  5
2C24
330
18
100
AcDbEntity
  8
0
100
AcDbCircle
 10
610.6088334447385
 20
184.8992794452797
 30
0.0
 40
2.0
100
AcDbArc
 50
268.3627549222199
 51
91.63724507778008
  0
LINE
  5
2C25
330
18
100
AcDbEntity
  8
0
100
AcDbLine
 10
608.6088334447386
 20
173.2373756555898
 30
0.0
 11
608.6088334447386
 21
168.8992794452797
 31
0.0
  0
LINE
  5
2C26
330
18
100
AcDbEntity
  8
0
100
AcDbLine
 10
607.6088334447385
 20
201.8992794452797
 30
0.0
 11
606.2029505262954
 21
201.8992794452797
 31
0.0
  0
ARC
  5
2C27
330
18
100
AcDbEntity
  8
0
100
AcDbCircle
 10
607.6088334447385
 20
200.8992794452796
 30
0.0
 40
1.0
100
AcDbArc
 50
359.9999999999902
 51
90.0
  0
LINE
  5
2C28
330
18
100
AcDbEntity
  8
0
100
AcDbLine
 10
608.6088334447386
 20
200.8992794452796
 30
0.0
 11
608.6088334447367
 21
196.5611832349741
 31
0.0
  0
LINE
  5
2C29
330
18
100
AcDbEntity
  8
0
100
AcDbLine
 10
599.1088334447385
 20
231.8992794452797
 30
0.0
 11
599.1088334447385
 21
217.8992794452801
 31
0.0
  0
ARC
  5
2C2A
330
18
100
AcDbEntity
  8
0
100
AcDbCircle
 10
593.1088334447386
 20
217.8992794452801
 30
0.0
 40
6.0
100
AcDbArc
 50
304.6669404835324
 51
0.000000000000007
  0
ARC
  5
2C2B
330
18
100
AcDbEntity
  8
0
100
AcDbCircle
 10
602.1088334447377
 20
231.8992794452797
 30
0.0
 40
3.0
100
AcDbArc
 50
90.0
 51
180.0
  0
LINE
  5
2C2C
330
18
100
AcDbEntity
  8
0
100
AcDbLine
 10
607.1088334447385
 20
234.8992794452797
 30
0.0
 11
608.1088334447386
 21
235.8992794452797
 31
0.0
  0
ARC
  5
2C2D
330
18
100
AcDbEntity
  8
0
100
AcDbCircle
 10
768.2140490579113
 20
169.8992794452797
 30
0.0
 40
2.0
100
AcDbArc
 50
270.0
 51
0.0000000000001018
  0
LINE
  5
2C2E
330
18
100
AcDbEntity
  8
0
100
AcDbLine
 10
779.2140490579113
 20
217.8992794452797
 30
0.0
 11
779.2140490579113
 21
151.8992794452797
 31
0.0
  0
ARC
  5
2C2F
330
18
100
AcDbEntity
  8
0
100
AcDbCircle
 10
720.2140490579113
 20
169.8992794452797
 30
0.0
 40
2.0
100
AcDbArc
 50
179.9999999999998
 51
270.0
  0
LINE
  5
2C30
330
18
100
AcDbEntity
  8
0
100
AcDbLine
 10
709.2140490579112
 20
217.8992794452797
 30
0.0
 11
709.2140490579112
 21
151.8992794452797
 31
0.0
  0
LINE
  5
2C31
330
18
100
AcDbEntity
  8
0
100
AcDbLine
 10
686.2140490579113
 20
219.8992794452797
 30
0.0
 11
686.2140490579113
 21
149.8992794452797
 31
0.0
  0
LINE
  5
2C32
330
18
100
AcDbEntity
  8
0
100
AcDbLine
 10
711.0870324041261
 20
152.8992794452797
 30
0.0
 11
777.3410657117001
 21
152.8992794452797
 31
0.0
  0
LINE
  5
2C33
330
18
100
AcDbEntity
  8
0
100
AcDbLine
 10
720.2140490579113
 20
167.8992794452797
 30
0.0
 11
768.2140490579113
 21
167.8992794452797
 31
0.0
  0
TEXT
  5
2C34
330
18
100
AcDbEntity
  8
0
100
AcDbText
 10
733.3050474059746
 20
115.3229150789752
 30
0.0
 40
15.0
  1
40A
 41
0.8
 11
733.3050474059746
 21
115.3229150789752
 31
0.0
100
AcDbText
 73
     1
  0
LINE
  5
2C35
330
18
100
AcDbEntity
  8
0
100
AcDbLine
 10
686.2140490579113
 20
149.8992794452797
 30
0.0
 11
707.2140490579113
 21
149.8992794452797
 31
0.0
  0
ARC
  5
2C36
330
18
100
AcDbEntity
  8
0
100
AcDbCircle
 10
707.2140490579113
 20
151.8992794452797
 30
0.0
 40
2.0
100
AcDbArc
 50
270.0
 51
345.5224878140969
  0
ARC
  5
2C37
330
18
100
AcDbEntity
  8
0
100
AcDbCircle
 10
711.0870324041261
 20
150.8992794452797
 30
0.0
 40
2.0
100
AcDbArc
 50
90.0
 51
165.5224878140995
  0
ARC
  5
2C38
330
18
100
AcDbEntity
  8
0
100
AcDbCircle
 10
781.2140490579113
 20
151.8992794452797
 30
0.0
 40
2.0
100
AcDbArc
 50
194.4775121859164
 51
270.0
  0
ARC
  5
2C39
330
18
100
AcDbEntity
  8
0
100
AcDbCircle
 10
777.3410657117001
 20
150.8992794452797
 30
0.0
 40
2.0
100
AcDbArc
 50
14.47751218591886
 51
90.0
  0
LINE
  5
2C3A
330
18
100
AcDbEntity
  8
0
100
AcDbLine
 10
712.7140490579113
 20
234.8992794452797
 30
0.0
 11
775.7140490579113
 21
234.8992794452797
 31
0.0
  0
ARC
  5
2C3B
330
18
100
AcDbEntity
  8
0
100
AcDbCircle
 10
744.2140490579113
 20
284.6242794452791
 30
0.0
 40
72.72499999999934
100
AcDbArc
 50
252.1257542707156
 51
287.8742457292844
  0
LINE
  5
2C3C
330
18
100
AcDbEntity
  8
0
100
AcDbLine
 10
720.2140490579113
 20
201.8992794452797
 30
0.0
 11
768.2140490579113
 21
201.8992794452797
 31
0.0
  0
LINE
  5
2C3D
330
18
100
AcDbEntity
  8
0
100
AcDbLine
 10
691.2140490579113
 20
186.8992794452797
 30
0.0
 11
702.2140490579113
 21
186.8992794452797
 31
0.0
  0
LINE
  5
2C3E
330
18
100
AcDbEntity
  8
0
100
AcDbLine
 10
691.2140490579113
 20
182.8992794452797
 30
0.0
 11
702.2140490579113
 21
182.8992794452797
 31
0.0
  0
ARC
  5
2C3F
330
18
100
AcDbEntity
  8
0
100
AcDbCircle
 10
691.2140490579113
 20
184.8992794452797
 30
0.0
 40
2.0
100
AcDbArc
 50
90.0
 51
270.0
  0
ARC
  5
2C40
330
18
100
AcDbEntity
  8
0
100
AcDbCircle
 10
702.2140490579113
 20
184.8992794452797
 30
0.0
 40
2.0
100
AcDbArc
 50
270.0
 51
90.0
  0
LINE
  5
2C41
330
18
100
AcDbEntity
  8
0
100
AcDbLine
 10
718.2140490579113
 20
199.8992794452797
 30
0.0
 11
718.2140490579113
 21
169.8992794452797
 31
0.0
  0
ARC
  5
2C42
330
18
100
AcDbEntity
  8
0
100
AcDbCircle
 10
720.2140490579113
 20
199.8992794452797
 30
0.0
 40
2.0
100
AcDbArc
 50
90.0
 51
179.9999999999999
  0
LINE
  5
2C43
330
18
100
AcDbEntity
  8
0
100
AcDbLine
 10
711.0870324041161
 20
216.8992794452797
 30
0.0
 11
717.7140490579112
 21
216.8992794452797
 31
0.0
  0
LINE
  5
2C44
330
18
100
AcDbEntity
  8
0
100
AcDbLine
 10
686.2140490579113
 20
219.8992794452797
 30
0.0
 11
707.2140490579113
 21
219.8992794452797
 31
0.0
  0
ARC
  5
2C45
330
18
100
AcDbEntity
  8
0
100
AcDbCircle
 10
707.2140490579113
 20
217.8992794452797
 30
0.0
 40
2.0
100
AcDbArc
 50
14.47751218593993
 51
90.0
  0
ARC
  5
2C46
330
18
100
AcDbEntity
  8
0
100
AcDbCircle
 10
711.0870324041161
 20
218.8992794452797
 30
0.0
 40
2.0
100
AcDbArc
 50
194.4775121859393
 51
270.0
  0
LINE
  5
2C47
330
18
100
AcDbEntity
  8
0
100
AcDbLine
 10
712.7140490579113
 20
234.8992794452797
 30
0.0
 11
711.7140490579113
 21
235.8992794452797
 31
0.0
  0
LINE
  5
2C48
330
18
100
AcDbEntity
  8
0
100
AcDbLine
 10
720.7140490579113
 20
234.8992794452797
 30
0.0
 11
720.7140490579113
 21
219.8992794452797
 31
0.0
  0
ARC
  5
2C49
330
18
100
AcDbEntity
  8
0
100
AcDbCircle
 10
717.7140490579112
 20
219.8992794452797
 30
0.0
 40
3.0
100
AcDbArc
 50
270.0
 51
0.0
  0
LINE
  5
2C4A
330
18
100
AcDbEntity
  8
0
100
AcDbLine
 10
770.2140490579113
 20
199.8992794452797
 30
0.0
 11
770.2140490579113
 21
169.8992794452797
 31
0.0
  0
ARC
  5
2C4B
330
18
100
AcDbEntity
  8
0
100
AcDbCircle
 10
768.2140490579113
 20
199.8992794452797
 30
0.0
 40
2.0
100
AcDbArc
 50
0.0000000000002036
 51
90.0000000000001
  0
ARC
  5
2C4C
330
18
100
AcDbEntity
  8
0
100
AcDbCircle
 10
786.2140490579149
 20
184.8992794452797
 30
0.0
 40
2.0
100
AcDbArc
 50
90.0
 51
270.0
  0
LINE
  5
2C4D
330
18
100
AcDbEntity
  8
0
100
AcDbLine
 10
797.214049057915
 20
182.8992794452797
 30
0.0
 11
786.2140490579149
 21
182.8992794452797
 31
0.0
  0
LINE
  5
2C4E
330
18
100
AcDbEntity
  8
0
100
AcDbLine
 10
797.214049057915
 20
186.8992794452797
 30
0.0
 11
786.2140490579149
 21
186.8992794452797
 31
0.0
  0
ARC
  5
2C4F
330
18
100
AcDbEntity
  8
0
100
AcDbCircle
 10
797.214049057915
 20
184.8992794452797
 30
0.0
 40
2.0
100
AcDbArc
 50
270.0
 51
90.0
  0
LINE
  5
2C50
330
18
100
AcDbEntity
  8
0
100
AcDbLine
 10
770.7140490579113
 20
216.8992794452797
 30
0.0
 11
777.3410657117111
 21
216.8992794452797
 31
0.0
  0
LINE
  5
2C51
330
18
100
AcDbEntity
  8
0
100
AcDbLine
 10
767.7140490579112
 20
234.8992794452797
 30
0.0
 11
767.7140490579112
 21
219.8992794452797
 31
0.0
  0
ARC
  5
2C52
330
18
100
AcDbEntity
  8
0
100
AcDbCircle
 10
770.7140490579113
 20
219.8992794452797
 30
0.0
 40
3.0
100
AcDbArc
 50
180.0
 51
270.0
  0
ARC
  5
2C53
330
18
100
AcDbEntity
  8
0
100
AcDbCircle
 10
781.2140490579113
 20
217.8992794452797
 30
0.0
 40
2.0
100
AcDbArc
 50
90.0
 51
165.5224878140464
  0
ARC
  5
2C54
330
18
100
AcDbEntity
  8
0
100
AcDbCircle
 10
777.3410657117111
 20
218.8992794452797
 30
0.0
 40
2.0
100
AcDbArc
 50
270.0
 51
345.5224878140477
  0
LINE
  5
2C55
330
18
100
AcDbEntity
  8
0
100
AcDbLine
 10
775.7140490579113
 20
234.8992794452797
 30
0.0
 11
776.7140490579113
 21
235.8992794452797
 31
0.0
  0
LINE
  5
2C56
330
18
100
AcDbEntity
  8
0
100
AcDbLine
 10
368.7641839580042
 20
351.4682772650858
 30
0.0
 11
368.7641839580042
 21
322.4682772650858
 31
0.0
  0
ARC
  5
2C57
330
18
100
AcDbEntity
  8
0
100
AcDbCircle
 10
414.1318845906294
 20
226.2389281875184
 30
0.0
 40
33.66035125776125
100
AcDbArc
 50
70.05798215649914
 51
109.9420178435008
  0
LINE
  5
2C58
330
18
100
AcDbEntity
  8
0
100
AcDbLine
 10
454.6123875615817
 20
259.8992794452797
 30
0.0
 11
396.6123875615817
 21
259.8992794452797
 31
0.0
  0
ARC
  5
2C59
330
18
100
AcDbEntity
  8
0
100
AcDbCircle
 10
397.8818845906293
 20
253.2547942103574
 30
0.0
 40
6.644500231519874
100
AcDbArc
 50
44.12593225479906
 51
104.0671635547661
  0
LINE
  5
2C5A
330
18
100
AcDbEntity
  8
0
100
AcDbLine
 10
393.1123875615817
 20
257.8809461119462
 30
0.0
 11
396.6123875615817
 21
259.8992794452797
 31
0.0
  0
LINE
  5
2C5B
330
18
100
AcDbEntity
  8
0
100
AcDbLine
 10
350.7641839580041
 20
318.4682772650858
 30
0.0
 11
361.7641839580041
 21
318.4682772650858
 31
0.0
  0
LINE
  5
2C5C
330
18
100
AcDbEntity
  8
0
100
AcDbLine
 10
345.7641839580042
 20
320.4682772650858
 30
0.0
 11
366.7641839580042
 21
320.4682772650858
 31
0.0
  0
ARC
  5
2C5D
330
18
100
AcDbEntity
  8
0
100
AcDbCircle
 10
350.7641839580041
 20
320.4682772650858
 30
0.0
 40
2.0
100
AcDbArc
 50
180.0
 51
270.0
  0
ARC
  5
2C5E
330
18
100
AcDbEntity
  8
0
100
AcDbCircle
 10
361.7641839580041
 20
320.4682772650858
 30
0.0
 40
2.0
100
AcDbArc
 50
270.0000000000001
 51
0.0
  0
LINE
  5
2C5F
330
18
100
AcDbEntity
  8
0
100
AcDbLine
 10
368.7641839580042
 20
322.4682772650858
 30
0.0
 11
366.7641839580042
 21
320.4682772650858
 31
0.0
  0
ARC
  5
2C60
330
18
100
AcDbEntity
  8
0
100
AcDbCircle
 10
437.0928905325341
 20
226.2389281875184
 30
0.0
 40
33.66035125776125
100
AcDbArc
 50
70.05798215649917
 51
109.9420178435008
  0
ARC
  5
2C61
330
18
100
AcDbEntity
  8
0
100
AcDbCircle
 10
453.342890532534
 20
253.2547942103574
 30
0.0
 40
6.644500231519874
100
AcDbArc
 50
75.93283644523404
 51
135.8740677452009
  0
LINE
  5
2C62
330
18
100
AcDbEntity
  8
0
100
AcDbLine
 10
454.6123875615817
 20
259.8992794452797
 30
0.0
 11
458.1123875615817
 21
257.8809461119462
 31
0.0
  0
LINE
  5
2C63
330
18
100
AcDbEntity
  8
0
100
AcDbLine
 10
368.7641839580042
 20
380.4682772650858
 30
0.0
 11
368.7641839580042
 21
351.4682772650858
 31
0.0
  0
LINE
  5
2C64
330
18
100
AcDbEntity
  8
0
100
AcDbLine
 10
350.7641839580041
 20
384.4682772650858
 30
0.0
 11
361.7641839580041
 21
384.4682772650858
 31
0.0
  0
LINE
  5
2C65
330
18
100
AcDbEntity
  8
0
100
AcDbLine
 10
345.7641839580042
 20
382.4682772650858
 30
0.0
 11
366.7641839580042
 21
382.4682772650858
 31
0.0
  0
ARC
  5
2C66
330
18
100
AcDbEntity
  8
0
100
AcDbCircle
 10
350.7641839580041
 20
382.4682772650858
 30
0.0
 40
2.0
100
AcDbArc
 50
90.0
 51
180.0
  0
ARC
  5
2C67
330
18
100
AcDbEntity
  8
0
100
AcDbCircle
 10
361.7641839580041
 20
382.4682772650858
 30
0.0
 40
2.0
100
AcDbArc
 50
0.0
 51
89.99999999999987
  0
LINE
  5
2C68
330
18
100
AcDbEntity
  8
0
100
AcDbLine
 10
368.7641839580042
 20
380.4682772650858
 30
0.0
 11
366.7641839580042
 21
382.4682772650858
 31
0.0
  0
LINE
  5
2C69
330
18
100
AcDbEntity
  8
0
100
AcDbLine
 10
368.764183958005
 20
500.7275059267094
 30
0.0
 11
368.764183958005
 21
471.7275059267094
 31
0.0
  0
LINE
  5
2C6A
330
18
100
AcDbEntity
  8
0
100
AcDbLine
 10
368.764183958005
 20
471.7275059267094
 30
0.0
 11
368.764183958005
 21
442.7275059267095
 31
0.0
  0
LINE
  5
2C6B
330
18
100
AcDbEntity
  8
0
100
AcDbLine
 10
345.7641839580051
 20
440.7275059267094
 30
0.0
 11
366.764183958005
 21
440.7275059267094
 31
0.0
  0
LINE
  5
2C6C
330
18
100
AcDbEntity
  8
0
100
AcDbLine
 10
366.764183958005
 20
440.7275059267094
 30
0.0
 11
368.764183958005
 21
442.7275059267095
 31
0.0
  0
LINE
  5
2C6D
330
18
100
AcDbEntity
  8
0
100
AcDbLine
 10
350.7641839580051
 20
473.7275059267094
 30
0.0
 11
361.7641839580051
 21
473.7275059267094
 31
0.0
  0
LINE
  5
2C6E
330
18
100
AcDbEntity
  8
0
100
AcDbLine
 10
350.7641839580051
 20
469.7275059267094
 30
0.0
 11
361.7641839580051
 21
469.7275059267094
 31
0.0
  0
ARC
  5
2C6F
330
18
100
AcDbEntity
  8
0
100
AcDbCircle
 10
350.7641839580051
 20
471.7275059267094
 30
0.0
 40
2.0
100
AcDbArc
 50
90.0
 51
270.0
  0
ARC
  5
2C70
330
18
100
AcDbEntity
  8
0
100
AcDbCircle
 10
361.7641839580051
 20
471.7275059267094
 30
0.0
 40
2.0
100
AcDbArc
 50
270.0
 51
90.0
  0
LINE
  5
2C71
330
18
100
AcDbEntity
  8
0
100
AcDbLine
 10
345.7641839580051
 20
502.7275059267094
 30
0.0
 11
366.764183958005
 21
502.7275059267094
 31
0.0
  0
LINE
  5
2C72
330
18
100
AcDbEntity
  8
0
100
AcDbLine
 10
368.764183958005
 20
500.7275059267094
 30
0.0
 11
366.764183958005
 21
502.7275059267094
 31
0.0
  0
LINE
  5
2C73
330
18
100
AcDbEntity
  8
0
100
AcDbLine
 10
684.2140490579112
 20
384.4682772650858
 30
0.0
 11
686.2140490579113
 21
386.4682772650858
 31
0.0
  0
LINE
  5
2C74
330
18
100
AcDbEntity
  8
0
100
AcDbLine
 10
684.2140490579112
 20
318.4682772650858
 30
0.0
 11
686.2140490579113
 21
316.4682772650858
 31
0.0
  0
LINE
  5
2C75
330
18
100
AcDbEntity
  8
0
100
AcDbLine
 10
684.2140490579112
 20
351.4682772650858
 30
0.0
 11
684.2140490579112
 21
318.4682772650858
 31
0.0
  0
LINE
  5
2C76
330
18
100
AcDbEntity
  8
0
100
AcDbLine
 10
546.6088334447386
 20
262.8992794452797
 30
0.0
 11
604.6088334447386
 21
262.8992794452797
 31
0.0
  0
LINE
  5
2C77
330
18
100
AcDbEntity
  8
0
100
AcDbLine
 10
608.1088334447386
 20
251.8992794452797
 30
0.0
 11
543.1088334447386
 21
251.8992794452797
 31
0.0
  0
ARC
  5
2C78
330
18
100
AcDbEntity
  8
0
100
AcDbCircle
 10
564.1283304737862
 20
229.2389281875184
 30
0.0
 40
33.66035125776125
100
AcDbArc
 50
70.05798215649917
 51
109.9420178435008
  0
LINE
  5
2C79
330
18
100
AcDbEntity
  8
0
100
AcDbLine
 10
546.6088334447386
 20
262.8992794452797
 30
0.0
 11
543.1088334447386
 21
260.8809461119462
 31
0.0
  0
LINE
  5
2C7A
330
18
100
AcDbEntity
  8
0
100
AcDbLine
 10
552.647827502833
 20
260.8809461119462
 30
0.0
 11
552.647827502833
 21
251.8992794452797
 31
0.0
  0
ARC
  5
2C7B
330
18
100
AcDbEntity
  8
0
100
AcDbCircle
 10
547.8783304737862
 20
256.2547942103574
 30
0.0
 40
6.644500231519874
100
AcDbArc
 50
44.12593225479907
 51
104.0671635547659
  0
ARC
  5
2C7C
330
18
100
AcDbEntity
  8
0
100
AcDbCircle
 10
603.3393364156909
 20
256.2547942103574
 30
0.0
 40
6.644500231519874
100
AcDbArc
 50
75.93283644523387
 51
135.8740677452009
  0
ARC
  5
2C7D
330
18
100
AcDbEntity
  8
0
100
AcDbCircle
 10
587.0893364156909
 20
229.2389281875184
 30
0.0
 40
33.66035125776125
100
AcDbArc
 50
70.05798215649914
 51
109.9420178435008
  0
LINE
  5
2C7E
330
18
100
AcDbEntity
  8
0
100
AcDbLine
 10
575.6088334447386
 20
251.8992794452797
 30
0.0
 11
575.6088334447386
 21
260.8809461119462
 31
0.0
  0
LINE
  5
2C7F
330
18
100
AcDbEntity
  8
0
100
AcDbLine
 10
598.5698393866441
 20
260.8809461119462
 30
0.0
 11
598.5698393866441
 21
251.8992794452797
 31
0.0
  0
LINE
  5
2C80
330
18
100
AcDbEntity
  8
0
100
AcDbLine
 10
608.1088334447386
 20
260.8809461119462
 30
0.0
 11
604.6088334447386
 21
262.8992794452797
 31
0.0
  0
LINE
  5
2C81
330
18
100
AcDbEntity
  8
0
100
AcDbLine
 10
684.2140490579112
 20
384.4682772650858
 30
0.0
 11
684.2140490579112
 21
351.4682772650858
 31
0.0
  0
CIRCLE
  5
2C82
330
18
100
AcDbEntity
  8
0
100
AcDbCircle
 10
744.2140490579113
 20
351.4682772650858
 30
0.0
 40
21.0
  0
CIRCLE
  5
2C83
330
18
100
AcDbEntity
  8
0
100
AcDbCircle
 10
744.2140490579113
 20
351.4682772650858
 30
0.0
 40
29.0
  0
POLYLINE
  5
2C84
330
18
100
AcDbEntity
  8
0
100
AcDb2dPolyline
 66
     1
 10
0.0
 20
0.0
 30
0.0
 70
     1
  0
VERTEX
  5
31E6
330
2C84
100
AcDbEntity
  8
0
100
AcDbVertex
100
AcDb2dVertex
 10
721.2530431160057
 20
374.4292832069911
 30
0.0
  0
VERTEX
  5
31E7
330
2C84
100
AcDbEntity
  8
0
100
AcDbVertex
100
AcDb2dVertex
 10
711.7422830491396
 20
351.4682772650858
 30
0.0
  0
VERTEX
  5
31E8
330
2C84
100
AcDbEntity
  8
0
100
AcDbVertex
100
AcDb2dVertex
 10
721.2530431160057
 20
328.5072713231802
 30
0.0
  0
VERTEX
  5
31E9
330
2C84
100
AcDbEntity
  8
0
100
AcDbVertex
100
AcDb2dVertex
 10
744.2140490579113
 20
318.996511256314
 30
0.0
  0
VERTEX
  5
31EA
330
2C84
100
AcDbEntity
  8
0
100
AcDbVertex
100
AcDb2dVertex
 10
767.1750549998169
 20
328.5072713231802
 30
0.0
  0
VERTEX
  5
31EB
330
2C84
100
AcDbEntity
  8
0
100
AcDbVertex
100
AcDb2dVertex
 10
776.6858150666831
 20
351.4682772650858
 30
0.0
  0
VERTEX
  5
31EC
330
2C84
100
AcDbEntity
  8
0
100
AcDbVertex
100
AcDb2dVertex
 10
767.1750549998169
 20
374.4292832069911
 30
0.0
  0
VERTEX
  5
31ED
330
2C84
100
AcDbEntity
  8
0
100
AcDbVertex
100
AcDb2dVertex
 10
744.2140490579113
 20
383.9400432738575
 30
0.0
  0
SEQEND
  5
31EE
330
2C84
100
AcDbEntity
  8
0
  0
CIRCLE
  5
2C85
330
18
100
AcDbEntity
  8
0
100
AcDbCircle
 10
744.2140490579113
 20
351.4682772650858
 30
0.0
 40
32.5
  0
LINE
  5
2C86
330
18
100
AcDbEntity
  8
0
100
AcDbLine
 10
709.2140490579112
 20
384.4682772650858
 30
0.0
 11
709.2140490579112
 21
318.4682772650858
 31
0.0
  0
LINE
  5
2C87
330
18
100
AcDbEntity
  8
0
100
AcDbLine
 10
686.2140490579113
 20
386.4682772650858
 30
0.0
 11
686.2140490579113
 21
316.4682772650858
 31
0.0
  0
LINE
  5
2C88
330
18
100
AcDbEntity
  8
0
100
AcDbLine
 10
779.2140490579113
 20
384.4682772650858
 30
0.0
 11
779.2140490579113
 21
318.4682772650858
 31
0.0
  0
ARC
  5
2C89
330
18
100
AcDbEntity
  8
0
100
AcDbCircle
 10
732.733546086959
 20
229.2389281875184
 30
0.0
 40
33.66035125776125
100
AcDbArc
 50
70.05798215649914
 51
109.9420178435008
  0
LINE
  5
2C8A
330
18
100
AcDbEntity
  8
0
100
AcDbLine
 10
711.7140490579113
 20
251.8992794452797
 30
0.0
 11
776.7140490579113
 21
251.8992794452797
 31
0.0
  0
LINE
  5
2C8B
330
18
100
AcDbEntity
  8
0
100
AcDbLine
 10
773.2140490579113
 20
262.8992794452797
 30
0.0
 11
715.2140490579113
 21
262.8992794452797
 31
0.0
  0
LINE
  5
2C8C
330
18
100
AcDbEntity
  8
0
100
AcDbLine
 10
711.7140490579113
 20
260.8809461119462
 30
0.0
 11
715.2140490579113
 21
262.8992794452797
 31
0.0
  0
ARC
  5
2C8D
330
18
100
AcDbEntity
  8
0
100
AcDbCircle
 10
716.4835460869589
 20
256.2547942103574
 30
0.0
 40
6.644500231519874
100
AcDbArc
 50
44.12593225479906
 51
104.0671635547661
  0
LINE
  5
2C8E
330
18
100
AcDbEntity
  8
0
100
AcDbLine
 10
721.2530431160057
 20
260.8809461119462
 30
0.0
 11
721.2530431160057
 21
251.8992794452797
 31
0.0
  0
LINE
  5
2C8F
330
18
100
AcDbEntity
  8
0
100
AcDbLine
 10
711.0870324041261
 20
319.4682772650858
 30
0.0
 11
738.5351407121115
 21
319.4682772650858
 31
0.0
  0
LINE
  5
2C90
330
18
100
AcDbEntity
  8
0
100
AcDbLine
 10
691.2140490579113
 20
314.4682772650858
 30
0.0
 11
702.2140490579113
 21
314.4682772650858
 31
0.0
  0
LINE
  5
2C91
330
18
100
AcDbEntity
  8
0
100
AcDbLine
 10
686.2140490579113
 20
316.4682772650858
 30
0.0
 11
707.2140490579113
 21
316.4682772650858
 31
0.0
  0
ARC
  5
2C92
330
18
100
AcDbEntity
  8
0
100
AcDbCircle
 10
691.2140490579113
 20
316.4682772650858
 30
0.0
 40
2.0
100
AcDbArc
 50
180.0
 51
270.0
  0
ARC
  5
2C93
330
18
100
AcDbEntity
  8
0
100
AcDbCircle
 10
707.2140490579113
 20
318.4682772650858
 30
0.0
 40
2.0
100
AcDbArc
 50
270.0
 51
345.5224878140969
  0
ARC
  5
2C94
330
18
100
AcDbEntity
  8
0
100
AcDbCircle
 10
702.2140490579113
 20
316.4682772650858
 30
0.0
 40
2.0
100
AcDbArc
 50
270.0
 51
0.0
  0
ARC
  5
2C95
330
18
100
AcDbEntity
  8
0
100
AcDbCircle
 10
711.0870324041261
 20
317.4682772650858
 30
0.0
 40
2.0
100
AcDbArc
 50
90.0
 51
165.5224878140995
  0
ARC
  5
2C96
330
18
100
AcDbEntity
  8
0
100
AcDbCircle
 10
771.9445520288636
 20
256.2547942103574
 30
0.0
 40
6.644500231519874
100
AcDbArc
 50
75.93283644523404
 51
135.8740677452009
  0
ARC
  5
2C97
330
18
100
AcDbEntity
  8
0
100
AcDbCircle
 10
755.6945520288636
 20
229.2389281875184
 30
0.0
 40
33.66035125776125
100
AcDbArc
 50
70.05798215649917
 51
109.9420178435008
  0
LINE
  5
2C98
330
18
100
AcDbEntity
  8
0
100
AcDbLine
 10
744.2140490579113
 20
251.8992794452797
 30
0.0
 11
744.2140490579113
 21
260.8809461119462
 31
0.0
  0
LINE
  5
2C99
330
18
100
AcDbEntity
  8
0
100
AcDbLine
 10
767.1750549998169
 20
260.8809461119462
 30
0.0
 11
767.1750549998169
 21
251.8992794452797
 31
0.0
  0
LINE
  5
2C9A
330
18
100
AcDbEntity
  8
0
100
AcDbLine
 10
773.2140490579113
 20
262.8992794452797
 30
0.0
 11
776.7140490579113
 21
260.8809461119462
 31
0.0
  0
LINE
  5
2C9B
330
18
100
AcDbEntity
  8
0
100
AcDbLine
 10
749.892957403711
 20
319.4682772650858
 30
0.0
 11
777.3410657117001
 21
319.4682772650858
 31
0.0
  0
ARC
  5
2C9C
330
18
100
AcDbEntity
  8
0
100
AcDbCircle
 10
786.2140490579113
 20
316.4682772650858
 30
0.0
 40
2.0
100
AcDbArc
 50
180.0
 51
270.0
  0
ARC
  5
2C9D
330
18
100
AcDbEntity
  8
0
100
AcDbCircle
 10
781.2140490579113
 20
318.4682772650858
 30
0.0
 40
2.0
100
AcDbArc
 50
194.4775121859164
 51
270.0
  0
ARC
  5
2C9E
330
18
100
AcDbEntity
  8
0
100
AcDbCircle
 10
777.3410657117001
 20
317.4682772650858
 30
0.0
 40
2.0
100
AcDbArc
 50
14.47751218591886
 51
90.0
  0
LINE
  5
2C9F
330
18
100
AcDbEntity
  8
0
100
AcDbLine
 10
797.2140490579113
 20
314.4682772650858
 30
0.0
 11
786.2140490579113
 21
314.4682772650858
 31
0.0
  0
ARC
  5
2CA0
330
18
100
AcDbEntity
  8
0
100
AcDbCircle
 10
797.2140490579113
 20
316.4682772650858
 30
0.0
 40
2.0
100
AcDbArc
 50
270.0
 51
0.0
  0
CIRCLE
  5
2CA1
330
18
100
AcDbEntity
  8
0
100
AcDbCircle
 10
744.2140490579113
 20
351.4682772650858
 30
0.0
 40
18.5
  0
LINE
  5
2CA2
330
18
100
AcDbEntity
  8
0
100
AcDbLine
 10
711.0870324041161
 20
383.4682772650858
 30
0.0
 11
738.5351407121106
 21
383.4682772650858
 31
0.0
  0
LINE
  5
2CA3
330
18
100
AcDbEntity
  8
0
100
AcDbLine
 10
691.2140490579113
 20
388.4682772650858
 30
0.0
 11
702.2140490579113
 21
388.4682772650858
 31
0.0
  0
LINE
  5
2CA4
330
18
100
AcDbEntity
  8
0
100
AcDbLine
 10
686.2140490579113
 20
386.4682772650858
 30
0.0
 11
707.2140490579113
 21
386.4682772650858
 31
0.0
  0
ARC
  5
2CA5
330
18
100
AcDbEntity
  8
0
100
AcDbCircle
 10
691.2140490579113
 20
386.4682772650858
 30
0.0
 40
2.0
100
AcDbArc
 50
90.0
 51
180.0
  0
ARC
  5
2CA6
330
18
100
AcDbEntity
  8
0
100
AcDbCircle
 10
707.2140490579113
 20
384.4682772650858
 30
0.0
 40
2.0
100
AcDbArc
 50
14.47751218593993
 51
90.0
  0
ARC
  5
2CA7
330
18
100
AcDbEntity
  8
0
100
AcDbCircle
 10
702.2140490579113
 20
386.4682772650858
 30
0.0
 40
2.0
100
AcDbArc
 50
0.0
 51
90.0
  0
ARC
  5
2CA8
330
18
100
AcDbEntity
  8
0
100
AcDbCircle
 10
711.0870324041161
 20
385.4682772650858
 30
0.0
 40
2.0
100
AcDbArc
 50
194.4775121859393
 51
270.0
  0
LINE
  5
2CA9
330
18
100
AcDbEntity
  8
0
100
AcDbLine
 10
749.892957403711
 20
383.4682772650858
 30
0.0
 11
777.3410657117111
 21
383.4682772650858
 31
0.0
  0
ARC
  5
2CAA
330
18
100
AcDbEntity
  8
0
100
AcDbCircle
 10
786.2140490579113
 20
386.4682772650858
 30
0.0
 40
2.0
100
AcDbArc
 50
90.0
 51
180.0
  0
ARC
  5
2CAB
330
18
100
AcDbEntity
  8
0
100
AcDbCircle
 10
781.2140490579113
 20
384.4682772650858
 30
0.0
 40
2.0
100
AcDbArc
 50
90.0
 51
165.5224878140464
  0
ARC
  5
2CAC
330
18
100
AcDbEntity
  8
0
100
AcDbCircle
 10
777.3410657117111
 20
385.4682772650858
 30
0.0
 40
2.0
100
AcDbArc
 50
270.0
 51
345.5224878140477
  0
LINE
  5
2CAD
330
18
100
AcDbEntity
  8
0
100
AcDbLine
 10
797.2140490579113
 20
388.4682772650858
 30
0.0
 11
786.2140490579113
 21
388.4682772650858
 31
0.0
  0
ARC
  5
2CAE
330
18
100
AcDbEntity
  8
0
100
AcDbCircle
 10
797.2140490579113
 20
386.4682772650858
 30
0.0
 40
2.0
100
AcDbArc
 50
0.0
 51
90.0
  0
LINE
  5
2CAF
330
18
100
AcDbEntity
  8
0
100
AcDbLine
 10
684.2140490579112
 20
504.7275059267094
 30
0.0
 11
686.2140490579113
 21
506.7275059267094
 31
0.0
  0
LINE
  5
2CB0
330
18
100
AcDbEntity
  8
0
100
AcDbLine
 10
684.2140490579112
 20
438.7275059267096
 30
0.0
 11
686.2140490579113
 21
436.7275059267097
 31
0.0
  0
LINE
  5
2CB1
330
18
100
AcDbEntity
  8
0
100
AcDbLine
 10
684.2140490579112
 20
504.7275059267094
 30
0.0
 11
684.2140490579112
 21
471.7275059267094
 31
0.0
  0
LINE
  5
2CB2
330
18
100
AcDbEntity
  8
0
100
AcDbLine
 10
684.2140490579112
 20
471.7275059267094
 30
0.0
 11
684.2140490579112
 21
438.7275059267096
 31
0.0
  0
LINE
  5
2CB3
330
18
100
AcDbEntity
  8
0
100
AcDbLine
 10
709.2140490579112
 20
504.7275059267094
 30
0.0
 11
709.2140490579112
 21
438.7275059267092
 31
0.0
  0
LINE
  5
2CB4
330
18
100
AcDbEntity
  8
0
100
AcDbLine
 10
686.2140490579113
 20
506.7275059267094
 30
0.0
 11
686.2140490579113
 21
436.7275059267097
 31
0.0
  0
LINE
  5
2CB5
330
18
100
AcDbEntity
  8
0
100
AcDbLine
 10
779.2140490579113
 20
504.7275059267094
 30
0.0
 11
779.2140490579113
 21
438.7275059267092
 31
0.0
  0
LINE
  5
2CB6
330
18
100
AcDbEntity
  8
0
100
AcDbLine
 10
711.0870324041261
 20
439.7275059267094
 30
0.0
 11
777.3410657117001
 21
439.7275059267092
 31
0.0
  0
LINE
  5
2CB7
330
18
100
AcDbEntity
  8
0
100
AcDbLine
 10
686.2140490579113
 20
436.7275059267097
 30
0.0
 11
707.2140490579113
 21
436.7275059267092
 31
0.0
  0
ARC
  5
2CB8
330
18
100
AcDbEntity
  8
0
100
AcDbCircle
 10
711.0870324041261
 20
437.7275059267094
 30
0.0
 40
2.0
100
AcDbArc
 50
90.0
 51
165.5224878140995
  0
ARC
  5
2CB9
330
18
100
AcDbEntity
  8
0
100
AcDbCircle
 10
707.2140490579113
 20
438.7275059267092
 30
0.0
 40
2.0
100
AcDbArc
 50
270.0
 51
345.5224878140969
  0
LINE
  5
2CBA
330
18
100
AcDbEntity
  8
0
100
AcDbLine
 10
691.2140490579113
 20
473.7275059267094
 30
0.0
 11
702.2140490579113
 21
473.7275059267094
 31
0.0
  0
LINE
  5
2CBB
330
18
100
AcDbEntity
  8
0
100
AcDbLine
 10
691.2140490579113
 20
469.7275059267094
 30
0.0
 11
702.2140490579113
 21
469.7275059267094
 31
0.0
  0
ARC
  5
2CBC
330
18
100
AcDbEntity
  8
0
100
AcDbCircle
 10
691.2140490579113
 20
471.7275059267094
 30
0.0
 40
2.0
100
AcDbArc
 50
90.0
 51
270.0
  0
ARC
  5
2CBD
330
18
100
AcDbEntity
  8
0
100
AcDbCircle
 10
702.2140490579113
 20
471.7275059267094
 30
0.0
 40
2.0
100
AcDbArc
 50
270.0
 51
90.0
  0
ARC
  5
2CBE
330
18
100
AcDbEntity
  8
0
100
AcDbCircle
 10
777.3410657117001
 20
437.7275059267092
 30
0.0
 40
2.0
100
AcDbArc
 50
14.47751218591886
 51
90.0
  0
ARC
  5
2CBF
330
18
100
AcDbEntity
  8
0
100
AcDbCircle
 10
781.2140490579113
 20
438.7275059267092
 30
0.0
 40
2.0
100
AcDbArc
 50
194.4775121859164
 51
270.0
  0
ARC
  5
2CC0
330
18
100
AcDbEntity
  8
0
100
AcDbCircle
 10
786.2140490579149
 20
471.7275059267094
 30
0.0
 40
2.0
100
AcDbArc
 50
90.0
 51
270.0
  0
LINE
  5
2CC1
330
18
100
AcDbEntity
  8
0
100
AcDbLine
 10
797.214049057915
 20
469.7275059267094
 30
0.0
 11
786.2140490579149
 21
469.7275059267094
 31
0.0
  0
LINE
  5
2CC2
330
18
100
AcDbEntity
  8
0
100
AcDbLine
 10
797.214049057915
 20
473.7275059267094
 30
0.0
 11
786.2140490579149
 21
473.7275059267094
 31
0.0
  0
ARC
  5
2CC3
330
18
100
AcDbEntity
  8
0
100
AcDbCircle
 10
797.214049057915
 20
471.7275059267094
 30
0.0
 40
2.0
100
AcDbArc
 50
270.0
 51
90.0
  0
ARC
  5
2CC4
330
18
100
AcDbEntity
  8
0
100
AcDbCircle
 10
732.733546086959
 20
516.0671546689481
 30
0.0
 40
33.66035125776125
100
AcDbArc
 50
70.05798215649914
 51
109.9420178435008
  0
LINE
  5
2CC5
330
18
100
AcDbEntity
  8
0
100
AcDbLine
 10
712.7140490579113
 20
521.7275059267094
 30
0.0
 11
775.7140490579113
 21
521.7275059267094
 31
0.0
  0
LINE
  5
2CC6
330
18
100
AcDbEntity
  8
0
100
AcDbLine
 10
711.7140490579113
 20
538.7275059267095
 30
0.0
 11
776.7140490579113
 21
538.7275059267095
 31
0.0
  0
LINE
  5
2CC7
330
18
100
AcDbEntity
  8
0
100
AcDbLine
 10
773.2140490579113
 20
549.7275059267094
 30
0.0
 11
715.2140490579113
 21
549.7275059267094
 31
0.0
  0
ARC
  5
2CC8
330
18
100
AcDbEntity
  8
0
100
AcDbCircle
 10
744.2140490579113
 20
571.4525059267087
 30
0.0
 40
72.72499999999934
100
AcDbArc
 50
252.1257542707156
 51
287.8742457292844
  0
LINE
  5
2CC9
330
18
100
AcDbEntity
  8
0
100
AcDbLine
 10
711.7140490579113
 20
522.7275059267094
 30
0.0
 11
711.7140490579113
 21
547.7091725933759
 31
0.0
  0
LINE
  5
2CCA
330
18
100
AcDbEntity
  8
0
100
AcDbLine
 10
711.0870324041161
 20
503.7275059267094
 30
0.0
 11
717.7140490579112
 21
503.7275059267094
 31
0.0
  0
LINE
  5
2CCB
330
18
100
AcDbEntity
  8
0
100
AcDbLine
 10
686.2140490579113
 20
506.7275059267094
 30
0.0
 11
707.2140490579113
 21
506.7275059267094
 31
0.0
  0
ARC
  5
2CCC
330
18
100
AcDbEntity
  8
0
100
AcDbCircle
 10
707.2140490579113
 20
504.7275059267094
 30
0.0
 40
2.0
100
AcDbArc
 50
14.47751218593993
 51
90.0
  0
ARC
  5
2CCD
330
18
100
AcDbEntity
  8
0
100
AcDbCircle
 10
711.0870324041161
 20
505.7275059267094
 30
0.0
 40
2.0
100
AcDbArc
 50
194.4775121859393
 51
270.0
  0
LINE
  5
2CCE
330
18
100
AcDbEntity
  8
0
100
AcDbLine
 10
712.7140490579113
 20
521.7275059267094
 30
0.0
 11
711.7140490579113
 21
522.7275059267094
 31
0.0
  0
LINE
  5
2CCF
330
18
100
AcDbEntity
  8
0
100
AcDbLine
 10
720.7140490579113
 20
521.7275059267094
 30
0.0
 11
720.7140490579113
 21
506.7275059267094
 31
0.0
  0
ARC
  5
2CD0
330
18
100
AcDbEntity
  8
0
100
AcDbCircle
 10
717.7140490579112
 20
506.7275059267094
 30
0.0
 40
3.0
100
AcDbArc
 50
270.0
 51
0.0
  0
LINE
  5
2CD1
330
18
100
AcDbEntity
  8
0
100
AcDbLine
 10
711.7140490579113
 20
547.7091725933759
 30
0.0
 11
715.2140490579113
 21
549.7275059267094
 31
0.0
  0
ARC
  5
2CD2
330
18
100
AcDbEntity
  8
0
100
AcDbCircle
 10
716.4835460869589
 20
543.0830206917869
 30
0.0
 40
6.644500231519874
100
AcDbArc
 50
44.12593225479906
 51
104.0671635547661
  0
LINE
  5
2CD3
330
18
100
AcDbEntity
  8
0
100
AcDbLine
 10
721.2530431160057
 20
547.7091725933759
 30
0.0
 11
721.2530431160057
 21
538.7275059267095
 31
0.0
  0
LINE
  5
2CD4
330
18
100
AcDbEntity
  8
0
100
AcDbLine
 10
776.7140490579113
 20
522.7275059267094
 30
0.0
 11
776.7140490579113
 21
547.7091725933759
 31
0.0
  0
LINE
  5
2CD5
330
18
100
AcDbEntity
  8
0
100
AcDbLine
 10
770.7140490579113
 20
503.7275059267094
 30
0.0
 11
777.3410657117111
 21
503.7275059267094
 31
0.0
  0
LINE
  5
2CD6
330
18
100
AcDbEntity
  8
0
100
AcDbLine
 10
767.7140490579112
 20
521.7275059267094
 30
0.0
 11
767.7140490579112
 21
506.7275059267094
 31
0.0
  0
ARC
  5
2CD7
330
18
100
AcDbEntity
  8
0
100
AcDbCircle
 10
770.7140490579113
 20
506.7275059267094
 30
0.0
 40
3.0
100
AcDbArc
 50
180.0
 51
270.0
  0
ARC
  5
2CD8
330
18
100
AcDbEntity
  8
0
100
AcDbCircle
 10
781.2140490579113
 20
504.7275059267094
 30
0.0
 40
2.0
100
AcDbArc
 50
90.0
 51
165.5224878140464
  0
ARC
  5
2CD9
330
18
100
AcDbEntity
  8
0
100
AcDbCircle
 10
777.3410657117111
 20
505.7275059267094
 30
0.0
 40
2.0
100
AcDbArc
 50
270.0
 51
345.5224878140477
  0
LINE
  5
2CDA
330
18
100
AcDbEntity
  8
0
100
AcDbLine
 10
775.7140490579113
 20
521.7275059267094
 30
0.0
 11
776.7140490579113
 21
522.7275059267094
 31
0.0
  0
ARC
  5
2CDB
330
18
100
AcDbEntity
  8
0
100
AcDbCircle
 10
771.9445520288636
 20
543.0830206917869
 30
0.0
 40
6.644500231519874
100
AcDbArc
 50
75.93283644523404
 51
135.8740677452009
  0
ARC
  5
2CDC
330
18
100
AcDbEntity
  8
0
100
AcDbCircle
 10
755.6945520288636
 20
516.0671546689481
 30
0.0
 40
33.66035125776125
100
AcDbArc
 50
70.05798215649917
 51
109.9420178435008
  0
LINE
  5
2CDD
330
18
100
AcDbEntity
  8
0
100
AcDbLine
 10
744.2140490579113
 20
538.7275059267095
 30
0.0
 11
744.2140490579113
 21
547.7091725933759
 31
0.0
  0
LINE
  5
2CDE
330
18
100
AcDbEntity
  8
0
100
AcDbLine
 10
767.1750549998169
 20
547.7091725933759
 30
0.0
 11
767.1750549998169
 21
538.7275059267095
 31
0.0
  0
LINE
  5
2CDF
330
18
100
AcDbEntity
  8
0
100
AcDbLine
 10
773.2140490579113
 20
549.7275059267094
 30
0.0
 11
776.7140490579113
 21
547.7091725933759
 31
0.0
  0
ARC
  5
2CE0
330
18
100
AcDbEntity
  8
0
100
AcDbCircle
 10
309.9664563514084
 20
904.036015276673
 30
0.0
 40
33.66035125776125
100
AcDbArc
 50
70.05798215649917
 51
109.9420178435008
  0
LINE
  5
2CE1
330
18
100
AcDbEntity
  8
0
100
AcDbLine
 10
327.4859533804556
 20
937.6963665344343
 30
0.0
 11
269.4859533804556
 21
937.6963665344343
 31
0.0
  0
LINE
  5
2CE2
330
18
100
AcDbEntity
  8
0
100
AcDbLine
 10
265.9859533804556
 20
926.6963665344341
 30
0.0
 11
330.9859533804555
 21
926.6963665344341
 31
0.0
  0
LINE
  5
2CE3
330
18
100
AcDbEntity
  8
0
100
AcDbLine
 10
266.9859533804556
 20
909.6963665344341
 30
0.0
 11
329.9859533804556
 21
909.6963665344341
 31
0.0
  0
ARC
  5
2CE4
330
18
100
AcDbEntity
  8
0
100
AcDbCircle
 10
297.9205988145804
 20
941.3727895354449
 30
0.0
 40
53.5185953717411
100
AcDbArc
 50
246.6604554046313
 51
294.6067669876773
  0
ARC
  5
2CE5
330
18
100
AcDbEntity
  8
0
100
AcDbCircle
 10
320.4859533804556
 20
874.6963665344342
 30
0.0
 40
2.0
100
AcDbArc
 50
90.0
 51
270.0
  0
LINE
  5
2CE6
330
18
100
AcDbEntity
  8
0
100
AcDbLine
 10
266.4859533804555
 20
858.6963665344342
 30
0.0
 11
330.4859533804556
 21
858.6963665344342
 31
0.0
  0
ARC
  5
2CE7
330
18
100
AcDbEntity
  8
0
100
AcDbCircle
 10
309.9664563514084
 20
686.0911493292583
 30
0.0
 40
33.66035125776125
100
AcDbArc
 50
70.05798215649917
 51
109.9420178435008
  0
LINE
  5
2CE8
330
18
100
AcDbEntity
  8
0
100
AcDbLine
 10
265.9859533804556
 20
708.7515005870195
 30
0.0
 11
330.9859533804555
 21
708.7515005870195
 31
0.0
  0
LINE
  5
2CE9
330
18
100
AcDbEntity
  8
0
100
AcDbLine
 10
266.9859533804556
 20
691.7515005870195
 30
0.0
 11
329.9859533804556
 21
691.7515005870195
 31
0.0
  0
LINE
  5
2CEA
330
18
100
AcDbEntity
  8
0
100
AcDbLine
 10
327.4859533804556
 20
719.7515005870195
 30
0.0
 11
269.4859533804556
 21
719.7515005870195
 31
0.0
  0
ARC
  5
2CEB
330
18
100
AcDbEntity
  8
0
100
AcDbCircle
 10
320.4859533804556
 20
656.7515005870196
 30
0.0
 40
2.0
100
AcDbArc
 50
90.0
 51
270.0
  0
LINE
  5
2CEC
330
18
100
AcDbEntity
  8
0
100
AcDbLine
 10
266.4859533804555
 20
640.7515005870195
 30
0.0
 11
330.4859533804556
 21
640.7515005870195
 31
0.0
  0
ARC
  5
2CED
330
18
100
AcDbEntity
  8
0
100
AcDbCircle
 10
297.9205988145804
 20
723.4279235880303
 30
0.0
 40
53.5185953717411
100
AcDbArc
 50
246.6604554046313
 51
294.6067669876773
  0
CIRCLE
  5
2CEE
330
18
100
AcDbEntity
  8
0
100
AcDbCircle
 10
298.4859533804556
 20
790.4650650463886
 30
0.0
 40
32.5
  0
POLYLINE
  5
2CEF
330
18
100
AcDbEntity
  8
0
100
AcDb2dPolyline
 66
     1
 10
0.0
 20
0.0
 30
0.0
 70
     1
  0
VERTEX
  5
31EF
330
2CEF
100
AcDbEntity
  8
0
100
AcDbVertex
100
AcDb2dVertex
 10
275.52494743855
 20
813.4260709882942
 30
0.0
  0
VERTEX
  5
31F0
330
2CEF
100
AcDbEntity
  8
0
100
AcDbVertex
100
AcDb2dVertex
 10
266.0141873716838
 20
790.4650650463886
 30
0.0
  0
VERTEX
  5
31F1
330
2CEF
100
AcDbEntity
  8
0
100
AcDbVertex
100
AcDb2dVertex
 10
275.52494743855
 20
767.504059104483
 30
0.0
  0
VERTEX
  5
31F2
330
2CEF
100
AcDbEntity
  8
0
100
AcDbVertex
100
AcDb2dVertex
 10
298.4859533804556
 20
757.9932990376168
 30
0.0
  0
VERTEX
  5
31F3
330
2CEF
100
AcDbEntity
  8
0
100
AcDbVertex
100
AcDb2dVertex
 10
321.4469593223611
 20
767.504059104483
 30
0.0
  0
VERTEX
  5
31F4
330
2CEF
100
AcDbEntity
  8
0
100
AcDbVertex
100
AcDb2dVertex
 10
330.9577193892273
 20
790.4650650463886
 30
0.0
  0
VERTEX
  5
31F5
330
2CEF
100
AcDbEntity
  8
0
100
AcDbVertex
100
AcDb2dVertex
 10
321.4469593223611
 20
813.4260709882942
 30
0.0
  0
VERTEX
  5
31F6
330
2CEF
100
AcDbEntity
  8
0
100
AcDbVertex
100
AcDb2dVertex
 10
298.4859533804556
 20
822.9368310551603
 30
0.0
  0
SEQEND
  5
31F7
330
2CEF
100
AcDbEntity
  8
0
  0
CIRCLE
  5
2CF0
330
18
100
AcDbEntity
  8
0
100
AcDbCircle
 10
298.4859533804556
 20
790.4650650463886
 30
0.0
 40
29.0
  0
TEXT
  5
2CF1
330
18
100
AcDbEntity
  8
0
100
AcDbText
 10
287.1925273700981
 20
600.6697070280697
 30
0.0
 40
15.0
  1
15A
 41
0.8
 11
287.1925273700981
 21
600.6697070280697
 31
0.0
100
AcDbText
 73
     1
  0
ARC
  5
2CF2
330
18
100
AcDbEntity
  8
0
100
AcDbCircle
 10
270.4859533804556
 20
874.6963665344342
 30
0.0
 40
2.0
100
AcDbArc
 50
90.0
 51
270.0
  0
ARC
  5
2CF3
330
18
100
AcDbEntity
  8
0
100
AcDbCircle
 10
276.4859533804556
 20
874.6963665344342
 30
0.0
 40
2.0
100
AcDbArc
 50
270.0
 51
90.0
  0
LINE
  5
2CF4
330
18
100
AcDbEntity
  8
0
100
AcDbLine
 10
264.4859533804555
 20
888.6963665344342
 30
0.0
 11
264.4859533804555
 21
874.6963665344342
 31
0.0
  0
LINE
  5
2CF5
330
18
100
AcDbEntity
  8
0
100
AcDbLine
 10
266.4859533804555
 20
890.6963665344342
 30
0.0
 11
266.4859533804555
 21
858.6963665344342
 31
0.0
  0
CIRCLE
  5
2CF6
330
18
100
AcDbEntity
  8
0
100
AcDbCircle
 10
156.3882502546985
 20
656.7515005870196
 30
0.0
 40
14.0
  0
CIRCLE
  5
2CF7
330
18
100
AcDbEntity
  8
0
100
AcDbCircle
 10
156.3882502546985
 20
656.7515005870196
 30
0.0
 40
16.0
  0
LINE
  5
2CF8
330
18
100
AcDbEntity
  8
0
100
AcDbLine
 10
187.8882502546985
 20
691.7515005870195
 30
0.0
 11
124.8882502546985
 21
691.7515005870195
 31
0.0
  0
LINE
  5
2CF9
330
18
100
AcDbEntity
  8
0
100
AcDbLine
 10
188.8882502546985
 20
708.7515005870195
 30
0.0
 11
123.8882502546985
 21
708.7515005870195
 31
0.0
  0
LINE
  5
2CFA
330
18
100
AcDbEntity
  8
0
100
AcDbLine
 10
127.3882502546985
 20
719.7515005870195
 30
0.0
 11
185.3882502546985
 21
719.7515005870195
 31
0.0
  0
ARC
  5
2CFB
330
18
100
AcDbEntity
  8
0
100
AcDbCircle
 10
167.8687532256512
 20
686.0911493292583
 30
0.0
 40
33.66035125776125
100
AcDbArc
 50
70.05798215649914
 51
109.9420178435008
  0
TEXT
  5
2CFC
330
18
100
AcDbEntity
  8
0
100
AcDbText
 10
57.65138864754317
 20
673.3518700782902
 30
0.0
 40
15.0
  1
正面
100
AcDbText
  0
LINE
  5
2CFD
330
18
100
AcDbEntity
  8
0
100
AcDbLine
 10
132.8882502546985
 20
674.7515005870195
 30
0.0
 11
132.8882502546985
 21
688.7515005870195
 31
0.0
  0
ARC
  5
2CFE
330
18
100
AcDbEntity
  8
0
100
AcDbCircle
 10
138.8882502546985
 20
674.7515005870195
 30
0.0
 40
6.0
100
AcDbArc
 50
180.0
 51
270.0
  0
ARC
  5
2CFF
330
18
100
AcDbEntity
  8
0
100
AcDbCircle
 10
140.3882502546984
 20
656.7515005870196
 30
0.0
 40
2.0
100
AcDbArc
 50
86.41667830152814
 51
273.5833216984719
  0
ARC
  5
2D00
330
18
100
AcDbEntity
  8
0
100
AcDbCircle
 10
139.6550497240168
 20
665.75150058702
 30
0.0
 40
3.0
100
AcDbArc
 50
331.7262863686298
 51
90.0
  0
LINE
  5
2D01
330
18
100
AcDbEntity
  8
0
100
AcDbLine
 10
139.6550497240168
 20
668.7515005870196
 30
0.0
 11
138.8882502546985
 21
668.7515005870196
 31
0.0
  0
ARC
  5
2D02
330
18
100
AcDbEntity
  8
0
100
AcDbCircle
 10
129.8882502546966
 20
688.7515005870195
 30
0.0
 40
3.0
100
AcDbArc
 50
0.000000000000007
 51
90.0
  0
ARC
  5
2D03
330
18
100
AcDbEntity
  8
0
100
AcDbCircle
 10
128.6577472837452
 20
713.1070153520973
 30
0.0
 40
6.644500231519874
100
AcDbArc
 50
44.12593225479907
 51
104.0671635547659
  0
LINE
  5
2D04
330
18
100
AcDbEntity
  8
0
100
AcDbLine
 10
123.8882502546985
 20
692.7515005870195
 30
0.0
 11
123.8882502546985
 21
717.7331672536861
 31
0.0
  0
LINE
  5
2D05
330
18
100
AcDbEntity
  8
0
100
AcDbLine
 10
124.8882502546985
 20
691.7515005870195
 30
0.0
 11
123.8882502546985
 21
692.7515005870195
 31
0.0
  0
LINE
  5
2D06
330
18
100
AcDbEntity
  8
0
100
AcDbLine
 10
127.3882502546985
 20
719.7515005870195
 30
0.0
 11
123.8882502546985
 21
717.7331672536861
 31
0.0
  0
ARC
  5
2D07
330
18
100
AcDbEntity
  8
0
100
AcDbCircle
 10
144.9077472837452
 20
686.0911493292583
 30
0.0
 40
33.66035125776125
100
AcDbArc
 50
70.05798215649917
 51
109.9420178435008
  0
LINE
  5
2D08
330
18
100
AcDbEntity
  8
0
100
AcDbLine
 10
133.4272443127929
 20
717.7331672536861
 30
0.0
 11
133.4272443127929
 21
708.7515005870195
 31
0.0
  0
LINE
  5
2D09
330
18
100
AcDbEntity
  8
0
100
AcDbLine
 10
156.3882502546985
 20
708.7515005870195
 30
0.0
 11
156.3882502546985
 21
717.7331672536861
 31
0.0
  0
LINE
  5
2D0A
330
18
100
AcDbEntity
  8
0
100
AcDbLine
 10
264.4859533804555
 20
656.7515005870196
 30
0.0
 11
264.4859533804555
 21
642.7515005870195
 31
0.0
  0
LINE
  5
2D0B
330
18
100
AcDbEntity
  8
0
100
AcDbLine
 10
266.4859533804555
 20
672.7515005870195
 30
0.0
 11
266.4859533804555
 21
640.7515005870195
 31
0.0
  0
LINE
  5
2D0C
330
18
100
AcDbEntity
  8
0
100
AcDbLine
 10
264.4859533804555
 20
642.7515005870195
 30
0.0
 11
266.4859533804555
 21
640.7515005870195
 31
0.0
  0
LINE
  5
2D0D
330
18
100
AcDbEntity
  8
0
100
AcDbLine
 10
179.8882502546989
 20
674.7515005870195
 30
0.0
 11
179.8882502546989
 21
688.7515005870195
 31
0.0
  0
LINE
  5
2D0E
330
18
100
AcDbEntity
  8
0
100
AcDbLine
 10
178.388250254698
 20
646.75150058702
 30
0.0
 11
178.3882502546989
 21
666.75150058702
 31
0.0
  0
LINE
  5
2D0F
330
18
100
AcDbEntity
  8
0
100
AcDbLine
 10
177.388250254698
 20
645.75150058702
 30
0.0
 11
169.2334828333641
 21
645.75150058702
 31
0.0
  0
ARC
  5
2D10
330
18
100
AcDbEntity
  8
0
100
AcDbCircle
 10
169.2334828333641
 20
642.7515005870199
 30
0.0
 40
3.0
100
AcDbArc
 50
90.0
 51
132.5368983629882
  0
ARC
  5
2D11
330
18
100
AcDbEntity
  8
0
100
AcDbCircle
 10
172.3882502546985
 20
656.7515005870196
 30
0.0
 40
2.0
100
AcDbArc
 50
266.4166783015281
 51
93.58332169847187
  0
ARC
  5
2D12
330
18
100
AcDbEntity
  8
0
100
AcDbCircle
 10
177.388250254698
 20
646.75150058702
 30
0.0
 40
1.0
100
AcDbArc
 50
270.0
 51
359.9999999999987
  0
LINE
  5
2D13
330
18
100
AcDbEntity
  8
0
100
AcDbLine
 10
177.3882502546989
 20
667.7515005870199
 30
0.0
 11
169.2334828333637
 21
667.7515005870195
 31
0.0
  0
ARC
  5
2D14
330
18
100
AcDbEntity
  8
0
100
AcDbCircle
 10
173.8882502546989
 20
674.7515005870195
 30
0.0
 40
6.0
100
AcDbArc
 50
264.9942093558812
 51
359.9999999999997
  0
ARC
  5
2D15
330
18
100
AcDbEntity
  8
0
100
AcDbCircle
 10
169.2334828333637
 20
670.7515005870195
 30
0.0
 40
3.0
100
AcDbArc
 50
227.4631016370117
 51
270.0
  0
ARC
  5
2D16
330
18
100
AcDbEntity
  8
0
100
AcDbCircle
 10
173.1029424429993
 20
665.7858276261713
 30
0.0
 40
3.0
100
AcDbArc
 50
84.99420935587727
 51
139.0633387050856
  0
ARC
  5
2D17
330
18
100
AcDbEntity
  8
0
100
AcDbCircle
 10
177.3882502546989
 20
666.75150058702
 30
0.0
 40
1.0
100
AcDbArc
 50
0.000000000000007
 51
90.00000000000285
  0
LINE
  5
2D18
330
18
100
AcDbEntity
  8
0
100
AcDbLine
 10
188.8882502546985
 20
692.7515005870195
 30
0.0
 11
188.8882502546985
 21
717.7331672536861
 31
0.0
  0
ARC
  5
2D19
330
18
100
AcDbEntity
  8
0
100
AcDbCircle
 10
182.888250254698
 20
688.7515005870195
 30
0.0
 40
3.0
100
AcDbArc
 50
90.0
 51
180.0
  0
LINE
  5
2D1A
330
18
100
AcDbEntity
  8
0
100
AcDbLine
 10
187.8882502546985
 20
691.7515005870195
 30
0.0
 11
188.8882502546985
 21
692.7515005870195
 31
0.0
  0
LINE
  5
2D1B
330
18
100
AcDbEntity
  8
0
100
AcDbLine
 10
179.349256196604
 20
717.7331672536861
 30
0.0
 11
179.349256196604
 21
708.7515005870195
 31
0.0
  0
ARC
  5
2D1C
330
18
100
AcDbEntity
  8
0
100
AcDbCircle
 10
184.1187532256513
 20
713.1070153520973
 30
0.0
 40
6.644500231519874
100
AcDbArc
 50
75.93283644523387
 51
135.8740677452009
  0
LINE
  5
2D1D
330
18
100
AcDbEntity
  8
0
100
AcDbLine
 10
188.8882502546985
 20
717.7331672536861
 30
0.0
 11
185.3882502546985
 21
719.7515005870195
 31
0.0
  0
LINE
  5
2D1E
330
18
100
AcDbEntity
  8
0
100
AcDbLine
 10
274.9859533804556
 20
688.7515005870195
 30
0.0
 11
274.9859533804556
 21
675.7515005870195
 31
0.0
  0
LINE
  5
2D1F
330
18
100
AcDbEntity
  8
0
100
AcDbLine
 10
281.4859533804556
 20
645.7515005870195
 30
0.0
 11
315.4859533804556
 21
645.7515005870195
 31
0.0
  0
LINE
  5
2D20
330
18
100
AcDbEntity
  8
0
100
AcDbLine
 10
281.4859533804556
 20
667.7515005870195
 30
0.0
 11
315.4859533804556
 21
667.7515005870195
 31
0.0
  0
LINE
  5
2D21
330
18
100
AcDbEntity
  8
0
100
AcDbLine
 10
281.4859533804556
 20
667.7515005870195
 30
0.0
 11
281.4859533804556
 21
645.7515005870195
 31
0.0
  0
LINE
  5
2D22
330
18
100
AcDbEntity
  8
0
100
AcDbLine
 10
264.4859533804555
 20
670.7515005870195
 30
0.0
 11
264.4859533804555
 21
656.7515005870196
 31
0.0
  0
ARC
  5
2D23
330
18
100
AcDbEntity
  8
0
100
AcDbCircle
 10
276.4859533804556
 20
656.7515005870196
 30
0.0
 40
2.0
100
AcDbArc
 50
270.0
 51
90.0
  0
ARC
  5
2D24
330
18
100
AcDbEntity
  8
0
100
AcDbCircle
 10
270.4859533804556
 20
656.7515005870196
 30
0.0
 40
2.0
100
AcDbArc
 50
90.0
 51
270.0
  0
LINE
  5
2D25
330
18
100
AcDbEntity
  8
0
100
AcDbLine
 10
276.4859533804556
 20
654.7515005870195
 30
0.0
 11
270.4859533804556
 21
654.7515005870195
 31
0.0
  0
LINE
  5
2D26
330
18
100
AcDbEntity
  8
0
100
AcDbLine
 10
276.4859533804556
 20
658.7515005870195
 30
0.0
 11
270.4859533804556
 21
658.7515005870195
 31
0.0
  0
LINE
  5
2D27
330
18
100
AcDbEntity
  8
0
100
AcDbLine
 10
266.4859533804555
 20
672.7515005870195
 30
0.0
 11
264.4859533804555
 21
670.7515005870195
 31
0.0
  0
LINE
  5
2D28
330
18
100
AcDbEntity
  8
0
100
AcDbLine
 10
266.4859533804555
 20
672.7515005870195
 30
0.0
 11
271.9859533804556
 21
672.7515005870195
 31
0.0
  0
ARC
  5
2D29
330
18
100
AcDbEntity
  8
0
100
AcDbCircle
 10
271.9859533804556
 20
675.7515005870195
 30
0.0
 40
3.0
100
AcDbArc
 50
270.0
 51
0.0
  0
LINE
  5
2D2A
330
18
100
AcDbEntity
  8
0
100
AcDbLine
 10
315.4859533804556
 20
667.7515005870195
 30
0.0
 11
315.4859533804556
 21
645.7515005870195
 31
0.0
  0
ARC
  5
2D2B
330
18
100
AcDbEntity
  8
0
100
AcDbCircle
 10
287.0054504095028
 20
686.0911493292583
 30
0.0
 40
33.66035125776125
100
AcDbArc
 50
70.05798215649914
 51
109.9420178435008
  0
LINE
  5
2D2C
330
18
100
AcDbEntity
  8
0
100
AcDbLine
 10
265.9859533804556
 20
692.7515005870195
 30
0.0
 11
265.9859533804556
 21
717.7331672536861
 31
0.0
  0
LINE
  5
2D2D
330
18
100
AcDbEntity
  8
0
100
AcDbLine
 10
266.9859533804556
 20
691.7515005870195
 30
0.0
 11
265.9859533804556
 21
692.7515005870195
 31
0.0
  0
ARC
  5
2D2E
330
18
100
AcDbEntity
  8
0
100
AcDbCircle
 10
271.9859533804556
 20
688.7515005870195
 30
0.0
 40
3.0
100
AcDbArc
 50
0.0
 51
90.0000000000001
  0
ARC
  5
2D2F
330
18
100
AcDbEntity
  8
0
100
AcDbCircle
 10
270.7554504095028
 20
713.1070153520973
 30
0.0
 40
6.644500231519874
100
AcDbArc
 50
44.12593225479906
 51
104.0671635547661
  0
LINE
  5
2D30
330
18
100
AcDbEntity
  8
0
100
AcDbLine
 10
265.9859533804556
 20
717.7331672536861
 30
0.0
 11
269.4859533804556
 21
719.7515005870195
 31
0.0
  0
LINE
  5
2D31
330
18
100
AcDbEntity
  8
0
100
AcDbLine
 10
275.52494743855
 20
717.7331672536861
 30
0.0
 11
275.52494743855
 21
708.7515005870195
 31
0.0
  0
LINE
  5
2D32
330
18
100
AcDbEntity
  8
0
100
AcDbLine
 10
298.4859533804556
 20
708.7515005870195
 30
0.0
 11
298.4859533804556
 21
717.7331672536861
 31
0.0
  0
TEXT
  5
2D33
330
18
100
AcDbEntity
  8
0
100
AcDbText
 10
57.65138864754317
 20
785.9603347382435
 30
0.0
 40
15.0
  1
平面
100
AcDbText
  0
LINE
  5
2D34
330
18
100
AcDbEntity
  8
0
100
AcDbLine
 10
264.4859533804555
 20
804.4650650463886
 30
0.0
 11
264.4859533804555
 21
790.4650650463886
 31
0.0
  0
CIRCLE
  5
2D35
330
18
100
AcDbEntity
  8
0
100
AcDbCircle
 10
298.4859533804556
 20
790.4650650463886
 30
0.0
 40
21.0
  0
CIRCLE
  5
2D36
330
18
100
AcDbEntity
  8
0
100
AcDbCircle
 10
298.4859533804556
 20
790.4650650463886
 30
0.0
 40
18.5
  0
ARC
  5
2D37
330
18
100
AcDbEntity
  8
0
100
AcDbCircle
 10
270.4859533804556
 20
774.4650650463886
 30
0.0
 40
2.0
100
AcDbArc
 50
180.0
 51
269.9999999999999
  0
LINE
  5
2D38
330
18
100
AcDbEntity
  8
0
100
AcDbLine
 10
264.4859533804555
 20
776.4650650463886
 30
0.0
 11
266.4859533804555
 21
774.4650650463886
 31
0.0
  0
LINE
  5
2D39
330
18
100
AcDbEntity
  8
0
100
AcDbLine
 10
264.4859533804555
 20
790.4650650463886
 30
0.0
 11
264.4859533804555
 21
776.4650650463886
 31
0.0
  0
LINE
  5
2D3A
330
18
100
AcDbEntity
  8
0
100
AcDbLine
 10
266.4859533804555
 20
784.7861567005884
 30
0.0
 11
266.4859533804555
 21
774.4650650463886
 31
0.0
  0
LINE
  5
2D3B
330
18
100
AcDbEntity
  8
0
100
AcDbLine
 10
266.4859533804555
 20
774.4650650463886
 30
0.0
 11
270.1972630608242
 21
774.4650650463886
 31
0.0
  0
LINE
  5
2D3C
330
18
100
AcDbEntity
  8
0
100
AcDbLine
 10
270.4859533804556
 20
772.4650650463886
 30
0.0
 11
271.4258351249859
 21
772.4650650463886
 31
0.0
  0
LINE
  5
2D3D
330
18
100
AcDbEntity
  8
0
100
AcDbLine
 10
266.4859533804555
 20
806.4650650463885
 30
0.0
 11
264.4859533804555
 21
804.4650650463886
 31
0.0
  0
LINE
  5
2D3E
330
18
100
AcDbEntity
  8
0
100
AcDbLine
 10
266.4859533804555
 20
806.4650650463885
 30
0.0
 11
266.4859533804555
 21
796.1439733921888
 31
0.0
  0
LINE
  5
2D3F
330
18
100
AcDbEntity
  8
0
100
AcDbLine
 10
266.4859533804555
 20
806.4650650463885
 30
0.0
 11
270.1972630608242
 21
806.4650650463885
 31
0.0
  0
LINE
  5
2D40
330
18
100
AcDbEntity
  8
0
100
AcDbLine
 10
270.4859533804556
 20
808.4650650463887
 30
0.0
 11
271.4258351249859
 21
808.4650650463887
 31
0.0
  0
ARC
  5
2D41
330
18
100
AcDbEntity
  8
0
100
AcDbCircle
 10
270.4859533804556
 20
806.4650650463885
 30
0.0
 40
2.0
100
AcDbArc
 50
90.00000000000005
 51
180.0
  0
LINE
  5
2D42
330
18
100
AcDbEntity
  8
0
100
AcDbLine
 10
264.4859533804555
 20
860.6963665344341
 30
0.0
 11
266.4859533804555
 21
858.6963665344342
 31
0.0
  0
LINE
  5
2D43
330
18
100
AcDbEntity
  8
0
100
AcDbLine
 10
264.4859533804555
 20
874.6963665344342
 30
0.0
 11
264.4859533804555
 21
860.6963665344341
 31
0.0
  0
LINE
  5
2D44
330
18
100
AcDbEntity
  8
0
100
AcDbLine
 10
276.4859533804556
 20
872.6963665344342
 30
0.0
 11
270.4859533804556
 21
872.6963665344342
 31
0.0
  0
TEXT
  5
2D45
330
18
100
AcDbEntity
  8
0
100
AcDbText
 10
57.65138864754317
 20
880.8659283772012
 30
0.0
 40
15.0
  1
背面
100
AcDbText
  0
LINE
  5
2D46
330
18
100
AcDbEntity
  8
0
100
AcDbLine
 10
265.9859533804556
 20
910.6963665344341
 30
0.0
 11
265.9859533804556
 21
935.6780332011007
 31
0.0
  0
LINE
  5
2D47
330
18
100
AcDbEntity
  8
0
100
AcDbLine
 10
274.9859533804556
 20
906.6963665344342
 30
0.0
 11
274.9859533804556
 21
893.6963665344341
 31
0.0
  0
LINE
  5
2D48
330
18
100
AcDbEntity
  8
0
100
AcDbLine
 10
266.4859533804555
 20
890.6963665344342
 30
0.0
 11
264.4859533804555
 21
888.6963665344342
 31
0.0
  0
ARC
  5
2D49
330
18
100
AcDbEntity
  8
0
100
AcDbCircle
 10
271.9859533804556
 20
893.6963665344341
 30
0.0
 40
3.0
100
AcDbArc
 50
270.0
 51
0.0
  0
LINE
  5
2D4A
330
18
100
AcDbEntity
  8
0
100
AcDbLine
 10
266.4859533804555
 20
890.6963665344342
 30
0.0
 11
271.9859533804556
 21
890.6963665344342
 31
0.0
  0
LINE
  5
2D4B
330
18
100
AcDbEntity
  8
0
100
AcDbLine
 10
276.4859533804556
 20
876.6963665344341
 30
0.0
 11
270.4859533804556
 21
876.6963665344341
 31
0.0
  0
LINE
  5
2D4C
330
18
100
AcDbEntity
  8
0
100
AcDbLine
 10
266.9859533804556
 20
909.6963665344341
 30
0.0
 11
265.9859533804556
 21
910.6963665344341
 31
0.0
  0
ARC
  5
2D4D
330
18
100
AcDbEntity
  8
0
100
AcDbCircle
 10
271.9859533804556
 20
906.6963665344342
 30
0.0
 40
3.0
100
AcDbArc
 50
0.0
 51
90.0000000000001
  0
ARC
  5
2D4E
330
18
100
AcDbEntity
  8
0
100
AcDbCircle
 10
287.0054504095028
 20
904.036015276673
 30
0.0
 40
33.66035125776125
100
AcDbArc
 50
70.05798215649914
 51
109.9420178435008
  0
LINE
  5
2D4F
330
18
100
AcDbEntity
  8
0
100
AcDbLine
 10
265.9859533804556
 20
935.6780332011007
 30
0.0
 11
269.4859533804556
 21
937.6963665344343
 31
0.0
  0
ARC
  5
2D50
330
18
100
AcDbEntity
  8
0
100
AcDbCircle
 10
270.7554504095028
 20
931.051881299512
 30
0.0
 40
6.644500231519874
100
AcDbArc
 50
44.12593225479906
 51
104.0671635547661
  0
LINE
  5
2D51
330
18
100
AcDbEntity
  8
0
100
AcDbLine
 10
275.52494743855
 20
935.6780332011007
 30
0.0
 11
275.52494743855
 21
926.6963665344341
 31
0.0
  0
LINE
  5
2D52
330
18
100
AcDbEntity
  8
0
100
AcDbLine
 10
298.4859533804556
 20
926.6963665344341
 30
0.0
 11
298.4859533804556
 21
935.6780332011007
 31
0.0
  0
LINE
  5
2D53
330
18
100
AcDbEntity
  8
0
100
AcDbLine
 10
789.9229979864931
 20
875.5540480353088
 30
0.0
 11
789.9229979864931
 21
857.0540480353088
 31
0.0
  0
ARC
  5
2D54
330
18
100
AcDbEntity
  8
0
100
AcDbCircle
 10
783.922997986493
 20
875.5540480353088
 30
0.0
 40
2.0
100
AcDbArc
 50
270.0
 51
90.0
  0
ARC
  5
2D55
330
18
100
AcDbEntity
  8
0
100
AcDbCircle
 10
777.9229979864931
 20
875.5540480353088
 30
0.0
 40
2.0
100
AcDbArc
 50
90.0
 51
270.0
  0
LINE
  5
2D56
330
18
100
AcDbEntity
  8
0
100
AcDbLine
 10
714.9229979864931
 20
875.5540480353088
 30
0.0
 11
714.9229979864931
 21
857.0540480353088
 31
0.0
  0
ARC
  5
2D57
330
18
100
AcDbEntity
  8
0
100
AcDbCircle
 10
726.9229979864931
 20
875.5540480353088
 30
0.0
 40
2.0
100
AcDbArc
 50
270.0
 51
90.0
  0
ARC
  5
2D58
330
18
100
AcDbEntity
  8
0
100
AcDbCircle
 10
720.9229979864931
 20
875.5540480353088
 30
0.0
 40
2.0
100
AcDbArc
 50
90.0
 51
270.0
  0
LINE
  5
2D59
330
18
100
AcDbEntity
  8
0
100
AcDbLine
 10
787.9229979864931
 20
896.0540480353088
 30
0.0
 11
787.9229979864931
 21
855.0540480353088
 31
0.0
  0
LINE
  5
2D5A
330
18
100
AcDbEntity
  8
0
100
AcDbLine
 10
716.9229979864931
 20
896.0540480353088
 30
0.0
 11
716.9229979864931
 21
855.0540480353088
 31
0.0
  0
ARC
  5
2D5B
330
18
100
AcDbEntity
  8
0
100
AcDbCircle
 10
326.4859533804556
 20
874.6963665344342
 30
0.0
 40
2.0
100
AcDbArc
 50
270.0
 51
90.0
  0
LINE
  5
2D5C
330
18
100
AcDbEntity
  8
0
100
AcDbLine
 10
332.4859533804556
 20
888.6963665344342
 30
0.0
 11
332.4859533804556
 21
874.6963665344342
 31
0.0
  0
LINE
  5
2D5D
330
18
100
AcDbEntity
  8
0
100
AcDbLine
 10
330.4859533804556
 20
890.6963665344342
 30
0.0
 11
330.4859533804556
 21
858.6963665344342
 31
0.0
  0
CIRCLE
  5
2D5E
330
18
100
AcDbEntity
  8
0
100
AcDbCircle
 10
397.1998691709032
 20
656.7515005870196
 30
0.0
 40
16.0
  0
CIRCLE
  5
2D5F
330
18
100
AcDbEntity
  8
0
100
AcDbCircle
 10
397.1998691709032
 20
656.7515005870196
 30
0.0
 40
14.0
  0
LINE
  5
2D60
330
18
100
AcDbEntity
  8
0
100
AcDbLine
 10
332.4859533804556
 20
656.7515005870196
 30
0.0
 11
332.4859533804556
 21
642.7515005870195
 31
0.0
  0
LINE
  5
2D61
330
18
100
AcDbEntity
  8
0
100
AcDbLine
 10
330.4859533804556
 20
672.7515005870195
 30
0.0
 11
330.4859533804556
 21
640.7515005870195
 31
0.0
  0
LINE
  5
2D62
330
18
100
AcDbEntity
  8
0
100
AcDbLine
 10
332.4859533804556
 20
642.7515005870195
 30
0.0
 11
330.4859533804556
 21
640.7515005870195
 31
0.0
  0
ARC
  5
2D63
330
18
100
AcDbEntity
  8
0
100
AcDbCircle
 10
385.7193661999504
 20
686.0911493292583
 30
0.0
 40
33.66035125776125
100
AcDbArc
 50
70.05798215649914
 51
109.9420178435008
  0
LINE
  5
2D64
330
18
100
AcDbEntity
  8
0
100
AcDbLine
 10
364.6998691709031
 20
708.7515005870195
 30
0.0
 11
429.6998691709031
 21
708.7515005870195
 31
0.0
  0
LINE
  5
2D65
330
18
100
AcDbEntity
  8
0
100
AcDbLine
 10
365.6998691709032
 20
691.7515005870195
 30
0.0
 11
428.6998691709031
 21
691.7515005870195
 31
0.0
  0
LINE
  5
2D66
330
18
100
AcDbEntity
  8
0
100
AcDbLine
 10
426.1998691709031
 20
719.7515005870195
 30
0.0
 11
368.1998691709031
 21
719.7515005870195
 31
0.0
  0
LINE
  5
2D67
330
18
100
AcDbEntity
  8
0
100
AcDbLine
 10
376.1998691709027
 20
667.7515005870199
 30
0.0
 11
384.3546365922379
 21
667.7515005870195
 31
0.0
  0
LINE
  5
2D68
330
18
100
AcDbEntity
  8
0
100
AcDbLine
 10
376.1998691709036
 20
645.75150058702
 30
0.0
 11
384.3546365922375
 21
645.75150058702
 31
0.0
  0
ARC
  5
2D69
330
18
100
AcDbEntity
  8
0
100
AcDbCircle
 10
379.6998691709027
 20
674.7515005870195
 30
0.0
 40
6.0
100
AcDbArc
 50
180.0000000000003
 51
275.0057906441188
  0
LINE
  5
2D6A
330
18
100
AcDbEntity
  8
0
100
AcDbLine
 10
373.6998691709027
 20
674.7515005870195
 30
0.0
 11
373.6998691709027
 21
688.7515005870195
 31
0.0
  0
LINE
  5
2D6B
330
18
100
AcDbEntity
  8
0
100
AcDbLine
 10
321.9859533804556
 20
688.7515005870195
 30
0.0
 11
321.9859533804556
 21
675.7515005870195
 31
0.0
  0
LINE
  5
2D6C
330
18
100
AcDbEntity
  8
0
100
AcDbLine
 10
332.4859533804556
 20
670.7515005870195
 30
0.0
 11
332.4859533804556
 21
656.7515005870196
 31
0.0
  0
ARC
  5
2D6D
330
18
100
AcDbEntity
  8
0
100
AcDbCircle
 10
326.4859533804556
 20
656.7515005870196
 30
0.0
 40
2.0
100
AcDbArc
 50
270.0
 51
90.0
  0
LINE
  5
2D6E
330
18
100
AcDbEntity
  8
0
100
AcDbLine
 10
320.4859533804556
 20
654.7515005870195
 30
0.0
 11
326.4859533804556
 21
654.7515005870195
 31
0.0
  0
LINE
  5
2D6F
330
18
100
AcDbEntity
  8
0
100
AcDbLine
 10
320.4859533804556
 20
658.7515005870195
 30
0.0
 11
326.4859533804556
 21
658.7515005870195
 31
0.0
  0
LINE
  5
2D70
330
18
100
AcDbEntity
  8
0
100
AcDbLine
 10
324.9859533804556
 20
672.7515005870195
 30
0.0
 11
330.4859533804556
 21
672.7515005870195
 31
0.0
  0
ARC
  5
2D71
330
18
100
AcDbEntity
  8
0
100
AcDbCircle
 10
324.9859533804556
 20
675.7515005870195
 30
0.0
 40
3.0
100
AcDbArc
 50
180.0
 51
270.0
  0
LINE
  5
2D72
330
18
100
AcDbEntity
  8
0
100
AcDbLine
 10
330.4859533804556
 20
672.7515005870195
 30
0.0
 11
332.4859533804556
 21
670.7515005870195
 31
0.0
  0
LINE
  5
2D73
330
18
100
AcDbEntity
  8
0
100
AcDbLine
 10
375.1998691709036
 20
646.75150058702
 30
0.0
 11
375.1998691709027
 21
666.75150058702
 31
0.0
  0
ARC
  5
2D74
330
18
100
AcDbEntity
  8
0
100
AcDbCircle
 10
376.1998691709036
 20
646.75150058702
 30
0.0
 40
1.0
100
AcDbArc
 50
180.0000000000012
 51
270.0
  0
ARC
  5
2D75
330
18
100
AcDbEntity
  8
0
100
AcDbCircle
 10
376.1998691709027
 20
666.75150058702
 30
0.0
 40
1.0
100
AcDbArc
 50
89.99999999999714
 51
180.0
  0
LINE
  5
2D76
330
18
100
AcDbEntity
  8
0
100
AcDbLine
 10
330.9859533804555
 20
692.7515005870195
 30
0.0
 11
330.9859533804555
 21
717.7331672536861
 31
0.0
  0
ARC
  5
2D77
330
18
100
AcDbEntity
  8
0
100
AcDbCircle
 10
324.9859533804556
 20
688.7515005870195
 30
0.0
 40
3.0
100
AcDbArc
 50
90.0
 51
180.0
  0
LINE
  5
2D78
330
18
100
AcDbEntity
  8
0
100
AcDbLine
 10
329.9859533804556
 20
691.7515005870195
 30
0.0
 11
330.9859533804555
 21
692.7515005870195
 31
0.0
  0
LINE
  5
2D79
330
18
100
AcDbEntity
  8
0
100
AcDbLine
 10
327.4859533804556
 20
719.7515005870195
 30
0.0
 11
330.9859533804555
 21
717.7331672536861
 31
0.0
  0
ARC
  5
2D7A
330
18
100
AcDbEntity
  8
0
100
AcDbCircle
 10
326.2164563514084
 20
713.1070153520973
 30
0.0
 40
6.644500231519874
100
AcDbArc
 50
75.93283644523404
 51
135.8740677452009
  0
LINE
  5
2D7B
330
18
100
AcDbEntity
  8
0
100
AcDbLine
 10
321.4469593223611
 20
717.7331672536861
 30
0.0
 11
321.4469593223611
 21
708.7515005870195
 31
0.0
  0
LINE
  5
2D7C
330
18
100
AcDbEntity
  8
0
100
AcDbLine
 10
364.6998691709031
 20
692.7515005870195
 30
0.0
 11
364.6998691709031
 21
717.7331672536861
 31
0.0
  0
LINE
  5
2D7D
330
18
100
AcDbEntity
  8
0
100
AcDbLine
 10
365.6998691709032
 20
691.7515005870195
 30
0.0
 11
364.6998691709031
 21
692.7515005870195
 31
0.0
  0
ARC
  5
2D7E
330
18
100
AcDbEntity
  8
0
100
AcDbCircle
 10
370.6998691709036
 20
688.7515005870195
 30
0.0
 40
3.0
100
AcDbArc
 50
0.0
 51
90.0
  0
LINE
  5
2D7F
330
18
100
AcDbEntity
  8
0
100
AcDbLine
 10
374.2388632289976
 20
717.7331672536861
 30
0.0
 11
374.2388632289976
 21
708.7515005870195
 31
0.0
  0
LINE
  5
2D80
330
18
100
AcDbEntity
  8
0
100
AcDbLine
 10
364.6998691709031
 20
717.7331672536861
 30
0.0
 11
368.1998691709031
 21
719.7515005870195
 31
0.0
  0
ARC
  5
2D81
330
18
100
AcDbEntity
  8
0
100
AcDbCircle
 10
369.4693661999504
 20
713.1070153520973
 30
0.0
 40
6.644500231519874
100
AcDbArc
 50
44.12593225479906
 51
104.0671635547661
  0
LINE
  5
2D82
330
18
100
AcDbEntity
  8
0
100
AcDbLine
 10
420.6998691709031
 20
674.7515005870195
 30
0.0
 11
420.6998691709031
 21
688.7515005870195
 31
0.0
  0
ARC
  5
2D83
330
18
100
AcDbEntity
  8
0
100
AcDbCircle
 10
381.1998691709031
 20
656.7515005870196
 30
0.0
 40
2.0
100
AcDbArc
 50
86.41667830152812
 51
273.5833216984719
  0
ARC
  5
2D84
330
18
100
AcDbEntity
  8
0
100
AcDbCircle
 10
384.3546365922375
 20
642.7515005870199
 30
0.0
 40
3.0
100
AcDbArc
 50
47.46310163701177
 51
90.0
  0
ARC
  5
2D85
330
18
100
AcDbEntity
  8
0
100
AcDbCircle
 10
380.4851769826023
 20
665.7858276261713
 30
0.0
 40
3.0
100
AcDbArc
 50
40.9366612949143
 51
95.00579064412274
  0
ARC
  5
2D86
330
18
100
AcDbEntity
  8
0
100
AcDbCircle
 10
384.3546365922379
 20
670.7515005870195
 30
0.0
 40
3.0
100
AcDbArc
 50
270.0
 51
312.5368983629882
  0
ARC
  5
2D87
330
18
100
AcDbEntity
  8
0
100
AcDbCircle
 10
413.1998691709031
 20
656.7515005870196
 30
0.0
 40
2.0
100
AcDbArc
 50
266.4166783015281
 51
93.58332169847187
  0
ARC
  5
2D88
330
18
100
AcDbEntity
  8
0
100
AcDbCircle
 10
414.6998691709032
 20
674.7515005870195
 30
0.0
 40
6.0
100
AcDbArc
 50
270.0
 51
0.0
  0
LINE
  5
2D89
330
18
100
AcDbEntity
  8
0
100
AcDbLine
 10
413.9330697015848
 20
668.7515005870196
 30
0.0
 11
414.6998691709032
 21
668.7515005870196
 31
0.0
  0
ARC
  5
2D8A
330
18
100
AcDbEntity
  8
0
100
AcDbCircle
 10
413.9330697015848
 20
665.75150058702
 30
0.0
 40
3.0
100
AcDbArc
 50
90.0
 51
208.2737136313701
  0
ARC
  5
2D8B
330
18
100
AcDbEntity
  8
0
100
AcDbCircle
 10
408.6803721418564
 20
686.0911493292583
 30
0.0
 40
33.66035125776125
100
AcDbArc
 50
70.05798215649917
 51
109.9420178435008
  0
LINE
  5
2D8C
330
18
100
AcDbEntity
  8
0
100
AcDbLine
 10
397.1998691709032
 20
708.7515005870195
 30
0.0
 11
397.1998691709032
 21
717.7331672536861
 31
0.0
  0
LINE
  5
2D8D
330
18
100
AcDbEntity
  8
0
100
AcDbLine
 10
429.6998691709031
 20
692.7515005870195
 30
0.0
 11
429.6998691709031
 21
717.7331672536861
 31
0.0
  0
ARC
  5
2D8E
330
18
100
AcDbEntity
  8
0
100
AcDbCircle
 10
423.6998691709049
 20
688.7515005870195
 30
0.0
 40
3.0
100
AcDbArc
 50
90.0
 51
180.0
  0
LINE
  5
2D8F
330
18
100
AcDbEntity
  8
0
100
AcDbLine
 10
428.6998691709031
 20
691.7515005870195
 30
0.0
 11
429.6998691709031
 21
692.7515005870195
 31
0.0
  0
ARC
  5
2D90
330
18
100
AcDbEntity
  8
0
100
AcDbCircle
 10
424.9303721418564
 20
713.1070153520973
 30
0.0
 40
6.644500231519874
100
AcDbArc
 50
75.93283644523404
 51
135.8740677452009
  0
LINE
  5
2D91
330
18
100
AcDbEntity
  8
0
100
AcDbLine
 10
420.1608751128087
 20
717.7331672536861
 30
0.0
 11
420.1608751128087
 21
708.7515005870195
 31
0.0
  0
LINE
  5
2D92
330
18
100
AcDbEntity
  8
0
100
AcDbLine
 10
426.1998691709031
 20
719.7515005870195
 30
0.0
 11
429.6998691709031
 21
717.7331672536861
 31
0.0
  0
LINE
  5
2D93
330
18
100
AcDbEntity
  8
0
100
AcDbLine
 10
332.4859533804556
 20
804.4650650463886
 30
0.0
 11
332.4859533804556
 21
790.4650650463886
 31
0.0
  0
ARC
  5
2D94
330
18
100
AcDbEntity
  8
0
100
AcDbCircle
 10
326.4859533804556
 20
774.4650650463886
 30
0.0
 40
2.0
100
AcDbArc
 50
270.0
 51
0.0
  0
LINE
  5
2D95
330
18
100
AcDbEntity
  8
0
100
AcDbLine
 10
330.4859533804556
 20
784.7861567005884
 30
0.0
 11
330.4859533804556
 21
774.4650650463886
 31
0.0
  0
LINE
  5
2D96
330
18
100
AcDbEntity
  8
0
100
AcDbLine
 10
332.4859533804556
 20
790.4650650463886
 30
0.0
 11
332.4859533804556
 21
776.4650650463886
 31
0.0
  0
LINE
  5
2D97
330
18
100
AcDbEntity
  8
0
100
AcDbLine
 10
326.4859533804556
 20
772.4650650463886
 30
0.0
 11
325.5460716359252
 21
772.4650650463886
 31
0.0
  0
LINE
  5
2D98
330
18
100
AcDbEntity
  8
0
100
AcDbLine
 10
326.7746437000869
 20
774.4650650463886
 30
0.0
 11
330.4859533804556
 21
774.4650650463886
 31
0.0
  0
LINE
  5
2D99
330
18
100
AcDbEntity
  8
0
100
AcDbLine
 10
332.4859533804556
 20
776.4650650463886
 30
0.0
 11
330.4859533804556
 21
774.4650650463886
 31
0.0
  0
LINE
  5
2D9A
330
18
100
AcDbEntity
  8
0
100
AcDbLine
 10
330.4859533804556
 20
806.4650650463885
 30
0.0
 11
330.4859533804556
 21
796.1439733921888
 31
0.0
  0
LINE
  5
2D9B
330
18
100
AcDbEntity
  8
0
100
AcDbLine
 10
326.4859533804556
 20
808.4650650463887
 30
0.0
 11
325.5460716359252
 21
808.4650650463887
 31
0.0
  0
LINE
  5
2D9C
330
18
100
AcDbEntity
  8
0
100
AcDbLine
 10
326.7746437000869
 20
806.4650650463885
 30
0.0
 11
330.4859533804556
 21
806.4650650463885
 31
0.0
  0
ARC
  5
2D9D
330
18
100
AcDbEntity
  8
0
100
AcDbCircle
 10
326.4859533804556
 20
806.4650650463885
 30
0.0
 40
2.0
100
AcDbArc
 50
0.0
 51
89.99999999999994
  0
LINE
  5
2D9E
330
18
100
AcDbEntity
  8
0
100
AcDbLine
 10
330.4859533804556
 20
806.4650650463885
 30
0.0
 11
332.4859533804556
 21
804.4650650463886
 31
0.0
  0
LINE
  5
2D9F
330
18
100
AcDbEntity
  8
0
100
AcDbLine
 10
320.4859533804556
 20
872.6963665344342
 30
0.0
 11
326.4859533804556
 21
872.6963665344342
 31
0.0
  0
LINE
  5
2DA0
330
18
100
AcDbEntity
  8
0
100
AcDbLine
 10
332.4859533804556
 20
874.6963665344342
 30
0.0
 11
332.4859533804556
 21
860.6963665344341
 31
0.0
  0
LINE
  5
2DA1
330
18
100
AcDbEntity
  8
0
100
AcDbLine
 10
332.4859533804556
 20
860.6963665344341
 30
0.0
 11
330.4859533804556
 21
858.6963665344342
 31
0.0
  0
ARC
  5
2DA2
330
18
100
AcDbEntity
  8
0
100
AcDbCircle
 10
615.5508294670826
 20
690.0911493292583
 30
0.0
 40
33.66035125776125
100
AcDbArc
 50
70.05798215649914
 51
109.9420178435008
  0
LINE
  5
2DA3
330
18
100
AcDbEntity
  8
0
100
AcDbLine
 10
575.0703264961303
 20
723.7515005870196
 30
0.0
 11
633.0703264961303
 21
723.7515005870196
 31
0.0
  0
ARC
  5
2DA4
330
18
100
AcDbEntity
  8
0
100
AcDbCircle
 10
621.5703264961303
 20
678.7515005870195
 30
0.0
 40
6.0
100
AcDbArc
 50
282.4175933388016
 51
0.000000000000007
  0
ARC
  5
2DA5
330
18
100
AcDbEntity
  8
0
100
AcDbCircle
 10
624.5703264961303
 20
656.7515005870196
 30
0.0
 40
2.0
100
AcDbArc
 50
267.2039743037107
 51
92.79602569628929
  0
LINE
  5
2DA6
330
18
100
AcDbEntity
  8
0
100
AcDbLine
 10
625.0703264961312
 20
645.75150058702
 30
0.0
 11
621.3691703881368
 21
645.7515005870195
 31
0.0
  0
LINE
  5
2DA7
330
18
100
AcDbEntity
  8
0
100
AcDbLine
 10
625.0703264961303
 20
667.7515005870191
 30
0.0
 11
621.3691703881368
 21
667.7515005870195
 31
0.0
  0
LINE
  5
2DA8
330
18
100
AcDbEntity
  8
0
100
AcDbLine
 10
635.5703264961302
 20
695.7515005870195
 30
0.0
 11
572.5703264961302
 21
695.7515005870195
 31
0.0
  0
LINE
  5
2DA9
330
18
100
AcDbEntity
  8
0
100
AcDbLine
 10
636.5703264961303
 20
712.7515005870195
 30
0.0
 11
571.5703264961303
 21
712.7515005870195
 31
0.0
  0
CIRCLE
  5
2DAA
330
18
100
AcDbEntity
  8
0
100
AcDbCircle
 10
604.0703264961303
 20
656.7515005870196
 30
0.0
 40
20.5
  0
CIRCLE
  5
2DAB
330
18
100
AcDbEntity
  8
0
100
AcDbCircle
 10
604.0703264961303
 20
656.7515005870196
 30
0.0
 40
18.5
  0
LINE
  5
2DAC
330
18
100
AcDbEntity
  8
0
100
AcDbLine
 10
580.5703264961302
 20
692.7515005870195
 30
0.0
 11
580.5703264961302
 21
678.7515005870195
 31
0.0
  0
ARC
  5
2DAD
330
18
100
AcDbEntity
  8
0
100
AcDbCircle
 10
583.5703264961303
 20
656.7515005870196
 30
0.0
 40
2.0
100
AcDbArc
 50
87.20397430371072
 51
272.7960256962893
  0
ARC
  5
2DAE
330
18
100
AcDbEntity
  8
0
100
AcDbCircle
 10
586.5703264961303
 20
678.7515005870195
 30
0.0
 40
6.0
100
AcDbArc
 50
180.0
 51
257.5824066611983
  0
ARC
  5
2DAF
330
18
100
AcDbEntity
  8
0
100
AcDbCircle
 10
584.6350095550287
 20
669.9620439293253
 30
0.0
 40
3.0
100
AcDbArc
 50
325.7953305691406
 51
77.58240666118894
  0
ARC
  5
2DB0
330
18
100
AcDbEntity
  8
0
100
AcDbCircle
 10
623.5056434372317
 20
669.9620439293253
 30
0.0
 40
3.0
100
AcDbArc
 50
102.417593338811
 51
214.2046694308593
  0
ARC
  5
2DB1
330
18
100
AcDbEntity
  8
0
100
AcDbCircle
 10
592.5898235251779
 20
690.0911493292583
 30
0.0
 40
33.66035125776125
100
AcDbArc
 50
70.05798215649917
 51
109.9420178435008
  0
LINE
  5
2DB2
330
18
100
AcDbEntity
  8
0
100
AcDbLine
 10
571.5703264961303
 20
696.7515005870195
 30
0.0
 11
571.5703264961303
 21
721.7331672536861
 31
0.0
  0
ARC
  5
2DB3
330
18
100
AcDbEntity
  8
0
100
AcDbCircle
 10
577.5703264961302
 20
692.7515005870195
 30
0.0
 40
3.0
100
AcDbArc
 50
0.000000000000007
 51
90.0
  0
LINE
  5
2DB4
330
18
100
AcDbEntity
  8
0
100
AcDbLine
 10
572.5703264961302
 20
695.7515005870195
 30
0.0
 11
571.5703264961303
 21
696.7515005870195
 31
0.0
  0
ARC
  5
2DB5
330
18
100
AcDbEntity
  8
0
100
AcDbCircle
 10
576.3398235251779
 20
717.1070153520973
 30
0.0
 40
6.644500231519874
100
AcDbArc
 50
44.12593225479907
 51
104.0671635547659
  0
LINE
  5
2DB6
330
18
100
AcDbEntity
  8
0
100
AcDbLine
 10
575.0703264961303
 20
723.7515005870196
 30
0.0
 11
571.5703264961303
 21
721.7331672536861
 31
0.0
  0
LINE
  5
2DB7
330
18
100
AcDbEntity
  8
0
100
AcDbLine
 10
581.1093205542247
 20
721.7331672536861
 30
0.0
 11
581.1093205542247
 21
712.7515005870195
 31
0.0
  0
LINE
  5
2DB8
330
18
100
AcDbEntity
  8
0
100
AcDbLine
 10
604.0703264961303
 20
712.7515005870195
 30
0.0
 11
604.0703264961303
 21
721.7331672536861
 31
0.0
  0
LINE
  5
2DB9
330
18
100
AcDbEntity
  8
0
100
AcDbLine
 10
789.9229979864931
 20
656.7515005870196
 30
0.0
 11
789.9229979864931
 21
638.2515005870195
 31
0.0
  0
LINE
  5
2DBA
330
18
100
AcDbEntity
  8
0
100
AcDbLine
 10
714.9229979864931
 20
656.7515005870196
 30
0.0
 11
714.9229979864931
 21
638.2515005870195
 31
0.0
  0
LINE
  5
2DBB
330
18
100
AcDbEntity
  8
0
100
AcDbLine
 10
716.9229979864931
 20
677.2515005870196
 30
0.0
 11
716.9229979864931
 21
636.2515005870196
 31
0.0
  0
LINE
  5
2DBC
330
18
100
AcDbEntity
  8
0
100
AcDbLine
 10
787.9229979864931
 20
677.2515005870196
 30
0.0
 11
787.9229979864931
 21
636.2515005870196
 31
0.0
  0
LINE
  5
2DBD
330
18
100
AcDbEntity
  8
0
100
AcDbLine
 10
716.9229979864931
 20
636.2515005870196
 30
0.0
 11
787.9229979864931
 21
636.2515005870196
 31
0.0
  0
TEXT
  5
2DBE
330
18
100
AcDbEntity
  8
0
100
AcDbText
 10
734.6781746407096
 20
605.60764645783
 30
0.0
 40
15.0
  1
20A
 41
0.8
 11
734.6781746407096
 21
605.60764645783
 31
0.0
100
AcDbText
 73
     1
  0
LINE
  5
2DBF
330
18
100
AcDbEntity
  8
0
100
AcDbLine
 10
714.9229979864931
 20
638.2515005870195
 30
0.0
 11
716.9229979864931
 21
636.2515005870196
 31
0.0
  0
LINE
  5
2DC0
330
18
100
AcDbEntity
  8
0
100
AcDbLine
 10
787.9229979864931
 20
636.2515005870196
 30
0.0
 11
789.9229979864931
 21
638.2515005870195
 31
0.0
  0
ARC
  5
2DC1
330
18
100
AcDbEntity
  8
0
100
AcDbCircle
 10
740.9424950155408
 20
690.0911493292583
 30
0.0
 40
33.66035125776125
100
AcDbArc
 50
70.05798215649914
 51
109.9420178435008
  0
LINE
  5
2DC2
330
18
100
AcDbEntity
  8
0
100
AcDbLine
 10
781.4229979864931
 20
723.7515005870196
 30
0.0
 11
723.4229979864931
 21
723.7515005870196
 31
0.0
  0
ARC
  5
2DC3
330
18
100
AcDbEntity
  8
0
100
AcDbCircle
 10
752.4229979864931
 20
715.2792644621167
 30
0.0
 40
42.49999999999998
100
AcDbArc
 50
241.927513064147
 51
298.0724869358529
  0
LINE
  5
2DC4
330
18
100
AcDbEntity
  8
0
100
AcDbLine
 10
719.9229979864931
 20
712.7515005870195
 30
0.0
 11
784.922997986493
 21
712.7515005870195
 31
0.0
  0
LINE
  5
2DC5
330
18
100
AcDbEntity
  8
0
100
AcDbLine
 10
720.9229979864931
 20
694.7515005870195
 30
0.0
 11
783.922997986493
 21
694.7515005870195
 31
0.0
  0
LINE
  5
2DC6
330
18
100
AcDbEntity
  8
0
100
AcDbLine
 10
735.4229979864931
 20
645.7515005870195
 30
0.0
 11
769.4229979864931
 21
645.7515005870195
 31
0.0
  0
LINE
  5
2DC7
330
18
100
AcDbEntity
  8
0
100
AcDbLine
 10
735.4229979864931
 20
667.7515005870195
 30
0.0
 11
769.4229979864931
 21
667.7515005870195
 31
0.0
  0
LINE
  5
2DC8
330
18
100
AcDbEntity
  8
0
100
AcDbLine
 10
728.9229979864931
 20
691.7515005870195
 30
0.0
 11
728.9229979864931
 21
680.2515005870195
 31
0.0
  0
LINE
  5
2DC9
330
18
100
AcDbEntity
  8
0
100
AcDbLine
 10
627.5703264961293
 20
692.7515005870195
 30
0.0
 11
627.5703264961302
 21
678.7515005870195
 31
0.0
  0
LINE
  5
2DCA
330
18
100
AcDbEntity
  8
0
100
AcDbLine
 10
626.0703264961303
 20
666.7515005870191
 30
0.0
 11
626.0703264961303
 21
658.0743762425518
 31
0.0
  0
ARC
  5
2DCB
330
18
100
AcDbEntity
  8
0
100
AcDbCircle
 10
625.0703264961312
 20
646.75150058702
 30
0.0
 40
1.0
100
AcDbArc
 50
270.0000000000055
 51
0.000000000000007
  0
LINE
  5
2DCC
330
18
100
AcDbEntity
  8
0
100
AcDbLine
 10
626.0703264961303
 20
655.4286249314873
 30
0.0
 11
626.0703264961311
 21
646.75150058702
 31
0.0
  0
ARC
  5
2DCD
330
18
100
AcDbEntity
  8
0
100
AcDbCircle
 10
625.0703264961303
 20
666.7515005870191
 30
0.0
 40
1.0
100
AcDbArc
 50
0.000000000000007
 51
89.99999999999445
  0
LINE
  5
2DCE
330
18
100
AcDbEntity
  8
0
100
AcDbLine
 10
735.4229979864931
 20
667.7515005870195
 30
0.0
 11
735.4229979864931
 21
645.7515005870195
 31
0.0
  0
LINE
  5
2DCF
330
18
100
AcDbEntity
  8
0
100
AcDbLine
 10
714.9229979864931
 20
675.2515005870195
 30
0.0
 11
714.9229979864931
 21
656.7515005870196
 31
0.0
  0
ARC
  5
2DD0
330
18
100
AcDbEntity
  8
0
100
AcDbCircle
 10
726.9229979864931
 20
656.7515005870196
 30
0.0
 40
2.0
100
AcDbArc
 50
270.0
 51
90.0
  0
ARC
  5
2DD1
330
18
100
AcDbEntity
  8
0
100
AcDbCircle
 10
720.9229979864931
 20
656.7515005870196
 30
0.0
 40
2.0
100
AcDbArc
 50
90.0
 51
270.0
  0
LINE
  5
2DD2
330
18
100
AcDbEntity
  8
0
100
AcDbLine
 10
726.9229979864931
 20
654.7515005870195
 30
0.0
 11
720.9229979864931
 21
654.7515005870195
 31
0.0
  0
LINE
  5
2DD3
330
18
100
AcDbEntity
  8
0
100
AcDbLine
 10
726.9229979864931
 20
658.7515005870195
 30
0.0
 11
720.9229979864931
 21
658.7515005870195
 31
0.0
  0
ARC
  5
2DD4
330
18
100
AcDbEntity
  8
0
100
AcDbCircle
 10
725.922997986493
 20
680.2515005870195
 30
0.0
 40
3.0
100
AcDbArc
 50
270.0
 51
0.0
  0
LINE
  5
2DD5
330
18
100
AcDbEntity
  8
0
100
AcDbLine
 10
716.9229979864931
 20
677.2515005870196
 30
0.0
 11
714.9229979864931
 21
675.2515005870195
 31
0.0
  0
LINE
  5
2DD6
330
18
100
AcDbEntity
  8
0
100
AcDbLine
 10
716.9229979864931
 20
677.2515005870196
 30
0.0
 11
725.922997986493
 21
677.2515005870196
 31
0.0
  0
LINE
  5
2DD7
330
18
100
AcDbEntity
  8
0
100
AcDbLine
 10
636.5703264961303
 20
696.7515005870195
 30
0.0
 11
636.5703264961303
 21
721.7331672536861
 31
0.0
  0
LINE
  5
2DD8
330
18
100
AcDbEntity
  8
0
100
AcDbLine
 10
635.5703264961302
 20
695.7515005870195
 30
0.0
 11
636.5703264961303
 21
696.7515005870195
 31
0.0
  0
ARC
  5
2DD9
330
18
100
AcDbEntity
  8
0
100
AcDbCircle
 10
630.5703264961302
 20
692.7515005870195
 30
0.0
 40
3.0
100
AcDbArc
 50
90.0
 51
180.0
  0
LINE
  5
2DDA
330
18
100
AcDbEntity
  8
0
100
AcDbLine
 10
636.5703264961303
 20
721.7331672536861
 30
0.0
 11
633.0703264961303
 21
723.7515005870196
 31
0.0
  0
ARC
  5
2DDB
330
18
100
AcDbEntity
  8
0
100
AcDbCircle
 10
631.8008294670826
 20
717.1070153520973
 30
0.0
 40
6.644500231519874
100
AcDbArc
 50
75.93283644523387
 51
135.8740677452009
  0
LINE
  5
2DDC
330
18
100
AcDbEntity
  8
0
100
AcDbLine
 10
627.0313324380358
 20
721.7331672536861
 30
0.0
 11
627.0313324380358
 21
712.7515005870195
 31
0.0
  0
LINE
  5
2DDD
330
18
100
AcDbEntity
  8
0
100
AcDbLine
 10
719.9229979864931
 20
695.7515005870195
 30
0.0
 11
719.9229979864931
 21
721.7331672536861
 31
0.0
  0
ARC
  5
2DDE
330
18
100
AcDbEntity
  8
0
100
AcDbCircle
 10
725.922997986493
 20
691.7515005870195
 30
0.0
 40
3.0
100
AcDbArc
 50
0.0
 51
90.0
  0
LINE
  5
2DDF
330
18
100
AcDbEntity
  8
0
100
AcDbLine
 10
720.9229979864931
 20
694.7515005870195
 30
0.0
 11
719.9229979864931
 21
695.7515005870195
 31
0.0
  0
ARC
  5
2DE0
330
18
100
AcDbEntity
  8
0
100
AcDbCircle
 10
724.6924950155407
 20
717.1070153520973
 30
0.0
 40
6.644500231519874
100
AcDbArc
 50
44.12593225479906
 51
104.0671635547661
  0
LINE
  5
2DE1
330
18
100
AcDbEntity
  8
0
100
AcDbLine
 10
719.9229979864931
 20
721.7331672536861
 30
0.0
 11
723.4229979864931
 21
723.7515005870196
 31
0.0
  0
LINE
  5
2DE2
330
18
100
AcDbEntity
  8
0
100
AcDbLine
 10
729.4619920445875
 20
721.7331672536861
 30
0.0
 11
729.4619920445875
 21
712.7515005870195
 31
0.0
  0
LINE
  5
2DE3
330
18
100
AcDbEntity
  8
0
100
AcDbLine
 10
775.922997986493
 20
691.7515005870195
 30
0.0
 11
775.922997986493
 21
680.2515005870195
 31
0.0
  0
LINE
  5
2DE4
330
18
100
AcDbEntity
  8
0
100
AcDbLine
 10
769.4229979864931
 20
667.7515005870195
 30
0.0
 11
769.4229979864931
 21
645.7515005870195
 31
0.0
  0
LINE
  5
2DE5
330
18
100
AcDbEntity
  8
0
100
AcDbLine
 10
789.9229979864931
 20
675.2515005870195
 30
0.0
 11
789.9229979864931
 21
656.7515005870196
 31
0.0
  0
ARC
  5
2DE6
330
18
100
AcDbEntity
  8
0
100
AcDbCircle
 10
783.922997986493
 20
656.7515005870196
 30
0.0
 40
2.0
100
AcDbArc
 50
270.0
 51
90.0
  0
LINE
  5
2DE7
330
18
100
AcDbEntity
  8
0
100
AcDbLine
 10
777.9229979864931
 20
654.7515005870195
 30
0.0
 11
783.922997986493
 21
654.7515005870195
 31
0.0
  0
LINE
  5
2DE8
330
18
100
AcDbEntity
  8
0
100
AcDbLine
 10
777.9229979864931
 20
658.7515005870195
 30
0.0
 11
783.922997986493
 21
658.7515005870195
 31
0.0
  0
ARC
  5
2DE9
330
18
100
AcDbEntity
  8
0
100
AcDbCircle
 10
777.9229979864931
 20
656.7515005870196
 30
0.0
 40
2.0
100
AcDbArc
 50
90.0
 51
270.0
  0
LINE
  5
2DEA
330
18
100
AcDbEntity
  8
0
100
AcDbLine
 10
778.9229979864931
 20
677.2515005870196
 30
0.0
 11
787.9229979864931
 21
677.2515005870196
 31
0.0
  0
ARC
  5
2DEB
330
18
100
AcDbEntity
  8
0
100
AcDbCircle
 10
778.9229979864931
 20
680.2515005870195
 30
0.0
 40
3.0
100
AcDbArc
 50
180.0
 51
270.0
  0
LINE
  5
2DEC
330
18
100
AcDbEntity
  8
0
100
AcDbLine
 10
787.9229979864931
 20
677.2515005870196
 30
0.0
 11
789.9229979864931
 21
675.2515005870195
 31
0.0
  0
ARC
  5
2DED
330
18
100
AcDbEntity
  8
0
100
AcDbCircle
 10
763.9035009574454
 20
690.0911493292583
 30
0.0
 40
33.66035125776125
100
AcDbArc
 50
70.05798215649917
 51
109.9420178435008
  0
LINE
  5
2DEE
330
18
100
AcDbEntity
  8
0
100
AcDbLine
 10
752.4229979864931
 20
712.7515005870195
 30
0.0
 11
752.4229979864931
 21
721.7331672536861
 31
0.0
  0
LINE
  5
2DEF
330
18
100
AcDbEntity
  8
0
100
AcDbLine
 10
784.922997986493
 20
695.75150058702
 30
0.0
 11
784.922997986493
 21
721.7331672536861
 31
0.0
  0
ARC
  5
2DF0
330
18
100
AcDbEntity
  8
0
100
AcDbCircle
 10
778.9229979864931
 20
691.7515005870195
 30
0.0
 40
3.0
100
AcDbArc
 50
90.0
 51
180.0
  0
LINE
  5
2DF1
330
18
100
AcDbEntity
  8
0
100
AcDbLine
 10
783.922997986493
 20
694.7515005870195
 30
0.0
 11
784.922997986493
 21
695.7515005870195
 31
0.0
  0
LINE
  5
2DF2
330
18
100
AcDbEntity
  8
0
100
AcDbLine
 10
781.4229979864931
 20
723.7515005870196
 30
0.0
 11
784.922997986493
 21
721.7331672536861
 31
0.0
  0
ARC
  5
2DF3
330
18
100
AcDbEntity
  8
0
100
AcDbCircle
 10
780.1535009574454
 20
717.1070153520973
 30
0.0
 40
6.644500231519874
100
AcDbArc
 50
75.93283644523404
 51
135.8740677452009
  0
LINE
  5
2DF4
330
18
100
AcDbEntity
  8
0
100
AcDbLine
 10
775.3840039283987
 20
721.7331672536861
 30
0.0
 11
775.3840039283987
 21
712.7515005870195
 31
0.0
  0
LINE
  5
2DF5
330
18
100
AcDbEntity
  8
0
100
AcDbLine
 10
787.9229979864931
 20
806.7338320575403
 30
0.0
 11
787.9229979864931
 21
765.7338320575404
 31
0.0
  0
LINE
  5
2DF6
330
18
100
AcDbEntity
  8
0
100
AcDbLine
 10
789.9229979864931
 20
804.7338320575404
 30
0.0
 11
789.9229979864931
 21
786.2338320575404
 31
0.0
  0
LINE
  5
2DF7
330
18
100
AcDbEntity
  8
0
100
AcDbLine
 10
714.9229979864931
 20
804.7338320575404
 30
0.0
 11
714.9229979864931
 21
786.2338320575404
 31
0.0
  0
LINE
  5
2DF8
330
18
100
AcDbEntity
  8
0
100
AcDbLine
 10
716.9229979864931
 20
806.7338320575403
 30
0.0
 11
716.9229979864931
 21
765.7338320575404
 31
0.0
  0
CIRCLE
  5
2DF9
330
18
100
AcDbEntity
  8
0
100
AcDbCircle
 10
752.4229979864931
 20
786.2338320575404
 30
0.0
 40
21.0
  0
CIRCLE
  5
2DFA
330
18
100
AcDbEntity
  8
0
100
AcDbCircle
 10
752.4229979864931
 20
786.2338320575404
 30
0.0
 40
18.5
  0
CIRCLE
  5
2DFB
330
18
100
AcDbEntity
  8
0
100
AcDbCircle
 10
752.4229979864931
 20
786.2338320575404
 30
0.0
 40
29.0
  0
POLYLINE
  5
2DFC
330
18
100
AcDbEntity
  8
0
100
AcDb2dPolyline
 66
     1
 10
0.0
 20
0.0
 30
0.0
 70
     1
  0
VERTEX
  5
31F8
330
2DFC
100
AcDbEntity
  8
0
100
AcDbVertex
100
AcDb2dVertex
 10
729.4619920445875
 20
809.1948379994457
 30
0.0
  0
VERTEX
  5
31F9
330
2DFC
100
AcDbEntity
  8
0
100
AcDbVertex
100
AcDb2dVertex
 10
719.9512319777213
 20
786.2338320575404
 30
0.0
  0
VERTEX
  5
31FA
330
2DFC
100
AcDbEntity
  8
0
100
AcDbVertex
100
AcDb2dVertex
 10
729.4619920445875
 20
763.2728261156349
 30
0.0
  0
VERTEX
  5
31FB
330
2DFC
100
AcDbEntity
  8
0
100
AcDbVertex
100
AcDb2dVertex
 10
752.4229979864931
 20
753.7620660487687
 30
0.0
  0
VERTEX
  5
31FC
330
2DFC
100
AcDbEntity
  8
0
100
AcDbVertex
100
AcDb2dVertex
 10
775.3840039283987
 20
763.2728261156349
 30
0.0
  0
VERTEX
  5
31FD
330
2DFC
100
AcDbEntity
  8
0
100
AcDbVertex
100
AcDb2dVertex
 10
784.8947639952648
 20
786.2338320575404
 30
0.0
  0
VERTEX
  5
31FE
330
2DFC
100
AcDbEntity
  8
0
100
AcDbVertex
100
AcDb2dVertex
 10
775.3840039283987
 20
809.1948379994457
 30
0.0
  0
VERTEX
  5
31FF
330
2DFC
100
AcDbEntity
  8
0
100
AcDbVertex
100
AcDb2dVertex
 10
752.4229979864931
 20
818.7055980663121
 30
0.0
  0
SEQEND
  5
3200
330
2DFC
100
AcDbEntity
  8
0
  0
CIRCLE
  5
2DFD
330
18
100
AcDbEntity
  8
0
100
AcDbCircle
 10
752.4229979864931
 20
786.2338320575404
 30
0.0
 40
32.5
  0
LINE
  5
2DFE
330
18
100
AcDbEntity
  8
0
100
AcDbLine
 10
714.9229979864931
 20
786.2338320575404
 30
0.0
 11
714.9229979864931
 21
767.7338320575404
 31
0.0
  0
ARC
  5
2DFF
330
18
100
AcDbEntity
  8
0
100
AcDbCircle
 10
727.1229979864929
 20
765.5338320575406
 30
0.0
 40
1.8
100
AcDbArc
 50
270.0
 51
316.8923282263958
  0
LINE
  5
2E00
330
18
100
AcDbEntity
  8
0
100
AcDbLine
 10
714.9229979864931
 20
767.7338320575404
 30
0.0
 11
716.9229979864931
 21
765.7338320575404
 31
0.0
  0
LINE
  5
2E01
330
18
100
AcDbEntity
  8
0
100
AcDbLine
 10
720.7229979864933
 20
763.7338320575404
 30
0.0
 11
727.1229979864929
 21
763.7338320575404
 31
0.0
  0
LINE
  5
2E02
330
18
100
AcDbEntity
  8
0
100
AcDbLine
 10
716.9229979864931
 20
765.7338320575404
 30
0.0
 11
727.2039575606559
 21
765.7338320575404
 31
0.0
  0
LINE
  5
2E03
330
18
100
AcDbEntity
  8
0
100
AcDbLine
 10
718.9229979864931
 20
765.7338320575404
 30
0.0
 11
718.9229979864931
 21
765.5338320575406
 31
0.0
  0
ARC
  5
2E04
330
18
100
AcDbEntity
  8
0
100
AcDbCircle
 10
720.7229979864933
 20
765.5338320575406
 30
0.0
 40
1.8
100
AcDbArc
 50
180.0
 51
270.0
  0
LINE
  5
2E05
330
18
100
AcDbEntity
  8
0
100
AcDbLine
 10
789.9229979864931
 20
786.2338320575404
 30
0.0
 11
789.9229979864931
 21
767.7338320575404
 31
0.0
  0
LINE
  5
2E06
330
18
100
AcDbEntity
  8
0
100
AcDbLine
 10
777.6420384123302
 20
765.7338320575404
 30
0.0
 11
787.9229979864931
 21
765.7338320575404
 31
0.0
  0
ARC
  5
2E07
330
18
100
AcDbEntity
  8
0
100
AcDbCircle
 10
784.1229979864928
 20
765.5338320575406
 30
0.0
 40
1.8
100
AcDbArc
 50
270.0
 51
0.0
  0
LINE
  5
2E08
330
18
100
AcDbEntity
  8
0
100
AcDbLine
 10
784.1229979864928
 20
763.7338320575404
 30
0.0
 11
777.7229979864933
 21
763.7338320575404
 31
0.0
  0
ARC
  5
2E09
330
18
100
AcDbEntity
  8
0
100
AcDbCircle
 10
777.7229979864933
 20
765.5338320575406
 30
0.0
 40
1.8
100
AcDbArc
 50
223.1076717736041
 51
270.0
  0
LINE
  5
2E0A
330
18
100
AcDbEntity
  8
0
100
AcDbLine
 10
787.9229979864931
 20
765.7338320575404
 30
0.0
 11
789.9229979864931
 21
767.7338320575404
 31
0.0
  0
LINE
  5
2E0B
330
18
100
AcDbEntity
  8
0
100
AcDbLine
 10
785.9229979864931
 20
765.7338320575404
 30
0.0
 11
785.9229979864931
 21
765.5338320575406
 31
0.0
  0
LINE
  5
2E0C
330
18
100
AcDbEntity
  8
0
100
AcDbLine
 10
716.9229979864931
 20
855.0540480353088
 30
0.0
 11
787.9229979864931
 21
855.0540480353088
 31
0.0
  0
ARC
  5
2E0D
330
18
100
AcDbEntity
  8
0
100
AcDbCircle
 10
727.1229979864929
 20
806.9338320575402
 30
0.0
 40
1.8
100
AcDbArc
 50
43.10767177360405
 51
89.99999999999989
  0
LINE
  5
2E0E
330
18
100
AcDbEntity
  8
0
100
AcDbLine
 10
716.9229979864931
 20
806.7338320575403
 30
0.0
 11
714.9229979864931
 21
804.7338320575404
 31
0.0
  0
LINE
  5
2E0F
330
18
100
AcDbEntity
  8
0
100
AcDbLine
 10
716.9229979864931
 20
806.7338320575403
 30
0.0
 11
727.2039575606559
 21
806.7338320575403
 31
0.0
  0
LINE
  5
2E10
330
18
100
AcDbEntity
  8
0
100
AcDbLine
 10
720.7229979864933
 20
808.7338320575405
 30
0.0
 11
727.1229979864929
 21
808.7338320575405
 31
0.0
  0
ARC
  5
2E11
330
18
100
AcDbEntity
  8
0
100
AcDbCircle
 10
720.7229979864933
 20
806.9338320575402
 30
0.0
 40
1.8
100
AcDbArc
 50
89.99999999999989
 51
179.9999999999998
  0
LINE
  5
2E12
330
18
100
AcDbEntity
  8
0
100
AcDbLine
 10
718.9229979864931
 20
806.7338320575403
 30
0.0
 11
718.9229979864931
 21
806.9338320575402
 31
0.0
  0
LINE
  5
2E13
330
18
100
AcDbEntity
  8
0
100
AcDbLine
 10
726.9229979864931
 20
873.5540480353089
 30
0.0
 11
720.9229979864931
 21
873.5540480353089
 31
0.0
  0
LINE
  5
2E14
330
18
100
AcDbEntity
  8
0
100
AcDbLine
 10
714.9229979864931
 20
857.0540480353088
 30
0.0
 11
716.9229979864931
 21
855.0540480353088
 31
0.0
  0
LINE
  5
2E15
330
18
100
AcDbEntity
  8
0
100
AcDbLine
 10
777.6420384123302
 20
806.7338320575403
 30
0.0
 11
787.9229979864931
 21
806.7338320575403
 31
0.0
  0
ARC
  5
2E16
330
18
100
AcDbEntity
  8
0
100
AcDbCircle
 10
784.1229979864928
 20
806.9338320575402
 30
0.0
 40
1.8
100
AcDbArc
 50
0.0000000000001018
 51
90.0000000000001
  0
LINE
  5
2E17
330
18
100
AcDbEntity
  8
0
100
AcDbLine
 10
784.1229979864928
 20
808.7338320575405
 30
0.0
 11
777.7229979864933
 21
808.7338320575405
 31
0.0
  0
ARC
  5
2E18
330
18
100
AcDbEntity
  8
0
100
AcDbCircle
 10
777.7229979864933
 20
806.9338320575402
 30
0.0
 40
1.8
100
AcDbArc
 50
90.0000000000001
 51
136.8923282263959
  0
LINE
  5
2E19
330
18
100
AcDbEntity
  8
0
100
AcDbLine
 10
787.9229979864931
 20
806.7338320575403
 30
0.0
 11
789.9229979864931
 21
804.7338320575404
 31
0.0
  0
LINE
  5
2E1A
330
18
100
AcDbEntity
  8
0
100
AcDbLine
 10
785.9229979864931
 20
806.7338320575403
 30
0.0
 11
785.9229979864931
 21
806.9338320575402
 31
0.0
  0
LINE
  5
2E1B
330
18
100
AcDbEntity
  8
0
100
AcDbLine
 10
777.9229979864931
 20
873.5540480353089
 30
0.0
 11
783.922997986493
 21
873.5540480353089
 31
0.0
  0
LINE
  5
2E1C
330
18
100
AcDbEntity
  8
0
100
AcDbLine
 10
787.9229979864931
 20
855.0540480353088
 30
0.0
 11
789.9229979864931
 21
857.0540480353088
 31
0.0
  0
LINE
  5
2E1D
330
18
100
AcDbEntity
  8
0
100
AcDbLine
 10
330.9859533804555
 20
910.6963665344341
 30
0.0
 11
330.9859533804555
 21
935.6780332011007
 31
0.0
  0
LINE
  5
2E1E
330
18
100
AcDbEntity
  8
0
100
AcDbLine
 10
321.9859533804556
 20
906.6963665344342
 30
0.0
 11
321.9859533804556
 21
893.6963665344341
 31
0.0
  0
LINE
  5
2E1F
330
18
100
AcDbEntity
  8
0
100
AcDbLine
 10
324.9859533804556
 20
890.6963665344342
 30
0.0
 11
330.4859533804556
 21
890.6963665344342
 31
0.0
  0
ARC
  5
2E20
330
18
100
AcDbEntity
  8
0
100
AcDbCircle
 10
324.9859533804556
 20
893.6963665344341
 30
0.0
 40
3.0
100
AcDbArc
 50
180.0
 51
270.0
  0
LINE
  5
2E21
330
18
100
AcDbEntity
  8
0
100
AcDbLine
 10
330.4859533804556
 20
890.6963665344342
 30
0.0
 11
332.4859533804556
 21
888.6963665344342
 31
0.0
  0
LINE
  5
2E22
330
18
100
AcDbEntity
  8
0
100
AcDbLine
 10
320.4859533804556
 20
876.6963665344341
 30
0.0
 11
326.4859533804556
 21
876.6963665344341
 31
0.0
  0
ARC
  5
2E23
330
18
100
AcDbEntity
  8
0
100
AcDbCircle
 10
324.9859533804556
 20
906.6963665344342
 30
0.0
 40
3.0
100
AcDbArc
 50
90.0
 51
180.0
  0
LINE
  5
2E24
330
18
100
AcDbEntity
  8
0
100
AcDbLine
 10
329.9859533804556
 20
909.6963665344341
 30
0.0
 11
330.9859533804555
 21
910.6963665344341
 31
0.0
  0
ARC
  5
2E25
330
18
100
AcDbEntity
  8
0
100
AcDbCircle
 10
326.2164563514084
 20
931.051881299512
 30
0.0
 40
6.644500231519874
100
AcDbArc
 50
75.93283644523404
 51
135.8740677452009
  0
LINE
  5
2E26
330
18
100
AcDbEntity
  8
0
100
AcDbLine
 10
327.4859533804556
 20
937.6963665344343
 30
0.0
 11
330.9859533804555
 21
935.6780332011007
 31
0.0
  0
LINE
  5
2E27
330
18
100
AcDbEntity
  8
0
100
AcDbLine
 10
321.4469593223611
 20
935.6780332011007
 30
0.0
 11
321.4469593223611
 21
926.6963665344341
 31
0.0
  0
ARC
  5
2E28
330
18
100
AcDbEntity
  8
0
100
AcDbCircle
 10
740.9424950155408
 20
908.8936967775476
 30
0.0
 40
33.66035125776125
100
AcDbArc
 50
70.05798215649914
 51
109.9420178435008
  0
LINE
  5
2E29
330
18
100
AcDbEntity
  8
0
100
AcDbLine
 10
720.9229979864931
 20
913.5540480353087
 30
0.0
 11
783.922997986493
 21
913.5540480353087
 31
0.0
  0
LINE
  5
2E2A
330
18
100
AcDbEntity
  8
0
100
AcDbLine
 10
719.9229979864931
 20
931.5540480353089
 30
0.0
 11
784.922997986493
 21
931.5540480353089
 31
0.0
  0
LINE
  5
2E2B
330
18
100
AcDbEntity
  8
0
100
AcDbLine
 10
781.4229979864931
 20
942.5540480353088
 30
0.0
 11
723.4229979864931
 21
942.5540480353088
 31
0.0
  0
ARC
  5
2E2C
330
18
100
AcDbEntity
  8
0
100
AcDbCircle
 10
752.4229979864931
 20
934.0818119104058
 30
0.0
 40
42.49999999999998
100
AcDbArc
 50
241.927513064147
 51
298.0724869358529
  0
LINE
  5
2E2D
330
18
100
AcDbEntity
  8
0
100
AcDbLine
 10
719.9229979864931
 20
914.5540480353089
 30
0.0
 11
719.9229979864931
 21
940.5357147019755
 31
0.0
  0
LINE
  5
2E2E
330
18
100
AcDbEntity
  8
0
100
AcDbLine
 10
716.9229979864931
 20
896.0540480353088
 30
0.0
 11
714.9229979864931
 21
894.0540480353089
 31
0.0
  0
LINE
  5
2E2F
330
18
100
AcDbEntity
  8
0
100
AcDbLine
 10
714.9229979864931
 20
894.0540480353089
 30
0.0
 11
714.9229979864931
 21
875.5540480353088
 31
0.0
  0
LINE
  5
2E30
330
18
100
AcDbEntity
  8
0
100
AcDbLine
 10
726.9229979864931
 20
877.5540480353088
 30
0.0
 11
720.9229979864931
 21
877.5540480353088
 31
0.0
  0
ARC
  5
2E31
330
18
100
AcDbEntity
  8
0
100
AcDbCircle
 10
725.922997986493
 20
910.5540480353088
 30
0.0
 40
3.0
100
AcDbArc
 50
0.0
 51
90.0
  0
ARC
  5
2E32
330
18
100
AcDbEntity
  8
0
100
AcDbCircle
 10
725.922997986493
 20
899.0540480353088
 30
0.0
 40
3.0
100
AcDbArc
 50
270.0
 51
0.0
  0
LINE
  5
2E33
330
18
100
AcDbEntity
  8
0
100
AcDbLine
 10
720.9229979864931
 20
913.5540480353087
 30
0.0
 11
719.9229979864931
 21
914.5540480353089
 31
0.0
  0
LINE
  5
2E34
330
18
100
AcDbEntity
  8
0
100
AcDbLine
 10
716.9229979864931
 20
896.0540480353088
 30
0.0
 11
725.922997986493
 21
896.0540480353088
 31
0.0
  0
LINE
  5
2E35
330
18
100
AcDbEntity
  8
0
100
AcDbLine
 10
728.9229979864931
 20
910.5540480353088
 30
0.0
 11
728.9229979864931
 21
899.0540480353088
 31
0.0
  0
LINE
  5
2E36
330
18
100
AcDbEntity
  8
0
100
AcDbLine
 10
729.4619920445875
 20
940.5357147019755
 30
0.0
 11
729.4619920445875
 21
931.5540480353089
 31
0.0
  0
ARC
  5
2E37
330
18
100
AcDbEntity
  8
0
100
AcDbCircle
 10
724.6924950155407
 20
935.9095628003865
 30
0.0
 40
6.644500231519874
100
AcDbArc
 50
44.12593225479906
 51
104.0671635547661
  0
LINE
  5
2E38
330
18
100
AcDbEntity
  8
0
100
AcDbLine
 10
719.9229979864931
 20
940.5357147019755
 30
0.0
 11
723.4229979864931
 21
942.5540480353088
 31
0.0
  0
LINE
  5
2E39
330
18
100
AcDbEntity
  8
0
100
AcDbLine
 10
784.922997986493
 20
914.5540480353092
 30
0.0
 11
784.922997986493
 21
940.5357147019755
 31
0.0
  0
LINE
  5
2E3A
330
18
100
AcDbEntity
  8
0
100
AcDbLine
 10
787.9229979864931
 20
896.0540480353088
 30
0.0
 11
789.9229979864931
 21
894.0540480353089
 31
0.0
  0
LINE
  5
2E3B
330
18
100
AcDbEntity
  8
0
100
AcDbLine
 10
777.9229979864931
 20
877.5540480353088
 30
0.0
 11
783.922997986493
 21
877.5540480353088
 31
0.0
  0
LINE
  5
2E3C
330
18
100
AcDbEntity
  8
0
100
AcDbLine
 10
789.9229979864931
 20
894.0540480353089
 30
0.0
 11
789.9229979864931
 21
875.5540480353088
 31
0.0
  0
LINE
  5
2E3D
330
18
100
AcDbEntity
  8
0
100
AcDbLine
 10
778.9229979864931
 20
896.0540480353088
 30
0.0
 11
787.9229979864931
 21
896.0540480353088
 31
0.0
  0
LINE
  5
2E3E
330
18
100
AcDbEntity
  8
0
100
AcDbLine
 10
783.922997986493
 20
913.5540480353087
 30
0.0
 11
784.922997986493
 21
914.5540480353089
 31
0.0
  0
ARC
  5
2E3F
330
18
100
AcDbEntity
  8
0
100
AcDbCircle
 10
778.9229979864931
 20
910.5540480353088
 30
0.0
 40
3.0
100
AcDbArc
 50
90.0
 51
180.0
  0
ARC
  5
2E40
330
18
100
AcDbEntity
  8
0
100
AcDbCircle
 10
778.9229979864931
 20
899.0540480353088
 30
0.0
 40
3.0
100
AcDbArc
 50
180.0
 51
270.0
  0
LINE
  5
2E41
330
18
100
AcDbEntity
  8
0
100
AcDbLine
 10
775.922997986493
 20
910.5540480353088
 30
0.0
 11
775.922997986493
 21
899.0540480353088
 31
0.0
  0
ARC
  5
2E42
330
18
100
AcDbEntity
  8
0
100
AcDbCircle
 10
763.9035009574454
 20
908.8936967775476
 30
0.0
 40
33.66035125776125
100
AcDbArc
 50
70.05798215649917
 51
109.9420178435008
  0
LINE
  5
2E43
330
18
100
AcDbEntity
  8
0
100
AcDbLine
 10
752.4229979864931
 20
931.5540480353089
 30
0.0
 11
752.4229979864931
 21
940.5357147019755
 31
0.0
  0
LINE
  5
2E44
330
18
100
AcDbEntity
  8
0
100
AcDbLine
 10
775.3840039283987
 20
940.5357147019755
 30
0.0
 11
775.3840039283987
 21
931.5540480353089
 31
0.0
  0
ARC
  5
2E45
330
18
100
AcDbEntity
  8
0
100
AcDbCircle
 10
780.1535009574454
 20
935.9095628003865
 30
0.0
 40
6.644500231519874
100
AcDbArc
 50
75.93283644523404
 51
135.8740677452009
  0
LINE
  5
2E46
330
18
100
AcDbEntity
  8
0
100
AcDbLine
 10
781.4229979864931
 20
942.5540480353088
 30
0.0
 11
784.922997986493
 21
940.5357147019755
 31
0.0
  0
LINE
  5
2E47
330
18
100
AcDbEntity
  8
0
100
AcDbLine
 10
1199.441640324067
 20
242.8992794452797
 30
0.0
 11
1199.441640324067
 21
267.8809461119462
 31
0.0
  0
LINE
  5
2E48
330
18
100
AcDbEntity
  8
0
100
AcDbLine
 10
1264.441640324067
 20
242.8992794452797
 30
0.0
 11
1264.441640324067
 21
267.8809461119462
 31
0.0
  0
LINE
  5
2E49
330
18
100
AcDbEntity
  8
0
100
AcDbLine
 10
1076.701403400227
 20
242.8992794452797
 30
0.0
 11
1076.701403400227
 21
267.8809461119462
 31
0.0
  0
LINE
  5
2E4A
330
18
100
AcDbEntity
  8
0
100
AcDbLine
 10
827.1210256145277
 20
235.8992794452797
 30
0.0
 11
827.1210256145277
 21
260.8809461119462
 31
0.0
  0
LINE
  5
2E4B
330
18
100
AcDbEntity
  8
0
100
AcDbLine
 10
892.1210256145277
 20
235.8992794452797
 30
0.0
 11
892.1210256145277
 21
260.8809461119462
 31
0.0
  0
LINE
  5
2E4C
330
18
100
AcDbEntity
  8
0
100
AcDbLine
 10
1011.701403400227
 20
242.8992794452797
 30
0.0
 11
1011.701403400227
 21
267.8809461119462
 31
0.0
  0
CIRCLE
  5
2E4D
330
18
100
AcDbEntity
  8
0
100
AcDbCircle
 10
1044.201403400227
 20
184.8992794452797
 30
0.0
 40
40.0
  0
CIRCLE
  5
2E4E
330
18
100
AcDbEntity
  8
0
100
AcDbCircle
 10
1044.201403400227
 20
184.8992794452797
 30
0.0
 40
42.0
  0
ARC
  5
2E4F
330
18
100
AcDbEntity
  8
0
100
AcDbCircle
 10
827.6210256145278
 20
168.8992794452797
 30
0.0
 40
1.0
100
AcDbArc
 50
180.0
 51
270.0
  0
LINE
  5
2E50
330
18
100
AcDbEntity
  8
0
100
AcDbLine
 10
804.2140490579113
 20
184.8992794452797
 30
0.0
 11
804.2140490579113
 21
151.8992794452797
 31
0.0
  0
LINE
  5
2E51
330
18
100
AcDbEntity
  8
0
100
AcDbLine
 10
802.2140490579113
 20
219.8992794452797
 30
0.0
 11
802.2140490579113
 21
149.8992794452797
 31
0.0
  0
CIRCLE
  5
2E52
330
18
100
AcDbEntity
  8
0
100
AcDbCircle
 10
859.6210256145278
 20
184.8992794452797
 30
0.0
 40
35.0
  0
CIRCLE
  5
2E53
330
18
100
AcDbEntity
  8
0
100
AcDbCircle
 10
859.6210256145278
 20
184.8992794452797
 30
0.0
 40
33.0
  0
LINE
  5
2E54
330
18
100
AcDbEntity
  8
0
100
AcDbLine
 10
804.2140490579113
 20
151.8992794452797
 30
0.0
 11
802.2140490579113
 21
149.8992794452797
 31
0.0
  0
LINE
  5
2E55
330
18
100
AcDbEntity
  8
0
100
AcDbLine
 10
827.6210256145278
 20
167.8992794452797
 30
0.0
 11
829.0269085329709
 21
167.8992794452797
 31
0.0
  0
LINE
  5
2E56
330
18
100
AcDbEntity
  8
0
100
AcDbLine
 10
828.1210256145277
 20
234.8992794452797
 30
0.0
 11
891.1210256145277
 21
234.8992794452797
 31
0.0
  0
LINE
  5
2E57
330
18
100
AcDbEntity
  8
0
100
AcDbLine
 10
804.2140490579113
 20
217.8992794452797
 30
0.0
 11
804.2140490579113
 21
184.8992794452797
 31
0.0
  0
ARC
  5
2E58
330
18
100
AcDbEntity
  8
0
100
AcDbCircle
 10
824.6210256145277
 20
184.8992794452797
 30
0.0
 40
2.0
100
AcDbArc
 50
88.36275492221991
 51
271.63724507778
  0
LINE
  5
2E59
330
18
100
AcDbEntity
  8
0
100
AcDbLine
 10
826.6210256145278
 20
173.2373756555898
 30
0.0
 11
826.6210256145278
 21
168.8992794452797
 31
0.0
  0
LINE
  5
2E5A
330
18
100
AcDbEntity
  8
0
100
AcDbLine
 10
827.6210256145278
 20
201.8992794452797
 30
0.0
 11
829.0269085329709
 21
201.8992794452797
 31
0.0
  0
ARC
  5
2E5B
330
18
100
AcDbEntity
  8
0
100
AcDbCircle
 10
827.6210256145278
 20
200.8992794452796
 30
0.0
 40
1.0
100
AcDbArc
 50
90.0
 51
180.0000000000097
  0
LINE
  5
2E5C
330
18
100
AcDbEntity
  8
0
100
AcDbLine
 10
826.6210256145278
 20
200.8992794452796
 30
0.0
 11
826.6210256145296
 21
196.5611832349741
 31
0.0
  0
LINE
  5
2E5D
330
18
100
AcDbEntity
  8
0
100
AcDbLine
 10
802.2140490579113
 20
219.8992794452797
 30
0.0
 11
804.2140490579113
 21
217.8992794452797
 31
0.0
  0
LINE
  5
2E5E
330
18
100
AcDbEntity
  8
0
100
AcDbLine
 10
828.1210256145277
 20
234.8992794452797
 30
0.0
 11
827.1210256145277
 21
235.8992794452797
 31
0.0
  0
LINE
  5
2E5F
330
18
100
AcDbEntity
  8
0
100
AcDbLine
 10
836.1210256145277
 20
231.8992794452797
 30
0.0
 11
836.1210256145277
 21
217.8992794452801
 31
0.0
  0
ARC
  5
2E60
330
18
100
AcDbEntity
  8
0
100
AcDbCircle
 10
842.1210256145277
 20
217.8992794452801
 30
0.0
 40
6.0
100
AcDbArc
 50
180.0
 51
235.3330595164675
  0
ARC
  5
2E61
330
18
100
AcDbEntity
  8
0
100
AcDbCircle
 10
833.1210256145286
 20
231.8992794452797
 30
0.0
 40
3.0
100
AcDbArc
 50
0.0
 51
90.0
  0
ARC
  5
2E62
330
18
100
AcDbEntity
  8
0
100
AcDbCircle
 10
894.6210256145278
 20
184.8992794452797
 30
0.0
 40
2.0
100
AcDbArc
 50
268.3627549222199
 51
91.63724507778008
  0
LINE
  5
2E63
330
18
100
AcDbEntity
  8
0
100
AcDbLine
 10
883.1210256145286
 20
231.8992794452797
 30
0.0
 11
883.1210256145277
 21
217.8992794452797
 31
0.0
  0
ARC
  5
2E64
330
18
100
AcDbEntity
  8
0
100
AcDbCircle
 10
877.1210256145277
 20
217.8992794452797
 30
0.0
 40
6.0
100
AcDbArc
 50
304.6669404835421
 51
0.0
  0
ARC
  5
2E65
330
18
100
AcDbEntity
  8
0
100
AcDbCircle
 10
886.1210256145286
 20
231.8992794452797
 30
0.0
 40
3.0
100
AcDbArc
 50
90.0
 51
180.0
  0
LINE
  5
2E66
330
18
100
AcDbEntity
  8
0
100
AcDbLine
 10
891.1210256145277
 20
234.8992794452797
 30
0.0
 11
892.1210256145277
 21
235.8992794452797
 31
0.0
  0
ARC
  5
2E67
330
18
100
AcDbEntity
  8
0
100
AcDbCircle
 10
1002.201403400227
 20
184.8992794452797
 30
0.0
 40
2.0
100
AcDbArc
 50
88.63568584932798
 51
271.3643141506719
  0
LINE
  5
2E68
330
18
100
AcDbEntity
  8
0
100
AcDbLine
 10
1170.941640324067
 20
226.8992794452797
 30
0.0
 11
1194.941640324067
 21
226.8992794452797
 31
0.0
  0
LINE
  5
2E69
330
18
100
AcDbEntity
  8
0
100
AcDbLine
 10
1175.941640324067
 20
182.8992794452797
 30
0.0
 11
1189.941640324067
 21
182.8992794452797
 31
0.0
  0
LINE
  5
2E6A
330
18
100
AcDbEntity
  8
0
100
AcDbLine
 10
1175.941640324067
 20
186.8992794452797
 30
0.0
 11
1189.941640324067
 21
186.8992794452797
 31
0.0
  0
LINE
  5
2E6B
330
18
100
AcDbEntity
  8
0
100
AcDbLine
 10
1170.941640324067
 20
142.8992794452797
 30
0.0
 11
1194.941640324067
 21
142.8992794452797
 31
0.0
  0
ARC
  5
2E6C
330
18
100
AcDbEntity
  8
0
100
AcDbCircle
 10
1083.201403400226
 20
168.8992794452788
 30
0.0
 40
1.0
100
AcDbArc
 50
270.0
 51
0.000000000000007
  0
LINE
  5
2E6D
330
18
100
AcDbEntity
  8
0
100
AcDbLine
 10
1168.941640324067
 20
184.8992794452797
 30
0.0
 11
1168.941640324067
 21
144.8992794452797
 31
0.0
  0
LINE
  5
2E6E
330
18
100
AcDbEntity
  8
0
100
AcDbLine
 10
1170.941640324067
 20
226.8992794452797
 30
0.0
 11
1170.941640324067
 21
142.8992794452797
 31
0.0
  0
LINE
  5
2E6F
330
18
100
AcDbEntity
  8
0
100
AcDbLine
 10
1083.201403400226
 20
167.8992794452788
 30
0.0
 11
1082.60713213957
 21
167.8992794452792
 31
0.0
  0
LINE
  5
2E70
330
18
100
AcDbEntity
  8
0
100
AcDbLine
 10
1168.941640324067
 20
144.8992794452797
 30
0.0
 11
1170.941640324067
 21
142.8992794452797
 31
0.0
  0
ARC
  5
2E71
330
18
100
AcDbEntity
  8
0
100
AcDbCircle
 10
1070.701403400226
 20
238.8992794452797
 30
0.0
 40
3.0
100
AcDbArc
 50
90.0
 51
180.0
  0
LINE
  5
2E72
330
18
100
AcDbEntity
  8
0
100
AcDbLine
 10
1075.701403400227
 20
241.8992794452797
 30
0.0
 11
1012.701403400227
 21
241.8992794452797
 31
0.0
  0
LINE
  5
2E73
330
18
100
AcDbEntity
  8
0
100
AcDbLine
 10
1020.701403400227
 20
238.8992794452797
 30
0.0
 11
1020.701403400227
 21
224.8992794452801
 31
0.0
  0
ARC
  5
2E74
330
18
100
AcDbEntity
  8
0
100
AcDbCircle
 10
1026.701403400227
 20
224.8992794452801
 30
0.0
 40
6.0
100
AcDbArc
 50
180.0
 51
223.5195854941746
  0
ARC
  5
2E75
330
18
100
AcDbEntity
  8
0
100
AcDbCircle
 10
1017.701403400228
 20
238.8992794452797
 30
0.0
 40
3.0
100
AcDbArc
 50
0.000000000000007
 51
90.0
  0
LINE
  5
2E76
330
18
100
AcDbEntity
  8
0
100
AcDbLine
 10
1012.701403400227
 20
241.8992794452797
 30
0.0
 11
1011.701403400227
 21
242.8992794452797
 31
0.0
  0
LINE
  5
2E77
330
18
100
AcDbEntity
  8
0
100
AcDbLine
 10
1067.701403400227
 20
238.8992794452797
 30
0.0
 11
1067.701403400227
 21
224.8992794452801
 31
0.0
  0
ARC
  5
2E78
330
18
100
AcDbEntity
  8
0
100
AcDbCircle
 10
1061.701403400227
 20
224.8992794452801
 30
0.0
 40
6.0
100
AcDbArc
 50
316.4804145058253
 51
0.000000000000007
  0
LINE
  5
2E79
330
18
100
AcDbEntity
  8
0
100
AcDbLine
 10
1168.941640324067
 20
224.8992794452797
 30
0.0
 11
1168.941640324067
 21
184.8992794452797
 31
0.0
  0
ARC
  5
2E7A
330
18
100
AcDbEntity
  8
0
100
AcDbCircle
 10
1086.201403400227
 20
184.8992794452797
 30
0.0
 40
2.0
100
AcDbArc
 50
268.6356858493279
 51
91.36431415067203
  0
LINE
  5
2E7B
330
18
100
AcDbEntity
  8
0
100
AcDbLine
 10
1084.201403400226
 20
172.0930309704112
 30
0.0
 11
1084.201403400226
 21
168.8992794452788
 31
0.0
  0
LINE
  5
2E7C
330
18
100
AcDbEntity
  8
0
100
AcDbLine
 10
1083.201403400226
 20
201.8992794452797
 30
0.0
 11
1082.607132139571
 21
201.8992794452797
 31
0.0
  0
ARC
  5
2E7D
330
18
100
AcDbEntity
  8
0
100
AcDbCircle
 10
1083.201403400226
 20
200.8992794452796
 30
0.0
 40
1.0
100
AcDbArc
 50
0.000000000000007
 51
90.0
  0
LINE
  5
2E7E
330
18
100
AcDbEntity
  8
0
100
AcDbLine
 10
1084.201403400226
 20
200.8992794452796
 30
0.0
 11
1084.201403400226
 21
197.7055279201472
 31
0.0
  0
ARC
  5
2E7F
330
18
100
AcDbEntity
  8
0
100
AcDbCircle
 10
1175.941640324067
 20
184.8992794452797
 30
0.0
 40
2.0
100
AcDbArc
 50
90.0
 51
270.0
  0
LINE
  5
2E80
330
18
100
AcDbEntity
  8
0
100
AcDbLine
 10
1075.701403400227
 20
241.8992794452797
 30
0.0
 11
1076.701403400227
 21
242.8992794452797
 31
0.0
  0
LINE
  5
2E81
330
18
100
AcDbEntity
  8
0
100
AcDbLine
 10
1170.941640324067
 20
226.8992794452797
 30
0.0
 11
1168.941640324067
 21
224.8992794452797
 31
0.0
  0
ARC
  5
2E82
330
18
100
AcDbEntity
  8
0
100
AcDbCircle
 10
1255.941640324067
 20
169.8992794452797
 30
0.0
 40
2.0
100
AcDbArc
 50
270.0
 51
0.0000000000001018
  0
ARC
  5
2E83
330
18
100
AcDbEntity
  8
0
100
AcDbCircle
 10
1207.941640324067
 20
169.8992794452797
 30
0.0
 40
2.0
100
AcDbArc
 50
179.9999999999998
 51
270.0
  0
LINE
  5
2E84
330
18
100
AcDbEntity
  8
0
100
AcDbLine
 10
1196.941640324067
 20
224.8992794452797
 30
0.0
 11
1196.941640324067
 21
144.8992794452797
 31
0.0
  0
LINE
  5
2E85
330
18
100
AcDbEntity
  8
0
100
AcDbLine
 10
1294.941640324067
 20
184.8992794452797
 30
0.0
 11
1294.941640324067
 21
144.8992794452797
 31
0.0
  0
LINE
  5
2E86
330
18
100
AcDbEntity
  8
0
100
AcDbLine
 10
1292.941640324067
 20
226.8992794452797
 30
0.0
 11
1292.941640324067
 21
142.8992794452797
 31
0.0
  0
LINE
  5
2E87
330
18
100
AcDbEntity
  8
0
100
AcDbLine
 10
1266.941640324067
 20
224.8992794452797
 30
0.0
 11
1266.941640324067
 21
144.8992794452797
 31
0.0
  0
LINE
  5
2E88
330
18
100
AcDbEntity
  8
0
100
AcDbLine
 10
1207.941640324067
 20
167.8992794452797
 30
0.0
 11
1255.941640324067
 21
167.8992794452797
 31
0.0
  0
TEXT
  5
2E89
330
18
100
AcDbEntity
  8
0
100
AcDbText
 10
1219.272247030553
 20
105.8079630759052
 30
0.0
 40
15.0
  1
50A
 41
0.8
 11
1219.272247030553
 21
105.8079630759052
 31
0.0
100
AcDbText
 73
     1
  0
LINE
  5
2E8A
330
18
100
AcDbEntity
  8
0
100
AcDbLine
 10
1198.814623670283
 20
145.8992794452797
 30
0.0
 11
1265.068656977851
 21
145.8992794452797
 31
0.0
  0
ARC
  5
2E8B
330
18
100
AcDbEntity
  8
0
100
AcDbCircle
 10
1198.814623670283
 20
143.8992794452797
 30
0.0
 40
2.0
100
AcDbArc
 50
90.0
 51
165.5224878140976
  0
ARC
  5
2E8C
330
18
100
AcDbEntity
  8
0
100
AcDbCircle
 10
1194.941640324067
 20
144.8992794452797
 30
0.0
 40
2.0
100
AcDbArc
 50
270.0
 51
345.5224878141005
  0
LINE
  5
2E8D
330
18
100
AcDbEntity
  8
0
100
AcDbLine
 10
1268.941640324067
 20
142.8992794452797
 30
0.0
 11
1292.941640324067
 21
142.8992794452797
 31
0.0
  0
ARC
  5
2E8E
330
18
100
AcDbEntity
  8
0
100
AcDbCircle
 10
1265.068656977851
 20
143.8992794452797
 30
0.0
 40
2.0
100
AcDbArc
 50
14.47751218590165
 51
90.0
  0
ARC
  5
2E8F
330
18
100
AcDbEntity
  8
0
100
AcDbCircle
 10
1268.941640324067
 20
144.8992794452797
 30
0.0
 40
2.0
100
AcDbArc
 50
194.4775121859026
 51
270.0
  0
LINE
  5
2E90
330
18
100
AcDbEntity
  8
0
100
AcDbLine
 10
1292.941640324067
 20
142.8992794452797
 30
0.0
 11
1294.941640324067
 21
144.8992794452797
 31
0.0
  0
LINE
  5
2E91
330
18
100
AcDbEntity
  8
0
100
AcDbLine
 10
1207.941640324067
 20
201.8992794452797
 30
0.0
 11
1255.941640324067
 21
201.8992794452797
 31
0.0
  0
ARC
  5
2E92
330
18
100
AcDbEntity
  8
0
100
AcDbCircle
 10
1231.941640324067
 20
291.6242794452809
 30
0.0
 40
72.72500000000093
100
AcDbArc
 50
252.64854610527
 51
287.35145389473
  0
LINE
  5
2E93
330
18
100
AcDbEntity
  8
0
100
AcDbLine
 10
1200.441640324067
 20
241.8992794452797
 30
0.0
 11
1263.441640324067
 21
241.8992794452797
 31
0.0
  0
LINE
  5
2E94
330
18
100
AcDbEntity
  8
0
100
AcDbLine
 10
1205.941640324067
 20
199.8992794452797
 30
0.0
 11
1205.941640324067
 21
169.8992794452797
 31
0.0
  0
ARC
  5
2E95
330
18
100
AcDbEntity
  8
0
100
AcDbCircle
 10
1189.941640324067
 20
184.8992794452797
 30
0.0
 40
2.0
100
AcDbArc
 50
270.0
 51
90.0
  0
ARC
  5
2E96
330
18
100
AcDbEntity
  8
0
100
AcDbCircle
 10
1207.941640324067
 20
199.8992794452797
 30
0.0
 40
2.0
100
AcDbArc
 50
90.0
 51
179.9999999999999
  0
LINE
  5
2E97
330
18
100
AcDbEntity
  8
0
100
AcDbLine
 10
1208.441640324067
 20
241.8992794452797
 30
0.0
 11
1208.441640324067
 21
226.8992794452797
 31
0.0
  0
ARC
  5
2E98
330
18
100
AcDbEntity
  8
0
100
AcDbCircle
 10
1198.81462367026
 20
225.8992794452797
 30
0.0
 40
2.0
100
AcDbArc
 50
194.4775121859784
 51
270.0
  0
ARC
  5
2E99
330
18
100
AcDbEntity
  8
0
100
AcDbCircle
 10
1194.941640324067
 20
224.8992794452797
 30
0.0
 40
2.0
100
AcDbArc
 50
14.47751218598001
 51
90.0
  0
ARC
  5
2E9A
330
18
100
AcDbEntity
  8
0
100
AcDbCircle
 10
1205.441640324067
 20
226.8992794452797
 30
0.0
 40
3.0
100
AcDbArc
 50
270.0
 51
0.0
  0
LINE
  5
2E9B
330
18
100
AcDbEntity
  8
0
100
AcDbLine
 10
1198.81462367026
 20
223.8992794452797
 30
0.0
 11
1205.441640324067
 21
223.8992794452797
 31
0.0
  0
LINE
  5
2E9C
330
18
100
AcDbEntity
  8
0
100
AcDbLine
 10
1200.441640324067
 20
241.8992794452797
 30
0.0
 11
1199.441640324067
 21
242.8992794452797
 31
0.0
  0
LINE
  5
2E9D
330
18
100
AcDbEntity
  8
0
100
AcDbLine
 10
1294.941640324067
 20
224.8992794452797
 30
0.0
 11
1294.941640324067
 21
184.8992794452797
 31
0.0
  0
LINE
  5
2E9E
330
18
100
AcDbEntity
  8
0
100
AcDbLine
 10
1257.941640324067
 20
199.8992794452797
 30
0.0
 11
1257.941640324067
 21
169.8992794452797
 31
0.0
  0
ARC
  5
2E9F
330
18
100
AcDbEntity
  8
0
100
AcDbCircle
 10
1255.941640324067
 20
199.8992794452797
 30
0.0
 40
2.0
100
AcDbArc
 50
0.0000000000002036
 51
90.0000000000001
  0
LINE
  5
2EA0
330
18
100
AcDbEntity
  8
0
100
AcDbLine
 10
1287.941640324067
 20
186.8992794452797
 30
0.0
 11
1273.941640324067
 21
186.8992794452797
 31
0.0
  0
LINE
  5
2EA1
330
18
100
AcDbEntity
  8
0
100
AcDbLine
 10
1287.941640324067
 20
182.8992794452797
 30
0.0
 11
1273.941640324067
 21
182.8992794452797
 31
0.0
  0
ARC
  5
2EA2
330
18
100
AcDbEntity
  8
0
100
AcDbCircle
 10
1273.941640324067
 20
184.8992794452797
 30
0.0
 40
2.0
100
AcDbArc
 50
90.0
 51
270.0
  0
ARC
  5
2EA3
330
18
100
AcDbEntity
  8
0
100
AcDbCircle
 10
1287.941640324067
 20
184.8992794452797
 30
0.0
 40
2.0
100
AcDbArc
 50
270.0
 51
90.0
  0
LINE
  5
2EA4
330
18
100
AcDbEntity
  8
0
100
AcDbLine
 10
1268.941640324067
 20
226.8992794452797
 30
0.0
 11
1292.941640324067
 21
226.8992794452797
 31
0.0
  0
LINE
  5
2EA5
330
18
100
AcDbEntity
  8
0
100
AcDbLine
 10
1255.441640324067
 20
241.8992794452797
 30
0.0
 11
1255.441640324067
 21
226.8992794452797
 31
0.0
  0
ARC
  5
2EA6
330
18
100
AcDbEntity
  8
0
100
AcDbCircle
 10
1258.441640324067
 20
226.8992794452797
 30
0.0
 40
3.0
100
AcDbArc
 50
180.0
 51
270.0
  0
ARC
  5
2EA7
330
18
100
AcDbEntity
  8
0
100
AcDbCircle
 10
1265.068656977852
 20
225.8992794452797
 30
0.0
 40
2.0
100
AcDbArc
 50
270.0
 51
345.5224878140982
  0
LINE
  5
2EA8
330
18
100
AcDbEntity
  8
0
100
AcDbLine
 10
1258.441640324067
 20
223.8992794452797
 30
0.0
 11
1265.068656977852
 21
223.8992794452797
 31
0.0
  0
ARC
  5
2EA9
330
18
100
AcDbEntity
  8
0
100
AcDbCircle
 10
1268.941640324067
 20
224.8992794452797
 30
0.0
 40
2.0
100
AcDbArc
 50
90.0
 51
165.5224878140973
  0
LINE
  5
2EAA
330
18
100
AcDbEntity
  8
0
100
AcDbLine
 10
1263.441640324067
 20
241.8992794452797
 30
0.0
 11
1264.441640324067
 21
242.8992794452797
 31
0.0
  0
LINE
  5
2EAB
330
18
100
AcDbEntity
  8
0
100
AcDbLine
 10
1292.941640324067
 20
226.8992794452797
 30
0.0
 11
1294.941640324067
 21
224.8992794452797
 31
0.0
  0
LINE
  5
2EAC
330
18
100
AcDbEntity
  8
0
100
AcDbLine
 10
802.2140490579113
 20
386.4682772650858
 30
0.0
 11
802.2140490579113
 21
316.4682772650858
 31
0.0
  0
LINE
  5
2EAD
330
18
100
AcDbEntity
  8
0
100
AcDbLine
 10
804.2140490579113
 20
351.4682772650858
 30
0.0
 11
804.2140490579113
 21
318.4682772650858
 31
0.0
  0
LINE
  5
2EAE
330
18
100
AcDbEntity
  8
0
100
AcDbLine
 10
888.6210256145277
 20
262.8992794452797
 30
0.0
 11
830.6210256145277
 21
262.8992794452797
 31
0.0
  0
ARC
  5
2EAF
330
18
100
AcDbEntity
  8
0
100
AcDbCircle
 10
848.1405226435754
 20
229.2389281875184
 30
0.0
 40
33.66035125776125
100
AcDbArc
 50
70.05798215649914
 51
109.9420178435008
  0
LINE
  5
2EB0
330
18
100
AcDbEntity
  8
0
100
AcDbLine
 10
827.1210256145277
 20
251.8992794452797
 30
0.0
 11
892.1210256145277
 21
251.8992794452797
 31
0.0
  0
LINE
  5
2EB1
330
18
100
AcDbEntity
  8
0
100
AcDbLine
 10
827.1210256145277
 20
260.8809461119462
 30
0.0
 11
830.6210256145277
 21
262.8992794452797
 31
0.0
  0
ARC
  5
2EB2
330
18
100
AcDbEntity
  8
0
100
AcDbCircle
 10
831.8905226435754
 20
256.2547942103574
 30
0.0
 40
6.644500231519874
100
AcDbArc
 50
44.12593225479906
 51
104.0671635547661
  0
LINE
  5
2EB3
330
18
100
AcDbEntity
  8
0
100
AcDbLine
 10
836.6600196726221
 20
260.8809461119462
 30
0.0
 11
836.6600196726221
 21
251.8992794452797
 31
0.0
  0
LINE
  5
2EB4
330
18
100
AcDbEntity
  8
0
100
AcDbLine
 10
804.2140490579113
 20
318.4682772650858
 30
0.0
 11
802.2140490579113
 21
316.4682772650858
 31
0.0
  0
ARC
  5
2EB5
330
18
100
AcDbEntity
  8
0
100
AcDbCircle
 10
887.35152858548
 20
256.2547942103574
 30
0.0
 40
6.644500231519874
100
AcDbArc
 50
75.93283644523404
 51
135.8740677452009
  0
ARC
  5
2EB6
330
18
100
AcDbEntity
  8
0
100
AcDbCircle
 10
871.10152858548
 20
229.2389281875184
 30
0.0
 40
33.66035125776125
100
AcDbArc
 50
70.05798215649917
 51
109.9420178435008
  0
LINE
  5
2EB7
330
18
100
AcDbEntity
  8
0
100
AcDbLine
 10
859.6210256145278
 20
251.8992794452797
 30
0.0
 11
859.6210256145278
 21
260.8809461119462
 31
0.0
  0
LINE
  5
2EB8
330
18
100
AcDbEntity
  8
0
100
AcDbLine
 10
882.5820315564333
 20
260.8809461119462
 30
0.0
 11
882.5820315564333
 21
251.8992794452797
 31
0.0
  0
LINE
  5
2EB9
330
18
100
AcDbEntity
  8
0
100
AcDbLine
 10
888.6210256145277
 20
262.8992794452797
 30
0.0
 11
892.1210256145277
 21
260.8809461119462
 31
0.0
  0
LINE
  5
2EBA
330
18
100
AcDbEntity
  8
0
100
AcDbLine
 10
804.2140490579113
 20
384.4682772650858
 30
0.0
 11
804.2140490579113
 21
351.4682772650858
 31
0.0
  0
LINE
  5
2EBB
330
18
100
AcDbEntity
  8
0
100
AcDbLine
 10
802.2140490579113
 20
386.4682772650858
 30
0.0
 11
804.2140490579113
 21
384.4682772650858
 31
0.0
  0
LINE
  5
2EBC
330
18
100
AcDbEntity
  8
0
100
AcDbLine
 10
804.2140490579113
 20
504.7275059267094
 30
0.0
 11
804.2140490579113
 21
471.7275059267094
 31
0.0
  0
LINE
  5
2EBD
330
18
100
AcDbEntity
  8
0
100
AcDbLine
 10
802.2140490579113
 20
506.7275059267094
 30
0.0
 11
802.2140490579113
 21
436.7275059267094
 31
0.0
  0
LINE
  5
2EBE
330
18
100
AcDbEntity
  8
0
100
AcDbLine
 10
804.2140490579113
 20
471.7275059267094
 30
0.0
 11
804.2140490579113
 21
438.7275059267095
 31
0.0
  0
LINE
  5
2EBF
330
18
100
AcDbEntity
  8
0
100
AcDbLine
 10
804.2140490579113
 20
438.7275059267095
 30
0.0
 11
802.2140490579113
 21
436.7275059267094
 31
0.0
  0
LINE
  5
2EC0
330
18
100
AcDbEntity
  8
0
100
AcDbLine
 10
802.2140490579113
 20
506.7275059267094
 30
0.0
 11
804.2140490579113
 21
504.7275059267094
 31
0.0
  0
LINE
  5
2EC1
330
18
100
AcDbEntity
  8
0
100
AcDbLine
 10
1175.941640324067
 20
395.4682772650858
 30
0.0
 11
1189.941640324068
 21
395.468277265086
 31
0.0
  0
LINE
  5
2EC2
330
18
100
AcDbEntity
  8
0
100
AcDbLine
 10
1170.941640324068
 20
393.4682772650858
 30
0.0
 11
1194.941640324068
 21
393.468277265086
 31
0.0
  0
LINE
  5
2EC3
330
18
100
AcDbEntity
  8
0
100
AcDbLine
 10
1175.941640324067
 20
307.4682772650858
 30
0.0
 11
1189.941640324068
 21
307.4682772650858
 31
0.0
  0
LINE
  5
2EC4
330
18
100
AcDbEntity
  8
0
100
AcDbLine
 10
1170.941640324068
 20
309.4682772650858
 30
0.0
 11
1194.941640324068
 21
309.4682772650858
 31
0.0
  0
LINE
  5
2EC5
330
18
100
AcDbEntity
  8
0
100
AcDbLine
 10
1168.941640324068
 20
351.4682772650858
 30
0.0
 11
1168.941640324068
 21
311.4682772650858
 31
0.0
  0
LINE
  5
2EC6
330
18
100
AcDbEntity
  8
0
100
AcDbLine
 10
1170.941640324068
 20
393.4682772650858
 30
0.0
 11
1170.941640324068
 21
309.4682772650858
 31
0.0
  0
ARC
  5
2EC7
330
18
100
AcDbEntity
  8
0
100
AcDbCircle
 10
1071.93190637118
 20
263.2547942103574
 30
0.0
 40
6.644500231519874
100
AcDbArc
 50
75.93283644523387
 51
135.8740677452009
  0
LINE
  5
2EC8
330
18
100
AcDbEntity
  8
0
100
AcDbLine
 10
1015.201403400227
 20
269.8992794452797
 30
0.0
 11
1073.201403400227
 21
269.8992794452797
 31
0.0
  0
LINE
  5
2EC9
330
18
100
AcDbEntity
  8
0
100
AcDbLine
 10
1076.701403400227
 20
258.8992794452797
 30
0.0
 11
1011.701403400227
 21
258.8992794452797
 31
0.0
  0
ARC
  5
2ECA
330
18
100
AcDbEntity
  8
0
100
AcDbCircle
 10
1032.720900429274
 20
236.2389281875184
 30
0.0
 40
33.66035125776125
100
AcDbArc
 50
70.05798215649917
 51
109.9420178435008
  0
LINE
  5
2ECB
330
18
100
AcDbEntity
  8
0
100
AcDbLine
 10
1021.240397458322
 20
267.8809461119462
 30
0.0
 11
1021.240397458322
 21
258.8992794452797
 31
0.0
  0
ARC
  5
2ECC
330
18
100
AcDbEntity
  8
0
100
AcDbCircle
 10
1016.470900429274
 20
263.2547942103574
 30
0.0
 40
6.644500231519874
100
AcDbArc
 50
44.12593225479907
 51
104.0671635547659
  0
LINE
  5
2ECD
330
18
100
AcDbEntity
  8
0
100
AcDbLine
 10
1015.201403400227
 20
269.8992794452797
 30
0.0
 11
1011.701403400227
 21
267.8809461119462
 31
0.0
  0
ARC
  5
2ECE
330
18
100
AcDbEntity
  8
0
100
AcDbCircle
 10
1055.68190637118
 20
236.2389281875184
 30
0.0
 40
33.66035125776125
100
AcDbArc
 50
70.05798215649914
 51
109.9420178435008
  0
LINE
  5
2ECF
330
18
100
AcDbEntity
  8
0
100
AcDbLine
 10
1044.201403400227
 20
258.8992794452797
 30
0.0
 11
1044.201403400227
 21
267.8809461119462
 31
0.0
  0
LINE
  5
2ED0
330
18
100
AcDbEntity
  8
0
100
AcDbLine
 10
1067.162409342133
 20
267.8809461119462
 30
0.0
 11
1067.162409342133
 21
258.8992794452797
 31
0.0
  0
LINE
  5
2ED1
330
18
100
AcDbEntity
  8
0
100
AcDbLine
 10
1076.701403400227
 20
267.8809461119462
 30
0.0
 11
1073.201403400227
 21
269.8992794452797
 31
0.0
  0
LINE
  5
2ED2
330
18
100
AcDbEntity
  8
0
100
AcDbLine
 10
1168.941640324068
 20
311.4682772650858
 30
0.0
 11
1170.941640324068
 21
309.4682772650858
 31
0.0
  0
ARC
  5
2ED3
330
18
100
AcDbEntity
  8
0
100
AcDbCircle
 10
1175.941640324067
 20
309.4682772650858
 30
0.0
 40
2.0
100
AcDbArc
 50
180.0
 51
270.0
  0
LINE
  5
2ED4
330
18
100
AcDbEntity
  8
0
100
AcDbLine
 10
1168.941640324068
 20
391.4682772650858
 30
0.0
 11
1168.941640324068
 21
351.4682772650858
 31
0.0
  0
ARC
  5
2ED5
330
18
100
AcDbEntity
  8
0
100
AcDbCircle
 10
1175.941640324067
 20
393.4682772650858
 30
0.0
 40
2.0
100
AcDbArc
 50
90.0
 51
180.0
  0
LINE
  5
2ED6
330
18
100
AcDbEntity
  8
0
100
AcDbLine
 10
1170.941640324068
 20
393.4682772650858
 30
0.0
 11
1168.941640324068
 21
391.4682772650858
 31
0.0
  0
CIRCLE
  5
2ED7
330
18
100
AcDbEntity
  8
0
100
AcDbCircle
 10
1231.941640324068
 20
351.4682772650858
 30
0.0
 40
21.0
  0
LINE
  5
2ED8
330
18
100
AcDbEntity
  8
0
100
AcDbLine
 10
1266.941640324068
 20
391.4682772650858
 30
0.0
 11
1266.941640324068
 21
311.4682772650858
 31
0.0
  0
LINE
  5
2ED9
330
18
100
AcDbEntity
  8
0
100
AcDbLine
 10
1292.941640324068
 20
393.4682772650858
 30
0.0
 11
1292.941640324068
 21
309.4682772650858
 31
0.0
  0
LINE
  5
2EDA
330
18
100
AcDbEntity
  8
0
100
AcDbLine
 10
1196.941640324068
 20
391.468277265086
 30
0.0
 11
1196.941640324068
 21
311.4682772650858
 31
0.0
  0
CIRCLE
  5
2EDB
330
18
100
AcDbEntity
  8
0
100
AcDbCircle
 10
1231.941640324068
 20
351.4682772650858
 30
0.0
 40
32.5
  0
POLYLINE
  5
2EDC
330
18
100
AcDbEntity
  8
0
100
AcDb2dPolyline
 66
     1
 10
0.0
 20
0.0
 30
0.0
 70
     1
  0
VERTEX
  5
3201
330
2EDC
100
AcDbEntity
  8
0
100
AcDbVertex
100
AcDb2dVertex
 10
1208.980634382162
 20
374.4292832069911
 30
0.0
  0
VERTEX
  5
3202
330
2EDC
100
AcDbEntity
  8
0
100
AcDbVertex
100
AcDb2dVertex
 10
1199.469874315296
 20
351.4682772650858
 30
0.0
  0
VERTEX
  5
3203
330
2EDC
100
AcDbEntity
  8
0
100
AcDbVertex
100
AcDb2dVertex
 10
1208.980634382162
 20
328.5072713231802
 30
0.0
  0
VERTEX
  5
3204
330
2EDC
100
AcDbEntity
  8
0
100
AcDbVertex
100
AcDb2dVertex
 10
1231.941640324068
 20
318.996511256314
 30
0.0
  0
VERTEX
  5
3205
330
2EDC
100
AcDbEntity
  8
0
100
AcDbVertex
100
AcDb2dVertex
 10
1254.902646265974
 20
328.5072713231802
 30
0.0
  0
VERTEX
  5
3206
330
2EDC
100
AcDbEntity
  8
0
100
AcDbVertex
100
AcDb2dVertex
 10
1264.41340633284
 20
351.4682772650858
 30
0.0
  0
VERTEX
  5
3207
330
2EDC
100
AcDbEntity
  8
0
100
AcDbVertex
100
AcDb2dVertex
 10
1254.902646265974
 20
374.4292832069911
 30
0.0
  0
VERTEX
  5
3208
330
2EDC
100
AcDbEntity
  8
0
100
AcDbVertex
100
AcDb2dVertex
 10
1231.941640324068
 20
383.9400432738575
 30
0.0
  0
SEQEND
  5
3209
330
2EDC
100
AcDbEntity
  8
0
  0
CIRCLE
  5
2EDD
330
18
100
AcDbEntity
  8
0
100
AcDbCircle
 10
1231.941640324068
 20
351.4682772650858
 30
0.0
 40
29.0
  0
LINE
  5
2EDE
330
18
100
AcDbEntity
  8
0
100
AcDbLine
 10
1294.941640324068
 20
351.4682772650858
 30
0.0
 11
1294.941640324068
 21
311.4682772650858
 31
0.0
  0
LINE
  5
2EDF
330
18
100
AcDbEntity
  8
0
100
AcDbLine
 10
1260.941640324067
 20
269.8992794452797
 30
0.0
 11
1202.941640324067
 21
269.8992794452797
 31
0.0
  0
LINE
  5
2EE0
330
18
100
AcDbEntity
  8
0
100
AcDbLine
 10
1199.441640324067
 20
258.8992794452797
 30
0.0
 11
1264.441640324067
 21
258.8992794452797
 31
0.0
  0
ARC
  5
2EE1
330
18
100
AcDbEntity
  8
0
100
AcDbCircle
 10
1243.42214329502
 20
236.2389281875184
 30
0.0
 40
33.66035125776125
100
AcDbArc
 50
70.05798215649917
 51
109.9420178435008
  0
LINE
  5
2EE2
330
18
100
AcDbEntity
  8
0
100
AcDbLine
 10
1198.814623670284
 20
312.4682772650858
 30
0.0
 11
1265.068656977852
 21
312.4682772650858
 31
0.0
  0
ARC
  5
2EE3
330
18
100
AcDbEntity
  8
0
100
AcDbCircle
 10
1220.461137353115
 20
236.2389281875184
 30
0.0
 40
33.66035125776125
100
AcDbArc
 50
70.05798215649914
 51
109.9420178435008
  0
LINE
  5
2EE4
330
18
100
AcDbEntity
  8
0
100
AcDbLine
 10
1199.441640324067
 20
267.8809461119462
 30
0.0
 11
1202.941640324067
 21
269.8992794452797
 31
0.0
  0
ARC
  5
2EE5
330
18
100
AcDbEntity
  8
0
100
AcDbCircle
 10
1204.211137353115
 20
263.2547942103574
 30
0.0
 40
6.644500231519874
100
AcDbArc
 50
44.12593225479906
 51
104.0671635547661
  0
LINE
  5
2EE6
330
18
100
AcDbEntity
  8
0
100
AcDbLine
 10
1208.980634382162
 20
267.8809461119462
 30
0.0
 11
1208.980634382162
 21
258.8992794452797
 31
0.0
  0
LINE
  5
2EE7
330
18
100
AcDbEntity
  8
0
100
AcDbLine
 10
1231.941640324067
 20
258.8992794452797
 30
0.0
 11
1231.941640324067
 21
267.8809461119462
 31
0.0
  0
ARC
  5
2EE8
330
18
100
AcDbEntity
  8
0
100
AcDbCircle
 10
1198.814623670284
 20
310.4682772650858
 30
0.0
 40
2.0
100
AcDbArc
 50
90.0
 51
165.5224878140976
  0
ARC
  5
2EE9
330
18
100
AcDbEntity
  8
0
100
AcDbCircle
 10
1189.941640324068
 20
309.4682772650858
 30
0.0
 40
2.0
100
AcDbArc
 50
270.0
 51
0.0
  0
ARC
  5
2EEA
330
18
100
AcDbEntity
  8
0
100
AcDbCircle
 10
1194.941640324068
 20
311.4682772650858
 30
0.0
 40
2.0
100
AcDbArc
 50
270.0
 51
345.5224878141005
  0
ARC
  5
2EEB
330
18
100
AcDbEntity
  8
0
100
AcDbCircle
 10
1259.67214329502
 20
263.2547942103574
 30
0.0
 40
6.644500231519874
100
AcDbArc
 50
75.93283644523404
 51
135.8740677452009
  0
LINE
  5
2EEC
330
18
100
AcDbEntity
  8
0
100
AcDbLine
 10
1254.902646265973
 20
267.8809461119462
 30
0.0
 11
1254.902646265973
 21
258.8992794452797
 31
0.0
  0
LINE
  5
2EED
330
18
100
AcDbEntity
  8
0
100
AcDbLine
 10
1260.941640324067
 20
269.8992794452797
 30
0.0
 11
1264.441640324067
 21
267.8809461119462
 31
0.0
  0
LINE
  5
2EEE
330
18
100
AcDbEntity
  8
0
100
AcDbLine
 10
1268.941640324068
 20
309.4682772650858
 30
0.0
 11
1292.941640324068
 21
309.4682772650858
 31
0.0
  0
ARC
  5
2EEF
330
18
100
AcDbEntity
  8
0
100
AcDbCircle
 10
1265.068656977852
 20
310.4682772650858
 30
0.0
 40
2.0
100
AcDbArc
 50
14.47751218590165
 51
90.0
  0
ARC
  5
2EF0
330
18
100
AcDbEntity
  8
0
100
AcDbCircle
 10
1268.941640324068
 20
311.4682772650858
 30
0.0
 40
2.0
100
AcDbArc
 50
194.4775121859026
 51
270.0
  0
LINE
  5
2EF1
330
18
100
AcDbEntity
  8
0
100
AcDbLine
 10
1287.941640324069
 20
307.4682772650858
 30
0.0
 11
1273.941640324069
 21
307.4682772650858
 31
0.0
  0
ARC
  5
2EF2
330
18
100
AcDbEntity
  8
0
100
AcDbCircle
 10
1273.941640324069
 20
309.4682772650858
 30
0.0
 40
2.0
100
AcDbArc
 50
180.0
 51
270.0
  0
ARC
  5
2EF3
330
18
100
AcDbEntity
  8
0
100
AcDbCircle
 10
1287.941640324069
 20
309.4682772650858
 30
0.0
 40
2.0
100
AcDbArc
 50
270.0
 51
0.0
  0
LINE
  5
2EF4
330
18
100
AcDbEntity
  8
0
100
AcDbLine
 10
1292.941640324068
 20
309.4682772650858
 30
0.0
 11
1294.941640324068
 21
311.4682772650858
 31
0.0
  0
CIRCLE
  5
2EF5
330
18
100
AcDbEntity
  8
0
100
AcDbCircle
 10
1231.941640324068
 20
351.4682772650858
 30
0.0
 40
18.5
  0
LINE
  5
2EF6
330
18
100
AcDbEntity
  8
0
100
AcDbLine
 10
1198.814623670284
 20
390.4682772650858
 30
0.0
 11
1265.068656977852
 21
390.4682772650858
 31
0.0
  0
ARC
  5
2EF7
330
18
100
AcDbEntity
  8
0
100
AcDbCircle
 10
1189.941640324068
 20
393.468277265086
 30
0.0
 40
2.0
100
AcDbArc
 50
0.0
 51
90.0
  0
ARC
  5
2EF8
330
18
100
AcDbEntity
  8
0
100
AcDbCircle
 10
1198.814623670261
 20
392.4682772650858
 30
0.0
 40
2.0
100
AcDbArc
 50
194.4775121859784
 51
270.0
  0
ARC
  5
2EF9
330
18
100
AcDbEntity
  8
0
100
AcDbCircle
 10
1194.941640324068
 20
391.468277265086
 30
0.0
 40
2.0
100
AcDbArc
 50
14.47751218598001
 51
90.0
  0
LINE
  5
2EFA
330
18
100
AcDbEntity
  8
0
100
AcDbLine
 10
1294.941640324068
 20
391.4682772650858
 30
0.0
 11
1294.941640324068
 21
351.4682772650858
 31
0.0
  0
LINE
  5
2EFB
330
18
100
AcDbEntity
  8
0
100
AcDbLine
 10
1268.941640324068
 20
393.4682772650858
 30
0.0
 11
1292.941640324068
 21
393.4682772650858
 31
0.0
  0
ARC
  5
2EFC
330
18
100
AcDbEntity
  8
0
100
AcDbCircle
 10
1265.068656977853
 20
392.4682772650858
 30
0.0
 40
2.0
100
AcDbArc
 50
270.0
 51
345.5224878140982
  0
ARC
  5
2EFD
330
18
100
AcDbEntity
  8
0
100
AcDbCircle
 10
1268.941640324068
 20
391.4682772650858
 30
0.0
 40
2.0
100
AcDbArc
 50
90.0
 51
165.5224878140973
  0
ARC
  5
2EFE
330
18
100
AcDbEntity
  8
0
100
AcDbCircle
 10
1287.941640324069
 20
393.4682772650858
 30
0.0
 40
2.0
100
AcDbArc
 50
0.0
 51
90.0
  0
ARC
  5
2EFF
330
18
100
AcDbEntity
  8
0
100
AcDbCircle
 10
1273.941640324069
 20
393.468277265086
 30
0.0
 40
2.0
100
AcDbArc
 50
90.0
 51
180.0
  0
LINE
  5
2F00
330
18
100
AcDbEntity
  8
0
100
AcDbLine
 10
1292.941640324068
 20
393.4682772650858
 30
0.0
 11
1294.941640324068
 21
391.4682772650858
 31
0.0
  0
LINE
  5
2F01
330
18
100
AcDbEntity
  8
0
100
AcDbLine
 10
1287.941640324069
 20
395.4682772650858
 30
0.0
 11
1273.941640324069
 21
395.468277265086
 31
0.0
  0
LINE
  5
2F02
330
18
100
AcDbEntity
  8
0
100
AcDbLine
 10
1170.941640324067
 20
513.7275059267095
 30
0.0
 11
1194.941640324067
 21
513.7275059267096
 31
0.0
  0
LINE
  5
2F03
330
18
100
AcDbEntity
  8
0
100
AcDbLine
 10
1175.941640324067
 20
469.7275059267094
 30
0.0
 11
1189.941640324067
 21
469.7275059267094
 31
0.0
  0
LINE
  5
2F04
330
18
100
AcDbEntity
  8
0
100
AcDbLine
 10
1175.941640324067
 20
473.7275059267094
 30
0.0
 11
1189.941640324067
 21
473.7275059267094
 31
0.0
  0
LINE
  5
2F05
330
18
100
AcDbEntity
  8
0
100
AcDbLine
 10
1170.941640324067
 20
429.7275059267094
 30
0.0
 11
1194.941640324067
 21
429.7275059267094
 31
0.0
  0
LINE
  5
2F06
330
18
100
AcDbEntity
  8
0
100
AcDbLine
 10
1168.941640324067
 20
511.7275059267094
 30
0.0
 11
1168.941640324067
 21
471.7275059267094
 31
0.0
  0
LINE
  5
2F07
330
18
100
AcDbEntity
  8
0
100
AcDbLine
 10
1170.941640324067
 20
513.7275059267095
 30
0.0
 11
1170.941640324067
 21
429.7275059267094
 31
0.0
  0
LINE
  5
2F08
330
18
100
AcDbEntity
  8
0
100
AcDbLine
 10
1168.941640324067
 20
471.7275059267094
 30
0.0
 11
1168.941640324067
 21
431.7275059267094
 31
0.0
  0
LINE
  5
2F09
330
18
100
AcDbEntity
  8
0
100
AcDbLine
 10
1168.941640324067
 20
431.7275059267094
 30
0.0
 11
1170.941640324067
 21
429.7275059267094
 31
0.0
  0
ARC
  5
2F0A
330
18
100
AcDbEntity
  8
0
100
AcDbCircle
 10
1175.941640324067
 20
471.7275059267094
 30
0.0
 40
2.0
100
AcDbArc
 50
90.0
 51
270.0
  0
LINE
  5
2F0B
330
18
100
AcDbEntity
  8
0
100
AcDbLine
 10
1170.941640324067
 20
513.7275059267095
 30
0.0
 11
1168.941640324067
 21
511.7275059267094
 31
0.0
  0
LINE
  5
2F0C
330
18
100
AcDbEntity
  8
0
100
AcDbLine
 10
1196.941640324067
 20
511.7275059267097
 30
0.0
 11
1196.941640324067
 21
431.7275059267094
 31
0.0
  0
LINE
  5
2F0D
330
18
100
AcDbEntity
  8
0
100
AcDbLine
 10
1292.941640324067
 20
513.7275059267095
 30
0.0
 11
1292.941640324067
 21
429.7275059267094
 31
0.0
  0
LINE
  5
2F0E
330
18
100
AcDbEntity
  8
0
100
AcDbLine
 10
1266.941640324067
 20
511.7275059267094
 30
0.0
 11
1266.941640324067
 21
431.7275059267094
 31
0.0
  0
LINE
  5
2F0F
330
18
100
AcDbEntity
  8
0
100
AcDbLine
 10
1294.941640324067
 20
511.7275059267094
 30
0.0
 11
1294.941640324067
 21
471.7275059267094
 31
0.0
  0
LINE
  5
2F10
330
18
100
AcDbEntity
  8
0
100
AcDbLine
 10
1198.814623670284
 20
432.7275059267094
 30
0.0
 11
1265.068656977851
 21
432.7275059267094
 31
0.0
  0
ARC
  5
2F11
330
18
100
AcDbEntity
  8
0
100
AcDbCircle
 10
1198.814623670284
 20
430.7275059267094
 30
0.0
 40
2.0
100
AcDbArc
 50
90.0
 51
165.5224878140976
  0
ARC
  5
2F12
330
18
100
AcDbEntity
  8
0
100
AcDbCircle
 10
1194.941640324067
 20
431.7275059267094
 30
0.0
 40
2.0
100
AcDbArc
 50
270.0
 51
345.5224878141005
  0
ARC
  5
2F13
330
18
100
AcDbEntity
  8
0
100
AcDbCircle
 10
1189.941640324067
 20
471.7275059267094
 30
0.0
 40
2.0
100
AcDbArc
 50
270.0
 51
90.0
  0
LINE
  5
2F14
330
18
100
AcDbEntity
  8
0
100
AcDbLine
 10
1294.941640324067
 20
471.7275059267094
 30
0.0
 11
1294.941640324067
 21
431.7275059267094
 31
0.0
  0
LINE
  5
2F15
330
18
100
AcDbEntity
  8
0
100
AcDbLine
 10
1268.941640324067
 20
429.7275059267094
 30
0.0
 11
1292.941640324067
 21
429.7275059267094
 31
0.0
  0
ARC
  5
2F16
330
18
100
AcDbEntity
  8
0
100
AcDbCircle
 10
1265.068656977851
 20
430.7275059267094
 30
0.0
 40
2.0
100
AcDbArc
 50
14.47751218590165
 51
90.0
  0
ARC
  5
2F17
330
18
100
AcDbEntity
  8
0
100
AcDbCircle
 10
1268.941640324067
 20
431.7275059267094
 30
0.0
 40
2.0
100
AcDbArc
 50
194.4775121859026
 51
270.0
  0
LINE
  5
2F18
330
18
100
AcDbEntity
  8
0
100
AcDbLine
 10
1292.941640324067
 20
429.7275059267094
 30
0.0
 11
1294.941640324067
 21
431.7275059267094
 31
0.0
  0
LINE
  5
2F19
330
18
100
AcDbEntity
  8
0
100
AcDbLine
 10
1287.941640324067
 20
473.7275059267094
 30
0.0
 11
1273.941640324067
 21
473.7275059267094
 31
0.0
  0
LINE
  5
2F1A
330
18
100
AcDbEntity
  8
0
100
AcDbLine
 10
1287.941640324067
 20
469.7275059267094
 30
0.0
 11
1273.941640324067
 21
469.7275059267094
 31
0.0
  0
ARC
  5
2F1B
330
18
100
AcDbEntity
  8
0
100
AcDbCircle
 10
1273.941640324067
 20
471.7275059267094
 30
0.0
 40
2.0
100
AcDbArc
 50
90.0
 51
270.0
  0
ARC
  5
2F1C
330
18
100
AcDbEntity
  8
0
100
AcDbCircle
 10
1287.941640324067
 20
471.7275059267094
 30
0.0
 40
2.0
100
AcDbArc
 50
270.0
 51
90.0
  0
ARC
  5
2F1D
330
18
100
AcDbEntity
  8
0
100
AcDbCircle
 10
1231.941640324067
 20
578.4525059267105
 30
0.0
 40
72.72500000000093
100
AcDbArc
 50
252.64854610527
 51
287.35145389473
  0
LINE
  5
2F1E
330
18
100
AcDbEntity
  8
0
100
AcDbLine
 10
1200.441640324067
 20
528.7275059267094
 30
0.0
 11
1263.441640324067
 21
528.7275059267094
 31
0.0
  0
LINE
  5
2F1F
330
18
100
AcDbEntity
  8
0
100
AcDbLine
 10
1260.941640324067
 20
556.7275059267094
 30
0.0
 11
1202.941640324067
 21
556.7275059267094
 31
0.0
  0
LINE
  5
2F20
330
18
100
AcDbEntity
  8
0
100
AcDbLine
 10
1199.441640324067
 20
545.7275059267094
 30
0.0
 11
1264.441640324067
 21
545.7275059267094
 31
0.0
  0
ARC
  5
2F21
330
18
100
AcDbEntity
  8
0
100
AcDbCircle
 10
1243.42214329502
 20
523.0671546689482
 30
0.0
 40
33.66035125776125
100
AcDbArc
 50
70.05798215649917
 51
109.9420178435008
  0
LINE
  5
2F22
330
18
100
AcDbEntity
  8
0
100
AcDbLine
 10
1199.441640324067
 20
529.7275059267094
 30
0.0
 11
1199.441640324067
 21
554.709172593376
 31
0.0
  0
LINE
  5
2F23
330
18
100
AcDbEntity
  8
0
100
AcDbLine
 10
1208.441640324067
 20
528.7275059267094
 30
0.0
 11
1208.441640324067
 21
513.7275059267095
 31
0.0
  0
ARC
  5
2F24
330
18
100
AcDbEntity
  8
0
100
AcDbCircle
 10
1198.81462367026
 20
512.7275059267094
 30
0.0
 40
2.0
100
AcDbArc
 50
194.4775121859784
 51
270.0
  0
ARC
  5
2F25
330
18
100
AcDbEntity
  8
0
100
AcDbCircle
 10
1194.941640324067
 20
511.7275059267097
 30
0.0
 40
2.0
100
AcDbArc
 50
14.47751218598001
 51
90.0
  0
ARC
  5
2F26
330
18
100
AcDbEntity
  8
0
100
AcDbCircle
 10
1205.441640324067
 20
513.7275059267095
 30
0.0
 40
3.0
100
AcDbArc
 50
270.0
 51
0.0
  0
LINE
  5
2F27
330
18
100
AcDbEntity
  8
0
100
AcDbLine
 10
1198.81462367026
 20
510.7275059267094
 30
0.0
 11
1205.441640324067
 21
510.7275059267094
 31
0.0
  0
LINE
  5
2F28
330
18
100
AcDbEntity
  8
0
100
AcDbLine
 10
1200.441640324067
 20
528.7275059267094
 30
0.0
 11
1199.441640324067
 21
529.7275059267094
 31
0.0
  0
ARC
  5
2F29
330
18
100
AcDbEntity
  8
0
100
AcDbCircle
 10
1220.461137353114
 20
523.0671546689482
 30
0.0
 40
33.66035125776125
100
AcDbArc
 50
70.05798215649914
 51
109.9420178435008
  0
LINE
  5
2F2A
330
18
100
AcDbEntity
  8
0
100
AcDbLine
 10
1199.441640324067
 20
554.709172593376
 30
0.0
 11
1202.941640324067
 21
556.7275059267094
 31
0.0
  0
ARC
  5
2F2B
330
18
100
AcDbEntity
  8
0
100
AcDbCircle
 10
1204.211137353114
 20
550.0830206917871
 30
0.0
 40
6.644500231519874
100
AcDbArc
 50
44.12593225479906
 51
104.0671635547661
  0
LINE
  5
2F2C
330
18
100
AcDbEntity
  8
0
100
AcDbLine
 10
1208.980634382162
 20
554.709172593376
 30
0.0
 11
1208.980634382162
 21
545.7275059267094
 31
0.0
  0
LINE
  5
2F2D
330
18
100
AcDbEntity
  8
0
100
AcDbLine
 10
1231.941640324067
 20
545.7275059267094
 30
0.0
 11
1231.941640324067
 21
554.709172593376
 31
0.0
  0
LINE
  5
2F2E
330
18
100
AcDbEntity
  8
0
100
AcDbLine
 10
1264.441640324067
 20
529.7275059267094
 30
0.0
 11
1264.441640324067
 21
554.709172593376
 31
0.0
  0
LINE
  5
2F2F
330
18
100
AcDbEntity
  8
0
100
AcDbLine
 10
1268.941640324067
 20
513.7275059267095
 30
0.0
 11
1292.941640324067
 21
513.7275059267095
 31
0.0
  0
LINE
  5
2F30
330
18
100
AcDbEntity
  8
0
100
AcDbLine
 10
1255.441640324067
 20
528.7275059267094
 30
0.0
 11
1255.441640324067
 21
513.7275059267095
 31
0.0
  0
ARC
  5
2F31
330
18
100
AcDbEntity
  8
0
100
AcDbCircle
 10
1258.441640324067
 20
513.7275059267095
 30
0.0
 40
3.0
100
AcDbArc
 50
180.0
 51
270.0
  0
ARC
  5
2F32
330
18
100
AcDbEntity
  8
0
100
AcDbCircle
 10
1265.068656977852
 20
512.7275059267094
 30
0.0
 40
2.0
100
AcDbArc
 50
270.0
 51
345.5224878140982
  0
LINE
  5
2F33
330
18
100
AcDbEntity
  8
0
100
AcDbLine
 10
1258.441640324067
 20
510.7275059267094
 30
0.0
 11
1265.068656977852
 21
510.7275059267094
 31
0.0
  0
ARC
  5
2F34
330
18
100
AcDbEntity
  8
0
100
AcDbCircle
 10
1268.941640324067
 20
511.7275059267094
 30
0.0
 40
2.0
100
AcDbArc
 50
90.0
 51
165.5224878140973
  0
LINE
  5
2F35
330
18
100
AcDbEntity
  8
0
100
AcDbLine
 10
1263.441640324067
 20
528.7275059267094
 30
0.0
 11
1264.441640324067
 21
529.7275059267094
 31
0.0
  0
LINE
  5
2F36
330
18
100
AcDbEntity
  8
0
100
AcDbLine
 10
1292.941640324067
 20
513.7275059267095
 30
0.0
 11
1294.941640324067
 21
511.7275059267094
 31
0.0
  0
ARC
  5
2F37
330
18
100
AcDbEntity
  8
0
100
AcDbCircle
 10
1259.67214329502
 20
550.0830206917871
 30
0.0
 40
6.644500231519874
100
AcDbArc
 50
75.93283644523404
 51
135.8740677452009
  0
LINE
  5
2F38
330
18
100
AcDbEntity
  8
0
100
AcDbLine
 10
1254.902646265973
 20
554.709172593376
 30
0.0
 11
1254.902646265973
 21
545.7275059267094
 31
0.0
  0
LINE
  5
2F39
330
18
100
AcDbEntity
  8
0
100
AcDbLine
 10
1260.941640324067
 20
556.7275059267094
 30
0.0
 11
1264.441640324067
 21
554.709172593376
 31
0.0
  0
LINE
  5
2F3A
330
18
100
AcDbEntity
  8
0
100
AcDbLine
 10
1394.559156005513
 20
242.8992794452797
 30
0.0
 11
1394.559156005513
 21
267.8809461119462
 31
0.0
  0
LINE
  5
2F3B
330
18
100
AcDbEntity
  8
0
100
AcDbLine
 10
1329.559156005513
 20
242.8992794452797
 30
0.0
 11
1329.559156005513
 21
267.8809461119462
 31
0.0
  0
ARC
  5
2F3C
330
18
100
AcDbEntity
  8
0
100
AcDbCircle
 10
1323.059156005514
 20
168.8992794452788
 30
0.0
 40
1.0
100
AcDbArc
 50
180.0
 51
270.0
  0
CIRCLE
  5
2F3D
330
18
100
AcDbEntity
  8
0
100
AcDbCircle
 10
1362.059156005513
 20
184.8992794452797
 30
0.0
 40
42.0
  0
CIRCLE
  5
2F3E
330
18
100
AcDbEntity
  8
0
100
AcDbCircle
 10
1362.059156005513
 20
184.8992794452797
 30
0.0
 40
40.0
  0
LINE
  5
2F3F
330
18
100
AcDbEntity
  8
0
100
AcDbLine
 10
1323.059156005514
 20
167.8992794452788
 30
0.0
 11
1323.653427266171
 21
167.8992794452792
 31
0.0
  0
LINE
  5
2F40
330
18
100
AcDbEntity
  8
0
100
AcDbLine
 10
1330.559156005513
 20
241.8992794452797
 30
0.0
 11
1393.559156005513
 21
241.8992794452797
 31
0.0
  0
LINE
  5
2F41
330
18
100
AcDbEntity
  8
0
100
AcDbLine
 10
1322.059156005514
 20
172.0930309704112
 30
0.0
 11
1322.059156005514
 21
168.8992794452788
 31
0.0
  0
ARC
  5
2F42
330
18
100
AcDbEntity
  8
0
100
AcDbCircle
 10
1320.059156005513
 20
184.8992794452797
 30
0.0
 40
2.0
100
AcDbArc
 50
88.63568584932796
 51
271.3643141506719
  0
LINE
  5
2F43
330
18
100
AcDbEntity
  8
0
100
AcDbLine
 10
1323.059156005514
 20
201.8992794452797
 30
0.0
 11
1323.65342726617
 21
201.8992794452797
 31
0.0
  0
ARC
  5
2F44
330
18
100
AcDbEntity
  8
0
100
AcDbCircle
 10
1323.059156005514
 20
200.8992794452796
 30
0.0
 40
1.0
100
AcDbArc
 50
90.0
 51
180.0
  0
LINE
  5
2F45
330
18
100
AcDbEntity
  8
0
100
AcDbLine
 10
1322.059156005514
 20
200.8992794452796
 30
0.0
 11
1322.059156005514
 21
197.7055279201472
 31
0.0
  0
LINE
  5
2F46
330
18
100
AcDbEntity
  8
0
100
AcDbLine
 10
1338.559156005513
 20
238.8992794452797
 30
0.0
 11
1338.559156005513
 21
224.8992794452801
 31
0.0
  0
ARC
  5
2F47
330
18
100
AcDbEntity
  8
0
100
AcDbCircle
 10
1344.559156005513
 20
224.8992794452801
 30
0.0
 40
6.0
100
AcDbArc
 50
180.0
 51
223.5195854941746
  0
LINE
  5
2F48
330
18
100
AcDbEntity
  8
0
100
AcDbLine
 10
1330.559156005513
 20
241.8992794452797
 30
0.0
 11
1329.559156005513
 21
242.8992794452797
 31
0.0
  0
ARC
  5
2F49
330
18
100
AcDbEntity
  8
0
100
AcDbCircle
 10
1335.559156005514
 20
238.8992794452797
 30
0.0
 40
3.0
100
AcDbArc
 50
0.0
 51
90.0
  0
ARC
  5
2F4A
330
18
100
AcDbEntity
  8
0
100
AcDbCircle
 10
1404.059156005513
 20
184.8992794452797
 30
0.0
 40
2.0
100
AcDbArc
 50
268.6356858493279
 51
91.36431415067203
  0
ARC
  5
2F4B
330
18
100
AcDbEntity
  8
0
100
AcDbCircle
 10
1388.559156005512
 20
238.8992794452797
 30
0.0
 40
3.0
100
AcDbArc
 50
90.0
 51
180.0
  0
LINE
  5
2F4C
330
18
100
AcDbEntity
  8
0
100
AcDbLine
 10
1385.559156005513
 20
238.8992794452797
 30
0.0
 11
1385.559156005513
 21
224.8992794452801
 31
0.0
  0
ARC
  5
2F4D
330
18
100
AcDbEntity
  8
0
100
AcDbCircle
 10
1379.559156005513
 20
224.8992794452801
 30
0.0
 40
6.0
100
AcDbArc
 50
316.4804145058253
 51
0.0
  0
LINE
  5
2F4E
330
18
100
AcDbEntity
  8
0
100
AcDbLine
 10
1393.559156005513
 20
241.8992794452797
 30
0.0
 11
1394.559156005513
 21
242.8992794452797
 31
0.0
  0
ARC
  5
2F4F
330
18
100
AcDbEntity
  8
0
100
AcDbCircle
 10
1350.578653034561
 20
236.2389281875184
 30
0.0
 40
33.66035125776125
100
AcDbArc
 50
70.05798215649914
 51
109.9420178435008
  0
LINE
  5
2F50
330
18
100
AcDbEntity
  8
0
100
AcDbLine
 10
1391.059156005513
 20
269.8992794452797
 30
0.0
 11
1333.059156005513
 21
269.8992794452797
 31
0.0
  0
LINE
  5
2F51
330
18
100
AcDbEntity
  8
0
100
AcDbLine
 10
1329.559156005513
 20
258.8992794452797
 30
0.0
 11
1394.559156005513
 21
258.8992794452797
 31
0.0
  0
LINE
  5
2F52
330
18
100
AcDbEntity
  8
0
100
AcDbLine
 10
1329.559156005513
 20
267.8809461119462
 30
0.0
 11
1333.059156005513
 21
269.8992794452797
 31
0.0
  0
ARC
  5
2F53
330
18
100
AcDbEntity
  8
0
100
AcDbCircle
 10
1334.328653034561
 20
263.2547942103574
 30
0.0
 40
6.644500231519874
100
AcDbArc
 50
44.12593225479906
 51
104.0671635547661
  0
LINE
  5
2F54
330
18
100
AcDbEntity
  8
0
100
AcDbLine
 10
1339.098150063608
 20
267.8809461119462
 30
0.0
 11
1339.098150063608
 21
258.8992794452797
 31
0.0
  0
ARC
  5
2F55
330
18
100
AcDbEntity
  8
0
100
AcDbCircle
 10
1389.789658976466
 20
263.2547942103574
 30
0.0
 40
6.644500231519874
100
AcDbArc
 50
75.93283644523404
 51
135.8740677452009
  0
ARC
  5
2F56
330
18
100
AcDbEntity
  8
0
100
AcDbCircle
 10
1373.539658976467
 20
236.2389281875184
 30
0.0
 40
33.66035125776125
100
AcDbArc
 50
70.05798215649917
 51
109.9420178435008
  0
LINE
  5
2F57
330
18
100
AcDbEntity
  8
0
100
AcDbLine
 10
1362.059156005513
 20
258.8992794452797
 30
0.0
 11
1362.059156005513
 21
267.8809461119462
 31
0.0
  0
LINE
  5
2F58
330
18
100
AcDbEntity
  8
0
100
AcDbLine
 10
1385.020161947419
 20
267.8809461119462
 30
0.0
 11
1385.020161947419
 21
258.8992794452797
 31
0.0
  0
LINE
  5
2F59
330
18
100
AcDbEntity
  8
0
100
AcDbLine
 10
1391.059156005513
 20
269.8992794452797
 30
0.0
 11
1394.559156005513
 21
267.8809461119462
 31
0.0
  0
ARC
  5
2F5A
330
18
100
AcDbEntity
  8
0
100
AcDbCircle
 10
1246.623622294265
 20
910.8936967775475
 30
0.0
 40
33.66035125776125
100
AcDbArc
 50
70.05798215649917
 51
109.9420178435008
  0
LINE
  5
2F5B
330
18
100
AcDbEntity
  8
0
100
AcDbLine
 10
1264.143119323313
 20
944.5540480353088
 30
0.0
 11
1206.143119323312
 21
944.5540480353088
 31
0.0
  0
LINE
  5
2F5C
330
18
100
AcDbEntity
  8
0
100
AcDbLine
 10
1203.643119323313
 20
916.5540480353088
 30
0.0
 11
1266.643119323313
 21
916.5540480353088
 31
0.0
  0
LINE
  5
2F5D
330
18
100
AcDbEntity
  8
0
100
AcDbLine
 10
1202.643119323313
 20
933.5540480353088
 30
0.0
 11
1267.643119323313
 21
933.5540480353088
 31
0.0
  0
ARC
  5
2F5E
330
18
100
AcDbEntity
  8
0
100
AcDbCircle
 10
1246.623622294265
 20
692.0911493292583
 30
0.0
 40
33.66035125776125
100
AcDbArc
 50
70.05798215649917
 51
109.9420178435008
  0
TEXT
  5
2F5F
330
18
100
AcDbEntity
  8
0
100
AcDbText
 10
1225.967221345618
 20
592.7958542946771
 30
0.0
 40
15.0
  1
25A
 41
0.8
 11
1225.967221345618
 21
592.7958542946771
 31
0.0
100
AcDbText
 73
     1
  0
LINE
  5
2F60
330
18
100
AcDbEntity
  8
0
100
AcDbLine
 10
1272.643119323312
 20
850.5540480353088
 30
0.0
 11
1197.643119323313
 21
850.5540480353088
 31
0.0
  0
ARC
  5
2F61
330
18
100
AcDbEntity
  8
0
100
AcDbCircle
 10
1235.304517493118
 20
949.6679805590334
 30
0.0
 40
54.9341696204678
100
AcDbArc
 50
247.3949683394505
 51
292.3321236551939
  0
CIRCLE
  5
2F62
330
18
100
AcDbEntity
  8
0
100
AcDbCircle
 10
1235.143119323312
 20
786.2338320575404
 30
0.0
 40
29.0
  0
POLYLINE
  5
2F63
330
18
100
AcDbEntity
  8
0
100
AcDb2dPolyline
 66
     1
 10
0.0
 20
0.0
 30
0.0
 70
     1
  0
VERTEX
  5
320A
330
2F63
100
AcDbEntity
  8
0
100
AcDbVertex
100
AcDb2dVertex
 10
1212.182113381407
 20
809.1948379994457
 30
0.0
  0
VERTEX
  5
320B
330
2F63
100
AcDbEntity
  8
0
100
AcDbVertex
100
AcDb2dVertex
 10
1202.671353314541
 20
786.2338320575404
 30
0.0
  0
VERTEX
  5
320C
330
2F63
100
AcDbEntity
  8
0
100
AcDbVertex
100
AcDb2dVertex
 10
1212.182113381407
 20
763.2728261156349
 30
0.0
  0
VERTEX
  5
320D
330
2F63
100
AcDbEntity
  8
0
100
AcDbVertex
100
AcDb2dVertex
 10
1235.143119323312
 20
753.7620660487687
 30
0.0
  0
VERTEX
  5
320E
330
2F63
100
AcDbEntity
  8
0
100
AcDbVertex
100
AcDb2dVertex
 10
1258.104125265218
 20
763.2728261156349
 30
0.0
  0
VERTEX
  5
320F
330
2F63
100
AcDbEntity
  8
0
100
AcDbVertex
100
AcDb2dVertex
 10
1267.614885332084
 20
786.2338320575404
 30
0.0
  0
VERTEX
  5
3210
330
2F63
100
AcDbEntity
  8
0
100
AcDbVertex
100
AcDb2dVertex
 10
1258.104125265218
 20
809.1948379994457
 30
0.0
  0
VERTEX
  5
3211
330
2F63
100
AcDbEntity
  8
0
100
AcDbVertex
100
AcDb2dVertex
 10
1235.143119323312
 20
818.7055980663121
 30
0.0
  0
SEQEND
  5
3212
330
2F63
100
AcDbEntity
  8
0
  0
CIRCLE
  5
2F64
330
18
100
AcDbEntity
  8
0
100
AcDbCircle
 10
1235.143119323312
 20
786.2338320575404
 30
0.0
 40
32.5
  0
CIRCLE
  5
2F65
330
18
100
AcDbEntity
  8
0
100
AcDbCircle
 10
1235.143119323312
 20
786.2338320575404
 30
0.0
 40
21.0
  0
CIRCLE
  5
2F66
330
18
100
AcDbEntity
  8
0
100
AcDbCircle
 10
1235.143119323312
 20
786.2338320575404
 30
0.0
 40
18.5
  0
LINE
  5
2F67
330
18
100
AcDbEntity
  8
0
100
AcDbLine
 10
1197.643119323313
 20
631.7515005870196
 30
0.0
 11
1272.643119323312
 21
631.7515005870196
 31
0.0
  0
LINE
  5
2F68
330
18
100
AcDbEntity
  8
0
100
AcDbLine
 10
1202.643119323313
 20
714.7515005870196
 30
0.0
 11
1267.643119323313
 21
714.7515005870196
 31
0.0
  0
LINE
  5
2F69
330
18
100
AcDbEntity
  8
0
100
AcDbLine
 10
1203.643119323313
 20
697.7515005870195
 30
0.0
 11
1266.643119323313
 21
697.7515005870195
 31
0.0
  0
LINE
  5
2F6A
330
18
100
AcDbEntity
  8
0
100
AcDbLine
 10
1264.143119323313
 20
725.7515005870195
 30
0.0
 11
1206.143119323312
 21
725.7515005870195
 31
0.0
  0
LINE
  5
2F6B
330
18
100
AcDbEntity
  8
0
100
AcDbLine
 10
1218.143119323312
 20
667.7515118252158
 30
0.0
 11
1252.143119323313
 21
667.7515118252158
 31
0.0
  0
ARC
  5
2F6C
330
18
100
AcDbEntity
  8
0
100
AcDbCircle
 10
1234.981721153506
 20
730.865433110744
 30
0.0
 40
54.9341696204678
100
AcDbArc
 50
247.667876344806
 51
292.6050316605494
  0
LINE
  5
2F6D
330
18
100
AcDbEntity
  8
0
100
AcDbLine
 10
1218.143119323312
 20
645.7515005870195
 30
0.0
 11
1252.143119323313
 21
645.7515005870195
 31
0.0
  0
ARC
  5
2F6E
330
18
100
AcDbEntity
  8
0
100
AcDbCircle
 10
1207.643119323313
 20
875.5540480353088
 30
0.0
 40
2.0
100
AcDbArc
 50
270.0
 51
90.0
  0
ARC
  5
2F6F
330
18
100
AcDbEntity
  8
0
100
AcDbCircle
 10
1201.643119323313
 20
875.5540480353088
 30
0.0
 40
2.0
100
AcDbArc
 50
90.0
 51
270.0
  0
LINE
  5
2F70
330
18
100
AcDbEntity
  8
0
100
AcDbLine
 10
1195.643119323313
 20
875.5540480353088
 30
0.0
 11
1195.643119323313
 21
852.5540480353088
 31
0.0
  0
LINE
  5
2F71
330
18
100
AcDbEntity
  8
0
100
AcDbLine
 10
1197.643119323313
 20
900.5540480353088
 30
0.0
 11
1197.643119323313
 21
850.5540480353088
 31
0.0
  0
CIRCLE
  5
2F72
330
18
100
AcDbEntity
  8
0
100
AcDbCircle
 10
841.829929723187
 20
656.7515005870196
 30
0.0
 40
20.5
  0
CIRCLE
  5
2F73
330
18
100
AcDbEntity
  8
0
100
AcDbCircle
 10
841.829929723187
 20
656.7515005870196
 30
0.0
 40
18.5
  0
ARC
  5
2F74
330
18
100
AcDbEntity
  8
0
100
AcDbCircle
 10
853.3104326941392
 20
690.0911493292583
 30
0.0
 40
33.66035125776125
100
AcDbArc
 50
70.05798215649917
 51
109.9420178435008
  0
ARC
  5
2F75
330
18
100
AcDbEntity
  8
0
100
AcDbCircle
 10
861.2652466642884
 20
669.9620439293253
 30
0.0
 40
3.0
100
AcDbArc
 50
102.417593338811
 51
214.2046694308593
  0
LINE
  5
2F76
330
18
100
AcDbEntity
  8
0
100
AcDbLine
 10
810.3299297231869
 20
695.7515005870195
 30
0.0
 11
873.3299297231869
 21
695.7515005870195
 31
0.0
  0
LINE
  5
2F77
330
18
100
AcDbEntity
  8
0
100
AcDbLine
 10
809.3299297231869
 20
712.7515005870195
 30
0.0
 11
874.3299297231869
 21
712.7515005870195
 31
0.0
  0
LINE
  5
2F78
330
18
100
AcDbEntity
  8
0
100
AcDbLine
 10
870.8299297231869
 20
723.7515005870196
 30
0.0
 11
812.8299297231869
 21
723.7515005870196
 31
0.0
  0
LINE
  5
2F79
330
18
100
AcDbEntity
  8
0
100
AcDbLine
 10
818.3299297231879
 20
692.7515005870195
 30
0.0
 11
818.3299297231869
 21
678.7515005870195
 31
0.0
  0
LINE
  5
2F7A
330
18
100
AcDbEntity
  8
0
100
AcDbLine
 10
819.8299297231869
 20
666.7515005870191
 30
0.0
 11
819.8299297231869
 21
658.0743762425518
 31
0.0
  0
ARC
  5
2F7B
330
18
100
AcDbEntity
  8
0
100
AcDbCircle
 10
821.329929723187
 20
656.7515005870196
 30
0.0
 40
2.0
100
AcDbArc
 50
87.2039743037107
 51
272.7960256962893
  0
LINE
  5
2F7C
330
18
100
AcDbEntity
  8
0
100
AcDbLine
 10
820.829929723186
 20
645.75150058702
 30
0.0
 11
824.5310858311805
 21
645.7515005870195
 31
0.0
  0
ARC
  5
2F7D
330
18
100
AcDbEntity
  8
0
100
AcDbCircle
 10
820.829929723186
 20
646.75150058702
 30
0.0
 40
1.0
100
AcDbArc
 50
180.0
 51
269.9999999999944
  0
LINE
  5
2F7E
330
18
100
AcDbEntity
  8
0
100
AcDbLine
 10
819.8299297231869
 20
655.4286249314873
 30
0.0
 11
819.829929723186
 21
646.75150058702
 31
0.0
  0
ARC
  5
2F7F
330
18
100
AcDbEntity
  8
0
100
AcDbCircle
 10
824.3299297231869
 20
678.7515005870195
 30
0.0
 40
6.0
100
AcDbArc
 50
180.0
 51
257.5824066611983
  0
LINE
  5
2F80
330
18
100
AcDbEntity
  8
0
100
AcDbLine
 10
820.8299297231869
 20
667.7515005870191
 30
0.0
 11
824.5310858311805
 21
667.7515005870195
 31
0.0
  0
ARC
  5
2F81
330
18
100
AcDbEntity
  8
0
100
AcDbCircle
 10
820.8299297231869
 20
666.7515005870191
 30
0.0
 40
1.0
100
AcDbArc
 50
90.00000000000555
 51
180.0
  0
ARC
  5
2F82
330
18
100
AcDbEntity
  8
0
100
AcDbCircle
 10
822.3946127820854
 20
669.9620439293253
 30
0.0
 40
3.0
100
AcDbArc
 50
325.7953305691406
 51
77.58240666118891
  0
ARC
  5
2F83
330
18
100
AcDbEntity
  8
0
100
AcDbCircle
 10
830.3494267522346
 20
690.0911493292583
 30
0.0
 40
33.66035125776125
100
AcDbArc
 50
70.05798215649914
 51
109.9420178435008
  0
LINE
  5
2F84
330
18
100
AcDbEntity
  8
0
100
AcDbLine
 10
809.3299297231869
 20
696.7515005870195
 30
0.0
 11
809.3299297231869
 21
721.7331672536861
 31
0.0
  0
LINE
  5
2F85
330
18
100
AcDbEntity
  8
0
100
AcDbLine
 10
810.3299297231869
 20
695.7515005870195
 30
0.0
 11
809.3299297231869
 21
696.7515005870195
 31
0.0
  0
ARC
  5
2F86
330
18
100
AcDbEntity
  8
0
100
AcDbCircle
 10
815.3299297231869
 20
692.7515005870195
 30
0.0
 40
3.0
100
AcDbArc
 50
0.0
 51
90.0
  0
ARC
  5
2F87
330
18
100
AcDbEntity
  8
0
100
AcDbCircle
 10
814.0994267522346
 20
717.1070153520973
 30
0.0
 40
6.644500231519874
100
AcDbArc
 50
44.12593225479906
 51
104.0671635547661
  0
LINE
  5
2F88
330
18
100
AcDbEntity
  8
0
100
AcDbLine
 10
809.3299297231869
 20
721.7331672536861
 30
0.0
 11
812.8299297231869
 21
723.7515005870196
 31
0.0
  0
LINE
  5
2F89
330
18
100
AcDbEntity
  8
0
100
AcDbLine
 10
818.8689237812814
 20
721.7331672536861
 30
0.0
 11
818.8689237812814
 21
712.7515005870195
 31
0.0
  0
LINE
  5
2F8A
330
18
100
AcDbEntity
  8
0
100
AcDbLine
 10
841.829929723187
 20
712.7515005870195
 30
0.0
 11
841.829929723187
 21
721.7331672536861
 31
0.0
  0
LINE
  5
2F8B
330
18
100
AcDbEntity
  8
0
100
AcDbLine
 10
865.3299297231869
 20
692.7515005870195
 30
0.0
 11
865.3299297231869
 21
678.7515005870195
 31
0.0
  0
ARC
  5
2F8C
330
18
100
AcDbEntity
  8
0
100
AcDbCircle
 10
862.329929723187
 20
656.7515005870196
 30
0.0
 40
2.0
100
AcDbArc
 50
267.2039743037107
 51
92.79602569628929
  0
ARC
  5
2F8D
330
18
100
AcDbEntity
  8
0
100
AcDbCircle
 10
859.3299297231869
 20
678.7515005870195
 30
0.0
 40
6.0
100
AcDbArc
 50
282.4175933388016
 51
0.0
  0
LINE
  5
2F8E
330
18
100
AcDbEntity
  8
0
100
AcDbLine
 10
874.3299297231869
 20
696.7515005870195
 30
0.0
 11
874.3299297231869
 21
721.7331672536861
 31
0.0
  0
ARC
  5
2F8F
330
18
100
AcDbEntity
  8
0
100
AcDbCircle
 10
868.3299297231869
 20
692.7515005870195
 30
0.0
 40
3.0
100
AcDbArc
 50
90.0
 51
180.0
  0
LINE
  5
2F90
330
18
100
AcDbEntity
  8
0
100
AcDbLine
 10
873.3299297231869
 20
695.7515005870195
 30
0.0
 11
874.3299297231869
 21
696.7515005870195
 31
0.0
  0
LINE
  5
2F91
330
18
100
AcDbEntity
  8
0
100
AcDbLine
 10
870.8299297231869
 20
723.7515005870196
 30
0.0
 11
874.3299297231869
 21
721.7331672536861
 31
0.0
  0
ARC
  5
2F92
330
18
100
AcDbEntity
  8
0
100
AcDbCircle
 10
869.5604326941392
 20
717.1070153520973
 30
0.0
 40
6.644500231519874
100
AcDbArc
 50
75.93283644523404
 51
135.8740677452009
  0
LINE
  5
2F93
330
18
100
AcDbEntity
  8
0
100
AcDbLine
 10
864.7909356650925
 20
721.7331672536861
 30
0.0
 11
864.7909356650925
 21
712.7515005870195
 31
0.0
  0
ARC
  5
2F94
330
18
100
AcDbEntity
  8
0
100
AcDbCircle
 10
1207.41261635236
 20
719.1070153520972
 30
0.0
 40
6.644500231519874
100
AcDbArc
 50
44.12593225479906
 51
104.0671635547661
  0
LINE
  5
2F95
330
18
100
AcDbEntity
  8
0
100
AcDbLine
 10
1202.643119323313
 20
723.7331672536861
 30
0.0
 11
1206.143119323312
 21
725.7515005870195
 31
0.0
  0
ARC
  5
2F96
330
18
100
AcDbEntity
  8
0
100
AcDbCircle
 10
1110.699830384563
 20
719.1070153520972
 30
0.0
 40
6.644500231519874
100
AcDbArc
 50
75.93283644523387
 51
135.8740677452009
  0
LINE
  5
2F97
330
18
100
AcDbEntity
  8
0
100
AcDbLine
 10
1115.469327413611
 20
723.7331672536861
 30
0.0
 11
1111.969327413611
 21
725.7515005870195
 31
0.0
  0
ARC
  5
2F98
330
18
100
AcDbEntity
  8
0
100
AcDbCircle
 10
1071.488824442659
 20
692.0911493292583
 30
0.0
 40
33.66035125776125
100
AcDbArc
 50
70.05798215649917
 51
109.9420178435008
  0
ARC
  5
2F99
330
18
100
AcDbEntity
  8
0
100
AcDbCircle
 10
1055.238824442659
 20
719.1070153520972
 30
0.0
 40
6.644500231519874
100
AcDbArc
 50
44.12593225479907
 51
104.0671635547659
  0
LINE
  5
2F9A
330
18
100
AcDbEntity
  8
0
100
AcDbLine
 10
1053.969327413611
 20
725.7515005870195
 30
0.0
 11
1050.469327413611
 21
723.7331672536861
 31
0.0
  0
ARC
  5
2F9B
330
18
100
AcDbEntity
  8
0
100
AcDbCircle
 10
1094.449830384563
 20
692.0911493292583
 30
0.0
 40
33.66035125776125
100
AcDbArc
 50
70.05798215649914
 51
109.9420178435008
  0
ARC
  5
2F9C
330
18
100
AcDbEntity
  8
0
100
AcDbCircle
 10
1223.66261635236
 20
692.0911493292583
 30
0.0
 40
33.66035125776125
100
AcDbArc
 50
70.05798215649914
 51
109.9420178435008
  0
LINE
  5
2F9D
330
18
100
AcDbEntity
  8
0
100
AcDbLine
 10
1114.469327413611
 20
697.7515005870195
 30
0.0
 11
1051.469327413611
 21
697.7515005870195
 31
0.0
  0
LINE
  5
2F9E
330
18
100
AcDbEntity
  8
0
100
AcDbLine
 10
1115.469327413611
 20
714.7515005870196
 30
0.0
 11
1050.469327413611
 21
714.7515005870196
 31
0.0
  0
CIRCLE
  5
2F9F
330
18
100
AcDbEntity
  8
0
100
AcDbCircle
 10
1082.969327413611
 20
656.7515005870196
 30
0.0
 40
25.0
  0
CIRCLE
  5
2FA0
330
18
100
AcDbEntity
  8
0
100
AcDbCircle
 10
1082.969327413611
 20
656.7515005870196
 30
0.0
 40
23.0
  0
LINE
  5
2FA1
330
18
100
AcDbEntity
  8
0
100
AcDbLine
 10
1059.469327413611
 20
694.7515005870191
 30
0.0
 11
1059.469327413611
 21
680.751500587019
 31
0.0
  0
ARC
  5
2FA2
330
18
100
AcDbEntity
  8
0
100
AcDbCircle
 10
1057.969327413611
 20
656.7515005870196
 30
0.0
 40
2.0
100
AcDbArc
 50
87.70755722404611
 51
272.2924427759539
  0
ARC
  5
2FA3
330
18
100
AcDbEntity
  8
0
100
AcDbCircle
 10
1065.469327413611
 20
680.751500587019
 30
0.0
 40
6.0
100
AcDbArc
 50
180.0
 51
235.68705967197
  0
ARC
  5
2FA4
330
18
100
AcDbEntity
  8
0
100
AcDbCircle
 10
1060.395913923949
 20
673.3177615841409
 30
0.0
 40
3.0
100
AcDbArc
 50
323.7256603406692
 51
55.68705967196759
  0
LINE
  5
2FA5
330
18
100
AcDbEntity
  8
0
100
AcDbLine
 10
1050.469327413611
 20
698.7515005870196
 30
0.0
 11
1050.469327413611
 21
723.7331672536861
 31
0.0
  0
ARC
  5
2FA6
330
18
100
AcDbEntity
  8
0
100
AcDbCircle
 10
1056.469327413611
 20
694.7515005870191
 30
0.0
 40
3.0
100
AcDbArc
 50
0.000000000000007
 51
90.0
  0
LINE
  5
2FA7
330
18
100
AcDbEntity
  8
0
100
AcDbLine
 10
1051.469327413611
 20
697.7515005870195
 30
0.0
 11
1050.469327413611
 21
698.7515005870196
 31
0.0
  0
LINE
  5
2FA8
330
18
100
AcDbEntity
  8
0
100
AcDbLine
 10
1060.008321471705
 20
723.7331672536861
 30
0.0
 11
1060.008321471705
 21
714.7515005870196
 31
0.0
  0
LINE
  5
2FA9
330
18
100
AcDbEntity
  8
0
100
AcDbLine
 10
1195.643119323313
 20
656.7515005870196
 30
0.0
 11
1195.643119323313
 21
633.7515005870195
 31
0.0
  0
LINE
  5
2FAA
330
18
100
AcDbEntity
  8
0
100
AcDbLine
 10
1197.643119323313
 20
681.7515005870196
 30
0.0
 11
1197.643119323313
 21
631.7515005870196
 31
0.0
  0
LINE
  5
2FAB
330
18
100
AcDbEntity
  8
0
100
AcDbLine
 10
1195.643119323313
 20
633.7515005870195
 30
0.0
 11
1197.643119323313
 21
631.7515005870196
 31
0.0
  0
LINE
  5
2FAC
330
18
100
AcDbEntity
  8
0
100
AcDbLine
 10
1106.469327413611
 20
694.7515005870191
 30
0.0
 11
1106.469327413611
 21
680.751500587019
 31
0.0
  0
LINE
  5
2FAD
330
18
100
AcDbEntity
  8
0
100
AcDbLine
 10
1109.969327413611
 20
666.7515118252159
 30
0.0
 11
1109.969327413611
 21
646.7515005870191
 31
0.0
  0
ARC
  5
2FAE
330
18
100
AcDbEntity
  8
0
100
AcDbCircle
 10
1107.969327413611
 20
656.7515005870196
 30
0.0
 40
2.0
100
AcDbArc
 50
267.707557224046
 51
92.29244277595389
  0
LINE
  5
2FAF
330
18
100
AcDbEntity
  8
0
100
AcDbLine
 10
1108.969327413611
 20
645.7515005870191
 30
0.0
 11
1105.419271734254
 21
645.7515005870195
 31
0.0
  0
ARC
  5
2FB0
330
18
100
AcDbEntity
  8
0
100
AcDbCircle
 10
1108.969327413611
 20
646.7515005870191
 30
0.0
 40
1.0
100
AcDbArc
 50
269.9999999999943
 51
0.000000000000007
  0
ARC
  5
2FB1
330
18
100
AcDbEntity
  8
0
100
AcDbCircle
 10
1100.469327413611
 20
680.751500587019
 30
0.0
 40
6.0
100
AcDbArc
 50
304.3129403280299
 51
0.000000000000007
  0
ARC
  5
2FB2
330
18
100
AcDbEntity
  8
0
100
AcDbCircle
 10
1105.542740903273
 20
673.3177615841409
 30
0.0
 40
3.0
100
AcDbArc
 50
124.3129403280323
 51
216.2743396593307
  0
LINE
  5
2FB3
330
18
100
AcDbEntity
  8
0
100
AcDbLine
 10
1108.969327413611
 20
667.7515118252158
 30
0.0
 11
1105.419266227771
 21
667.7515118252158
 31
0.0
  0
ARC
  5
2FB4
330
18
100
AcDbEntity
  8
0
100
AcDbCircle
 10
1108.969327413611
 20
666.7515118252159
 30
0.0
 40
1.0
100
AcDbArc
 50
0.000000000000007
 51
90.0
  0
LINE
  5
2FB5
330
18
100
AcDbEntity
  8
0
100
AcDbLine
 10
1082.969327413611
 20
714.7515005870196
 30
0.0
 11
1082.969327413611
 21
723.7331672536861
 31
0.0
  0
LINE
  5
2FB6
330
18
100
AcDbEntity
  8
0
100
AcDbLine
 10
1115.469327413611
 20
698.7515005870196
 30
0.0
 11
1115.469327413611
 21
723.7331672536861
 31
0.0
  0
LINE
  5
2FB7
330
18
100
AcDbEntity
  8
0
100
AcDbLine
 10
1114.469327413611
 20
697.7515005870195
 30
0.0
 11
1115.469327413611
 21
698.7515005870196
 31
0.0
  0
ARC
  5
2FB8
330
18
100
AcDbEntity
  8
0
100
AcDbCircle
 10
1109.469327413611
 20
694.7515005870191
 30
0.0
 40
3.0
100
AcDbArc
 50
90.0
 51
180.0
  0
LINE
  5
2FB9
330
18
100
AcDbEntity
  8
0
100
AcDbLine
 10
1105.930333355517
 20
723.7331672536861
 30
0.0
 11
1105.930333355517
 21
714.7515005870196
 31
0.0
  0
ARC
  5
2FBA
330
18
100
AcDbEntity
  8
0
100
AcDbCircle
 10
1208.61524143551
 20
684.7793784748859
 30
0.0
 40
3.028006221935096
100
AcDbArc
 50
270.5275114255749
 51
359.4724885732115
  0
LINE
  5
2FBB
330
18
100
AcDbEntity
  8
0
100
AcDbLine
 10
1218.143119323312
 20
667.7515118252158
 30
0.0
 11
1218.143119323312
 21
645.7515005870195
 31
0.0
  0
LINE
  5
2FBC
330
18
100
AcDbEntity
  8
0
100
AcDbLine
 10
1195.643119323313
 20
656.7515005870196
 30
0.0
 11
1195.643119323313
 21
679.7515005870195
 31
0.0
  0
LINE
  5
2FBD
330
18
100
AcDbEntity
  8
0
100
AcDbLine
 10
1207.643119323313
 20
654.7515005870195
 30
0.0
 11
1201.643119323313
 21
654.7515005870195
 31
0.0
  0
LINE
  5
2FBE
330
18
100
AcDbEntity
  8
0
100
AcDbLine
 10
1207.643119323313
 20
658.7515005870195
 30
0.0
 11
1201.643119323313
 21
658.7515005870195
 31
0.0
  0
ARC
  5
2FBF
330
18
100
AcDbEntity
  8
0
100
AcDbCircle
 10
1201.643119323313
 20
656.7515005870196
 30
0.0
 40
2.0
100
AcDbArc
 50
90.0
 51
270.0
  0
ARC
  5
2FC0
330
18
100
AcDbEntity
  8
0
100
AcDbCircle
 10
1207.643119323313
 20
656.7515005870196
 30
0.0
 40
2.0
100
AcDbArc
 50
270.0
 51
90.0
  0
LINE
  5
2FC1
330
18
100
AcDbEntity
  8
0
100
AcDbLine
 10
1208.643119323313
 20
681.7515005870196
 30
0.0
 11
1197.643119323313
 21
681.7515005870196
 31
0.0
  0
LINE
  5
2FC2
330
18
100
AcDbEntity
  8
0
100
AcDbLine
 10
1197.643119323313
 20
681.7515005870196
 30
0.0
 11
1195.643119323313
 21
679.7515005870195
 31
0.0
  0
LINE
  5
2FC3
330
18
100
AcDbEntity
  8
0
100
AcDbLine
 10
1202.643119323313
 20
698.7515005870196
 30
0.0
 11
1202.643119323313
 21
723.7331672536861
 31
0.0
  0
LINE
  5
2FC4
330
18
100
AcDbEntity
  8
0
100
AcDbLine
 10
1203.643119323313
 20
697.7515005870195
 30
0.0
 11
1202.643119323313
 21
698.7515005870196
 31
0.0
  0
LINE
  5
2FC5
330
18
100
AcDbEntity
  8
0
100
AcDbLine
 10
1211.643119323313
 20
697.7515005870195
 30
0.0
 11
1211.643119323313
 21
684.7515005870195
 31
0.0
  0
LINE
  5
2FC6
330
18
100
AcDbEntity
  8
0
100
AcDbLine
 10
1212.182113381407
 20
723.7331672536861
 30
0.0
 11
1212.182113381407
 21
714.7515005870196
 31
0.0
  0
LINE
  5
2FC7
330
18
100
AcDbEntity
  8
0
100
AcDbLine
 10
1235.143119323312
 20
714.7515005870196
 30
0.0
 11
1235.143119323312
 21
723.7331672536861
 31
0.0
  0
LINE
  5
2FC8
330
18
100
AcDbEntity
  8
0
100
AcDbLine
 10
1053.969327413611
 20
725.7515005870195
 30
0.0
 11
1111.969327413611
 21
725.7515005870195
 31
0.0
  0
LINE
  5
2FC9
330
18
100
AcDbEntity
  8
0
100
AcDbLine
 10
1195.643119323313
 20
786.2338320575404
 30
0.0
 11
1195.643119323313
 21
809.2338320575404
 31
0.0
  0
LINE
  5
2FCA
330
18
100
AcDbEntity
  8
0
100
AcDbLine
 10
1197.643119323313
 20
811.2338320575403
 30
0.0
 11
1197.643119323313
 21
761.2338320575404
 31
0.0
  0
LINE
  5
2FCB
330
18
100
AcDbEntity
  8
0
100
AcDbLine
 10
1195.643119323313
 20
786.2338320575404
 30
0.0
 11
1195.643119323313
 21
763.2338320575404
 31
0.0
  0
LINE
  5
2FCC
330
18
100
AcDbEntity
  8
0
100
AcDbLine
 10
1197.643119323313
 20
761.2338320575404
 30
0.0
 11
1214.376559666017
 21
761.2338320575404
 31
0.0
  0
LINE
  5
2FCD
330
18
100
AcDbEntity
  8
0
100
AcDbLine
 10
1201.627134688887
 20
759.2338320575404
 30
0.0
 11
1208.027134688886
 21
759.2338320575404
 31
0.0
  0
LINE
  5
2FCE
330
18
100
AcDbEntity
  8
0
100
AcDbLine
 10
1195.643119323313
 20
763.2338320575404
 30
0.0
 11
1197.643119323313
 21
761.2338320575404
 31
0.0
  0
LINE
  5
2FCF
330
18
100
AcDbEntity
  8
0
100
AcDbLine
 10
1199.827134688886
 20
761.0338320575401
 30
0.0
 11
1199.827134688886
 21
761.2338320575404
 31
0.0
  0
ARC
  5
2FD0
330
18
100
AcDbEntity
  8
0
100
AcDbCircle
 10
1201.627134688887
 20
761.0338320575401
 30
0.0
 40
1.8
100
AcDbArc
 50
180.0000000000004
 51
269.9999999999997
  0
LINE
  5
2FD1
330
18
100
AcDbEntity
  8
0
100
AcDbLine
 10
1209.827134688886
 20
761.0338320575406
 30
0.0
 11
1209.827134688886
 21
761.2338320575404
 31
0.0
  0
ARC
  5
2FD2
330
18
100
AcDbEntity
  8
0
100
AcDbCircle
 10
1208.027134688886
 20
761.0338320575406
 30
0.0
 40
1.8
100
AcDbArc
 50
270.0000000000001
 51
359.9999999999997
  0
ARC
  5
2FD3
330
18
100
AcDbEntity
  8
0
100
AcDbCircle
 10
1208.027134688886
 20
811.4338320575404
 30
0.0
 40
1.8
100
AcDbArc
 50
0.0000000000002036
 51
89.99999999999984
  0
ARC
  5
2FD4
330
18
100
AcDbEntity
  8
0
100
AcDbCircle
 10
1201.627134688887
 20
811.4338320575404
 30
0.0
 40
1.8
100
AcDbArc
 50
90.00000000000019
 51
179.9999999999996
  0
LINE
  5
2FD5
330
18
100
AcDbEntity
  8
0
100
AcDbLine
 10
1214.376559666017
 20
811.2338320575403
 30
0.0
 11
1197.643119323313
 21
811.2338320575403
 31
0.0
  0
LINE
  5
2FD6
330
18
100
AcDbEntity
  8
0
100
AcDbLine
 10
1201.627134688887
 20
813.2338320575405
 30
0.0
 11
1208.027134688886
 21
813.2338320575405
 31
0.0
  0
LINE
  5
2FD7
330
18
100
AcDbEntity
  8
0
100
AcDbLine
 10
1199.827134688886
 20
811.4338320575404
 30
0.0
 11
1199.827134688886
 21
811.2338320575403
 31
0.0
  0
LINE
  5
2FD8
330
18
100
AcDbEntity
  8
0
100
AcDbLine
 10
1197.643119323313
 20
811.2338320575403
 30
0.0
 11
1195.643119323313
 21
809.2338320575404
 31
0.0
  0
LINE
  5
2FD9
330
18
100
AcDbEntity
  8
0
100
AcDbLine
 10
1209.827134688886
 20
811.4338320575404
 30
0.0
 11
1209.827134688886
 21
811.2338320575403
 31
0.0
  0
LINE
  5
2FDA
330
18
100
AcDbEntity
  8
0
100
AcDbLine
 10
1195.643119323313
 20
852.5540480353088
 30
0.0
 11
1197.643119323313
 21
850.5540480353088
 31
0.0
  0
LINE
  5
2FDB
330
18
100
AcDbEntity
  8
0
100
AcDbLine
 10
1207.643119323313
 20
873.5540480353089
 30
0.0
 11
1201.643119323313
 21
873.5540480353089
 31
0.0
  0
LINE
  5
2FDC
330
18
100
AcDbEntity
  8
0
100
AcDbLine
 10
1211.643119323313
 20
903.5540480353088
 30
0.0
 11
1211.643119323313
 21
916.5540480353088
 31
0.0
  0
LINE
  5
2FDD
330
18
100
AcDbEntity
  8
0
100
AcDbLine
 10
1195.643119323313
 20
875.5540480353088
 30
0.0
 11
1195.643119323313
 21
898.5540480353089
 31
0.0
  0
LINE
  5
2FDE
330
18
100
AcDbEntity
  8
0
100
AcDbLine
 10
1207.643119323313
 20
877.5540480353088
 30
0.0
 11
1201.643119323313
 21
877.5540480353088
 31
0.0
  0
LINE
  5
2FDF
330
18
100
AcDbEntity
  8
0
100
AcDbLine
 10
1197.643119323313
 20
900.5540480353088
 30
0.0
 11
1208.643119323313
 21
900.5540480353088
 31
0.0
  0
LINE
  5
2FE0
330
18
100
AcDbEntity
  8
0
100
AcDbLine
 10
1197.643119323313
 20
900.5540480353088
 30
0.0
 11
1195.643119323313
 21
898.5540480353089
 31
0.0
  0
ARC
  5
2FE1
330
18
100
AcDbEntity
  8
0
100
AcDbCircle
 10
1208.61524143551
 20
903.5819259231752
 30
0.0
 40
3.028006221935096
100
AcDbArc
 50
270.5275114255749
 51
359.4724885732115
  0
ARC
  5
2FE2
330
18
100
AcDbEntity
  8
0
100
AcDbCircle
 10
1223.66261635236
 20
910.8936967775475
 30
0.0
 40
33.66035125776125
100
AcDbArc
 50
70.05798215649914
 51
109.9420178435008
  0
LINE
  5
2FE3
330
18
100
AcDbEntity
  8
0
100
AcDbLine
 10
1202.643119323313
 20
917.5540480353088
 30
0.0
 11
1202.643119323313
 21
942.5357147019754
 31
0.0
  0
LINE
  5
2FE4
330
18
100
AcDbEntity
  8
0
100
AcDbLine
 10
1212.182113381407
 20
942.5357147019754
 30
0.0
 11
1212.182113381407
 21
933.5540480353088
 31
0.0
  0
LINE
  5
2FE5
330
18
100
AcDbEntity
  8
0
100
AcDbLine
 10
1203.643119323313
 20
916.5540480353088
 30
0.0
 11
1202.643119323313
 21
917.5540480353088
 31
0.0
  0
ARC
  5
2FE6
330
18
100
AcDbEntity
  8
0
100
AcDbCircle
 10
1207.41261635236
 20
937.9095628003863
 30
0.0
 40
6.644500231519874
100
AcDbArc
 50
44.12593225479906
 51
104.0671635547661
  0
LINE
  5
2FE7
330
18
100
AcDbEntity
  8
0
100
AcDbLine
 10
1202.643119323313
 20
942.5357147019754
 30
0.0
 11
1206.143119323312
 21
944.5540480353088
 31
0.0
  0
LINE
  5
2FE8
330
18
100
AcDbEntity
  8
0
100
AcDbLine
 10
1235.143119323312
 20
933.5540480353088
 30
0.0
 11
1235.143119323312
 21
942.5357147019754
 31
0.0
  0
ARC
  5
2FE9
330
18
100
AcDbEntity
  8
0
100
AcDbCircle
 10
1268.643119323312
 20
875.5540480353088
 30
0.0
 40
2.0
100
AcDbArc
 50
270.0
 51
90.0
  0
ARC
  5
2FEA
330
18
100
AcDbEntity
  8
0
100
AcDbCircle
 10
1262.643119323312
 20
875.5540480353088
 30
0.0
 40
2.0
100
AcDbArc
 50
90.0
 51
270.0
  0
LINE
  5
2FEB
330
18
100
AcDbEntity
  8
0
100
AcDbLine
 10
1274.643119323313
 20
875.5540480353088
 30
0.0
 11
1274.643119323313
 21
852.5540480353088
 31
0.0
  0
LINE
  5
2FEC
330
18
100
AcDbEntity
  8
0
100
AcDbLine
 10
1272.643119323312
 20
850.5540480353088
 30
0.0
 11
1272.643119323312
 21
900.5540480353088
 31
0.0
  0
ARC
  5
2FED
330
18
100
AcDbEntity
  8
0
100
AcDbCircle
 10
1314.824115970147
 20
692.0911493292583
 30
0.0
 40
33.66035125776125
100
AcDbArc
 50
70.05798215649914
 51
109.9420178435008
  0
ARC
  5
2FEE
330
18
100
AcDbEntity
  8
0
100
AcDbCircle
 10
1298.574115970147
 20
719.1070153520972
 30
0.0
 40
6.644500231519874
100
AcDbArc
 50
44.12593225479906
 51
104.0671635547661
  0
LINE
  5
2FEF
330
18
100
AcDbEntity
  8
0
100
AcDbLine
 10
1293.804618941099
 20
723.7331672536861
 30
0.0
 11
1297.304618941099
 21
725.7515005870195
 31
0.0
  0
ARC
  5
2FF0
330
18
100
AcDbEntity
  8
0
100
AcDbCircle
 10
1354.035121912052
 20
719.1070153520972
 30
0.0
 40
6.644500231519874
100
AcDbArc
 50
75.93283644523404
 51
135.8740677452009
  0
LINE
  5
2FF1
330
18
100
AcDbEntity
  8
0
100
AcDbLine
 10
1355.304618941099
 20
725.7515005870195
 30
0.0
 11
1358.804618941099
 21
723.7331672536861
 31
0.0
  0
ARC
  5
2FF2
330
18
100
AcDbEntity
  8
0
100
AcDbCircle
 10
1337.785121912052
 20
692.0911493292583
 30
0.0
 40
33.66035125776125
100
AcDbArc
 50
70.05798215649917
 51
109.9420178435008
  0
ARC
  5
2FF3
330
18
100
AcDbEntity
  8
0
100
AcDbCircle
 10
1262.873622294265
 20
719.1070153520972
 30
0.0
 40
6.644500231519874
100
AcDbArc
 50
75.93283644523404
 51
135.8740677452009
  0
LINE
  5
2FF4
330
18
100
AcDbEntity
  8
0
100
AcDbLine
 10
1264.143119323313
 20
725.7515005870195
 30
0.0
 11
1267.643119323313
 21
723.7331672536861
 31
0.0
  0
LINE
  5
2FF5
330
18
100
AcDbEntity
  8
0
100
AcDbLine
 10
1274.643119323313
 20
656.7515005870196
 30
0.0
 11
1274.643119323313
 21
633.7515005870195
 31
0.0
  0
LINE
  5
2FF6
330
18
100
AcDbEntity
  8
0
100
AcDbLine
 10
1272.643119323312
 20
631.7515005870196
 30
0.0
 11
1272.643119323312
 21
681.7515005870196
 31
0.0
  0
CIRCLE
  5
2FF7
330
18
100
AcDbEntity
  8
0
100
AcDbCircle
 10
1326.304618941099
 20
656.7515005870196
 30
0.0
 40
25.0
  0
CIRCLE
  5
2FF8
330
18
100
AcDbEntity
  8
0
100
AcDbCircle
 10
1326.304618941099
 20
656.7515005870196
 30
0.0
 40
23.0
  0
LINE
  5
2FF9
330
18
100
AcDbEntity
  8
0
100
AcDbLine
 10
1272.643119323312
 20
631.7515005870196
 30
0.0
 11
1274.643119323313
 21
633.7515005870195
 31
0.0
  0
LINE
  5
2FFA
330
18
100
AcDbEntity
  8
0
100
AcDbLine
 10
1294.8046189411
 20
697.7515005870195
 30
0.0
 11
1357.804618941099
 21
697.7515005870195
 31
0.0
  0
LINE
  5
2FFB
330
18
100
AcDbEntity
  8
0
100
AcDbLine
 10
1293.804618941099
 20
714.7515005870196
 30
0.0
 11
1358.804618941099
 21
714.7515005870196
 31
0.0
  0
LINE
  5
2FFC
330
18
100
AcDbEntity
  8
0
100
AcDbLine
 10
1302.8046189411
 20
694.7515005870191
 30
0.0
 11
1302.8046189411
 21
680.751500587019
 31
0.0
  0
ARC
  5
2FFD
330
18
100
AcDbEntity
  8
0
100
AcDbCircle
 10
1261.670997211115
 20
684.7793784748859
 30
0.0
 40
3.028006221935096
100
AcDbArc
 50
180.5275114267885
 51
269.472488574425
  0
LINE
  5
2FFE
330
18
100
AcDbEntity
  8
0
100
AcDbLine
 10
1252.143119323313
 20
645.7515005870195
 30
0.0
 11
1252.143119323313
 21
667.7515118252158
 31
0.0
  0
LINE
  5
2FFF
330
18
100
AcDbEntity
  8
0
100
AcDbLine
 10
1274.643119323313
 20
656.7515005870196
 30
0.0
 11
1274.643119323313
 21
679.7515005870195
 31
0.0
  0
LINE
  5
3000
330
18
100
AcDbEntity
  8
0
100
AcDbLine
 10
1262.643119323312
 20
658.7515005870195
 30
0.0
 11
1268.643119323312
 21
658.7515005870195
 31
0.0
  0
LINE
  5
3001
330
18
100
AcDbEntity
  8
0
100
AcDbLine
 10
1262.643119323312
 20
654.7515005870195
 30
0.0
 11
1268.643119323312
 21
654.7515005870195
 31
0.0
  0
ARC
  5
3002
330
18
100
AcDbEntity
  8
0
100
AcDbCircle
 10
1262.643119323312
 20
656.7515005870196
 30
0.0
 40
2.0
100
AcDbArc
 50
90.0
 51
270.0
  0
ARC
  5
3003
330
18
100
AcDbEntity
  8
0
100
AcDbCircle
 10
1268.643119323312
 20
656.7515005870196
 30
0.0
 40
2.0
100
AcDbArc
 50
270.0
 51
90.0
  0
LINE
  5
3004
330
18
100
AcDbEntity
  8
0
100
AcDbLine
 10
1272.643119323312
 20
681.7515005870196
 30
0.0
 11
1261.643119323313
 21
681.7515005870196
 31
0.0
  0
LINE
  5
3005
330
18
100
AcDbEntity
  8
0
100
AcDbLine
 10
1274.643119323313
 20
679.7515005870195
 30
0.0
 11
1272.643119323312
 21
681.7515005870196
 31
0.0
  0
LINE
  5
3006
330
18
100
AcDbEntity
  8
0
100
AcDbLine
 10
1299.304618941099
 20
666.7515118252159
 30
0.0
 11
1299.304618941099
 21
646.7515005870191
 31
0.0
  0
ARC
  5
3007
330
18
100
AcDbEntity
  8
0
100
AcDbCircle
 10
1301.304618941099
 20
656.7515005870196
 30
0.0
 40
2.0
100
AcDbArc
 50
87.7075572240461
 51
272.2924427759539
  0
LINE
  5
3008
330
18
100
AcDbEntity
  8
0
100
AcDbLine
 10
1300.304618941099
 20
645.7515005870191
 30
0.0
 11
1303.854674620456
 21
645.7515005870195
 31
0.0
  0
ARC
  5
3009
330
18
100
AcDbEntity
  8
0
100
AcDbCircle
 10
1300.304618941099
 20
646.7515005870191
 30
0.0
 40
1.0
100
AcDbArc
 50
180.0
 51
270.0000000000057
  0
ARC
  5
300A
330
18
100
AcDbEntity
  8
0
100
AcDbCircle
 10
1308.804618941099
 20
680.751500587019
 30
0.0
 40
6.0
100
AcDbArc
 50
180.0
 51
235.68705967197
  0
ARC
  5
300B
330
18
100
AcDbEntity
  8
0
100
AcDbCircle
 10
1303.731205451437
 20
673.3177615841409
 30
0.0
 40
3.0
100
AcDbArc
 50
323.7256603406692
 51
55.68705967196761
  0
LINE
  5
300C
330
18
100
AcDbEntity
  8
0
100
AcDbLine
 10
1300.304618941099
 20
667.7515118252158
 30
0.0
 11
1303.854680126939
 21
667.7515118252158
 31
0.0
  0
ARC
  5
300D
330
18
100
AcDbEntity
  8
0
100
AcDbCircle
 10
1300.304618941099
 20
666.7515118252159
 30
0.0
 40
1.0
100
AcDbArc
 50
90.0
 51
180.0
  0
LINE
  5
300E
330
18
100
AcDbEntity
  8
0
100
AcDbLine
 10
1267.643119323313
 20
698.7515005870196
 30
0.0
 11
1267.643119323313
 21
723.7331672536861
 31
0.0
  0
LINE
  5
300F
330
18
100
AcDbEntity
  8
0
100
AcDbLine
 10
1258.643119323313
 20
684.7515005870195
 30
0.0
 11
1258.643119323313
 21
697.7515005870195
 31
0.0
  0
LINE
  5
3010
330
18
100
AcDbEntity
  8
0
100
AcDbLine
 10
1266.643119323313
 20
697.7515005870195
 30
0.0
 11
1267.643119323313
 21
698.7515005870196
 31
0.0
  0
LINE
  5
3011
330
18
100
AcDbEntity
  8
0
100
AcDbLine
 10
1258.104125265218
 20
723.7331672536861
 30
0.0
 11
1258.104125265218
 21
714.7515005870196
 31
0.0
  0
LINE
  5
3012
330
18
100
AcDbEntity
  8
0
100
AcDbLine
 10
1293.804618941099
 20
698.7515005870196
 30
0.0
 11
1293.804618941099
 21
723.7331672536861
 31
0.0
  0
LINE
  5
3013
330
18
100
AcDbEntity
  8
0
100
AcDbLine
 10
1294.8046189411
 20
697.7515005870195
 30
0.0
 11
1293.804618941099
 21
698.7515005870196
 31
0.0
  0
ARC
  5
3014
330
18
100
AcDbEntity
  8
0
100
AcDbCircle
 10
1299.804618941099
 20
694.7515005870191
 30
0.0
 40
3.0
100
AcDbArc
 50
0.0
 51
90.0
  0
LINE
  5
3015
330
18
100
AcDbEntity
  8
0
100
AcDbLine
 10
1303.343612999194
 20
723.7331672536861
 30
0.0
 11
1303.343612999194
 21
714.7515005870196
 31
0.0
  0
LINE
  5
3016
330
18
100
AcDbEntity
  8
0
100
AcDbLine
 10
1349.804618941099
 20
694.7515005870191
 30
0.0
 11
1349.804618941099
 21
680.751500587019
 31
0.0
  0
ARC
  5
3017
330
18
100
AcDbEntity
  8
0
100
AcDbCircle
 10
1351.304618941099
 20
656.7515005870196
 30
0.0
 40
2.0
100
AcDbArc
 50
267.707557224046
 51
92.29244277595389
  0
ARC
  5
3018
330
18
100
AcDbEntity
  8
0
100
AcDbCircle
 10
1343.804618941099
 20
680.751500587019
 30
0.0
 40
6.0
100
AcDbArc
 50
304.3129403280299
 51
0.0
  0
ARC
  5
3019
330
18
100
AcDbEntity
  8
0
100
AcDbCircle
 10
1348.878032430761
 20
673.3177615841409
 30
0.0
 40
3.0
100
AcDbArc
 50
124.3129403280324
 51
216.2743396593307
  0
LINE
  5
301A
330
18
100
AcDbEntity
  8
0
100
AcDbLine
 10
1326.304618941099
 20
714.7515005870196
 30
0.0
 11
1326.304618941099
 21
723.7331672536861
 31
0.0
  0
LINE
  5
301B
330
18
100
AcDbEntity
  8
0
100
AcDbLine
 10
1358.804618941099
 20
698.7515005870196
 30
0.0
 11
1358.804618941099
 21
723.7331672536861
 31
0.0
  0
ARC
  5
301C
330
18
100
AcDbEntity
  8
0
100
AcDbCircle
 10
1352.8046189411
 20
694.7515005870191
 30
0.0
 40
3.0
100
AcDbArc
 50
90.0
 51
180.0
  0
LINE
  5
301D
330
18
100
AcDbEntity
  8
0
100
AcDbLine
 10
1357.804618941099
 20
697.7515005870195
 30
0.0
 11
1358.804618941099
 21
698.7515005870196
 31
0.0
  0
LINE
  5
301E
330
18
100
AcDbEntity
  8
0
100
AcDbLine
 10
1349.265624883005
 20
723.7331672536861
 30
0.0
 11
1349.265624883005
 21
714.7515005870196
 31
0.0
  0
LINE
  5
301F
330
18
100
AcDbEntity
  8
0
100
AcDbLine
 10
1274.643119323313
 20
786.2338320575404
 30
0.0
 11
1274.643119323313
 21
809.2338320575404
 31
0.0
  0
LINE
  5
3020
330
18
100
AcDbEntity
  8
0
100
AcDbLine
 10
1272.643119323312
 20
811.2338320575403
 30
0.0
 11
1272.643119323312
 21
761.2338320575404
 31
0.0
  0
LINE
  5
3021
330
18
100
AcDbEntity
  8
0
100
AcDbLine
 10
1355.304618941099
 20
725.7515005870195
 30
0.0
 11
1297.304618941099
 21
725.7515005870195
 31
0.0
  0
LINE
  5
3022
330
18
100
AcDbEntity
  8
0
100
AcDbLine
 10
1274.643119323313
 20
786.2338320575404
 30
0.0
 11
1274.643119323313
 21
763.2338320575404
 31
0.0
  0
LINE
  5
3023
330
18
100
AcDbEntity
  8
0
100
AcDbLine
 10
1255.909678980608
 20
761.2338320575404
 30
0.0
 11
1272.643119323312
 21
761.2338320575404
 31
0.0
  0
LINE
  5
3024
330
18
100
AcDbEntity
  8
0
100
AcDbLine
 10
1272.643119323312
 20
761.2338320575404
 30
0.0
 11
1255.909678980608
 21
761.2338320575404
 31
0.0
  0
LINE
  5
3025
330
18
100
AcDbEntity
  8
0
100
AcDbLine
 10
1268.659103957738
 20
759.2338320575404
 30
0.0
 11
1262.259103957739
 21
759.2338320575404
 31
0.0
  0
LINE
  5
3026
330
18
100
AcDbEntity
  8
0
100
AcDbLine
 10
1260.459103957739
 20
761.0338320575406
 30
0.0
 11
1260.459103957739
 21
761.2338320575404
 31
0.0
  0
ARC
  5
3027
330
18
100
AcDbEntity
  8
0
100
AcDbCircle
 10
1262.259103957739
 20
761.0338320575406
 30
0.0
 40
1.8
100
AcDbArc
 50
180.0000000000002
 51
269.9999999999998
  0
LINE
  5
3028
330
18
100
AcDbEntity
  8
0
100
AcDbLine
 10
1270.459103957739
 20
761.0338320575401
 30
0.0
 11
1270.459103957739
 21
761.2338320575404
 31
0.0
  0
LINE
  5
3029
330
18
100
AcDbEntity
  8
0
100
AcDbLine
 10
1272.643119323312
 20
761.2338320575404
 30
0.0
 11
1274.643119323313
 21
763.2338320575404
 31
0.0
  0
ARC
  5
302A
330
18
100
AcDbEntity
  8
0
100
AcDbCircle
 10
1268.659103957738
 20
761.0338320575401
 30
0.0
 40
1.8
100
AcDbArc
 50
270.0000000000002
 51
359.9999999999996
  0
ARC
  5
302B
330
18
100
AcDbEntity
  8
0
100
AcDbCircle
 10
1262.259103957739
 20
811.4338320575404
 30
0.0
 40
1.8
100
AcDbArc
 50
90.00000000000017
 51
179.9999999999998
  0
ARC
  5
302C
330
18
100
AcDbEntity
  8
0
100
AcDbCircle
 10
1268.659103957738
 20
811.4338320575404
 30
0.0
 40
1.8
100
AcDbArc
 50
0.0000000000004071
 51
89.9999999999998
  0
LINE
  5
302D
330
18
100
AcDbEntity
  8
0
100
AcDbLine
 10
1272.643119323312
 20
811.2338320575403
 30
0.0
 11
1255.909678980608
 21
811.2338320575403
 31
0.0
  0
LINE
  5
302E
330
18
100
AcDbEntity
  8
0
100
AcDbLine
 10
1255.909678980608
 20
811.2338320575403
 30
0.0
 11
1272.643119323312
 21
811.2338320575403
 31
0.0
  0
LINE
  5
302F
330
18
100
AcDbEntity
  8
0
100
AcDbLine
 10
1268.659103957738
 20
813.2338320575405
 30
0.0
 11
1262.259103957739
 21
813.2338320575405
 31
0.0
  0
LINE
  5
3030
330
18
100
AcDbEntity
  8
0
100
AcDbLine
 10
1260.459103957739
 20
811.4338320575404
 30
0.0
 11
1260.459103957739
 21
811.2338320575403
 31
0.0
  0
LINE
  5
3031
330
18
100
AcDbEntity
  8
0
100
AcDbLine
 10
1270.459103957739
 20
811.4338320575404
 30
0.0
 11
1270.459103957739
 21
811.2338320575403
 31
0.0
  0
LINE
  5
3032
330
18
100
AcDbEntity
  8
0
100
AcDbLine
 10
1274.643119323313
 20
809.2338320575404
 30
0.0
 11
1272.643119323312
 21
811.2338320575403
 31
0.0
  0
LINE
  5
3033
330
18
100
AcDbEntity
  8
0
100
AcDbLine
 10
1272.643119323312
 20
850.5540480353088
 30
0.0
 11
1274.643119323313
 21
852.5540480353088
 31
0.0
  0
LINE
  5
3034
330
18
100
AcDbEntity
  8
0
100
AcDbLine
 10
1262.643119323312
 20
873.5540480353089
 30
0.0
 11
1268.643119323312
 21
873.5540480353089
 31
0.0
  0
LINE
  5
3035
330
18
100
AcDbEntity
  8
0
100
AcDbLine
 10
1258.643119323313
 20
916.5540480353088
 30
0.0
 11
1258.643119323313
 21
903.5540480353088
 31
0.0
  0
LINE
  5
3036
330
18
100
AcDbEntity
  8
0
100
AcDbLine
 10
1274.643119323313
 20
875.5540480353088
 30
0.0
 11
1274.643119323313
 21
898.5540480353089
 31
0.0
  0
LINE
  5
3037
330
18
100
AcDbEntity
  8
0
100
AcDbLine
 10
1262.643119323312
 20
877.5540480353088
 30
0.0
 11
1268.643119323312
 21
877.5540480353088
 31
0.0
  0
LINE
  5
3038
330
18
100
AcDbEntity
  8
0
100
AcDbLine
 10
1261.643119323313
 20
900.5540480353088
 30
0.0
 11
1272.643119323312
 21
900.5540480353088
 31
0.0
  0
ARC
  5
3039
330
18
100
AcDbEntity
  8
0
100
AcDbCircle
 10
1261.670997211115
 20
903.5819259231752
 30
0.0
 40
3.028006221935096
100
AcDbArc
 50
180.5275114267885
 51
269.472488574425
  0
LINE
  5
303A
330
18
100
AcDbEntity
  8
0
100
AcDbLine
 10
1274.643119323313
 20
898.5540480353089
 30
0.0
 11
1272.643119323312
 21
900.5540480353088
 31
0.0
  0
LINE
  5
303B
330
18
100
AcDbEntity
  8
0
100
AcDbLine
 10
1267.643119323313
 20
917.5540480353088
 30
0.0
 11
1267.643119323313
 21
942.5357147019754
 31
0.0
  0
LINE
  5
303C
330
18
100
AcDbEntity
  8
0
100
AcDbLine
 10
1258.104125265218
 20
942.5357147019754
 30
0.0
 11
1258.104125265218
 21
933.5540480353088
 31
0.0
  0
LINE
  5
303D
330
18
100
AcDbEntity
  8
0
100
AcDbLine
 10
1266.643119323313
 20
916.5540480353088
 30
0.0
 11
1267.643119323313
 21
917.5540480353088
 31
0.0
  0
LINE
  5
303E
330
18
100
AcDbEntity
  8
0
100
AcDbLine
 10
1264.143119323313
 20
944.5540480353088
 30
0.0
 11
1267.643119323313
 21
942.5357147019754
 31
0.0
  0
ARC
  5
303F
330
18
100
AcDbEntity
  8
0
100
AcDbCircle
 10
1262.873622294265
 20
937.9095628003863
 30
0.0
 40
6.644500231519874
100
AcDbArc
 50
75.93283644523404
 51
135.8740677452009
  0
LINE
  5
3060
330
18
100
AcDbEntity
  8
0
100
AcDbLine
 10
1178.676496335982
 20
789.2237499279449
 30
0.0
 11
1188.335746335981
 21
779.7703749279453
 31
0.0
  0
LINE
  5
3061
330
18
100
AcDbEntity
  8
0
100
AcDbLine
 10
1188.335746335981
 20
779.7703749279453
 30
0.0
 11
1141.067183835981
 21
779.7703749279453
 31
0.0
  0
LINE
  5
3062
330
18
100
AcDbEntity
  8
0
100
AcDbLine
 10
1178.676496335982
 20
784.4970624279451
 30
0.0
 11
1178.676496335982
 21
789.2237499279449
 31
0.0
  0
LINE
  5
3063
330
18
100
AcDbEntity
  8
0
100
AcDbLine
 10
1159.973933835981
 20
789.2237499279449
 30
0.0
 11
1164.702308835982
 21
784.4970624279451
 31
0.0
  0
LINE
  5
3064
330
18
100
AcDbEntity
  8
0
100
AcDbLine
 10
1141.067183835981
 20
779.7703749279453
 30
0.0
 11
1131.613808835981
 21
789.2237499279449
 31
0.0
  0
LINE
  5
3065
330
18
100
AcDbEntity
  8
0
100
AcDbLine
 10
1164.702308835982
 20
784.4970624279451
 30
0.0
 11
1178.676496335982
 21
784.4970624279451
 31
0.0
  0
LINE
  5
3066
330
18
100
AcDbEntity
  8
0
100
AcDbLine
 10
1131.613808835981
 20
789.2237499279449
 30
0.0
 11
1159.973933835981
 21
789.2237499279449
 31
0.0
  0
LINE
  5
3067
330
18
100
AcDbEntity
  8
0
100
AcDbLine
 10
1176.981710811222
 20
664.7509395072965
 30
0.0
 11
1186.640960811221
 21
655.297564507297
 31
0.0
  0
LINE
  5
3068
330
18
100
AcDbEntity
  8
0
100
AcDbLine
 10
1186.640960811221
 20
655.297564507297
 30
0.0
 11
1139.372398311221
 21
655.297564507297
 31
0.0
  0
LINE
  5
3069
330
18
100
AcDbEntity
  8
0
100
AcDbLine
 10
1176.981710811222
 20
660.0242520072968
 30
0.0
 11
1176.981710811222
 21
664.7509395072965
 31
0.0
  0
LINE
  5
306A
330
18
100
AcDbEntity
  8
0
100
AcDbLine
 10
1158.279148311222
 20
664.7509395072965
 30
0.0
 11
1163.007523311222
 21
660.0242520072968
 31
0.0
  0
LINE
  5
306B
330
18
100
AcDbEntity
  8
0
100
AcDbLine
 10
1139.372398311221
 20
655.297564507297
 30
0.0
 11
1129.919023311221
 21
664.7509395072965
 31
0.0
  0
LINE
  5
306C
330
18
100
AcDbEntity
  8
0
100
AcDbLine
 10
1163.007523311222
 20
660.0242520072968
 30
0.0
 11
1176.981710811222
 21
660.0242520072968
 31
0.0
  0
LINE
  5
306D
330
18
100
AcDbEntity
  8
0
100
AcDbLine
 10
1129.919023311221
 20
664.7509395072965
 30
0.0
 11
1158.279148311222
 21
664.7509395072965
 31
0.0
  0
LINE
  5
306E
330
18
100
AcDbEntity
  8
0
100
AcDbLine
 10
701.23151330891
 20
792.6108459198276
 30
0.0
 11
710.8907633089093
 21
783.157470919828
 31
0.0
  0
LINE
  5
306F
330
18
100
AcDbEntity
  8
0
100
AcDbLine
 10
710.8907633089093
 20
783.157470919828
 30
0.0
 11
663.6222008089089
 21
783.157470919828
 31
0.0
  0
LINE
  5
3070
330
18
100
AcDbEntity
  8
0
100
AcDbLine
 10
701.23151330891
 20
787.8841584198278
 30
0.0
 11
701.23151330891
 21
792.6108459198276
 31
0.0
  0
LINE
  5
3071
330
18
100
AcDbEntity
  8
0
100
AcDbLine
 10
682.5289508089094
 20
792.6108459198276
 30
0.0
 11
687.2573258089096
 21
787.8841584198278
 31
0.0
  0
LINE
  5
3072
330
18
100
AcDbEntity
  8
0
100
AcDbLine
 10
663.6222008089089
 20
783.157470919828
 30
0.0
 11
654.1688258089093
 21
792.6108459198276
 31
0.0
  0
LINE
  5
3073
330
18
100
AcDbEntity
  8
0
100
AcDbLine
 10
687.2573258089096
 20
787.8841584198278
 30
0.0
 11
701.23151330891
 21
787.8841584198278
 31
0.0
  0
LINE
  5
3074
330
18
100
AcDbEntity
  8
0
100
AcDbLine
 10
654.1688258089093
 20
792.6108459198276
 30
0.0
 11
682.5289508089094
 21
792.6108459198276
 31
0.0
  0
LINE
  5
3075
330
18
100
AcDbEntity
  8
0
100
AcDbLine
 10
701.23151330891
 20
659.6702942971119
 30
0.0
 11
710.8907633089093
 21
650.2169192971123
 31
0.0
  0
LINE
  5
3076
330
18
100
AcDbEntity
  8
0
100
AcDbLine
 10
710.8907633089093
 20
650.2169192971123
 30
0.0
 11
663.6222008089089
 21
650.2169192971123
 31
0.0
  0
LINE
  5
3077
330
18
100
AcDbEntity
  8
0
100
AcDbLine
 10
701.23151330891
 20
654.9436067971121
 30
0.0
 11
701.23151330891
 21
659.6702942971119
 31
0.0
  0
LINE
  5
3078
330
18
100
AcDbEntity
  8
0
100
AcDbLine
 10
682.5289508089094
 20
659.6702942971119
 30
0.0
 11
687.2573258089096
 21
654.9436067971121
 31
0.0
  0
LINE
  5
3079
330
18
100
AcDbEntity
  8
0
100
AcDbLine
 10
663.6222008089089
 20
650.2169192971123
 30
0.0
 11
654.1688258089093
 21
659.6702942971119
 31
0.0
  0
LINE
  5
307A
330
18
100
AcDbEntity
  8
0
100
AcDbLine
 10
687.2573258089096
 20
654.9436067971121
 30
0.0
 11
701.23151330891
 21
654.9436067971121
 31
0.0
  0
LINE
  5
307B
330
18
100
AcDbEntity
  8
0
100
AcDbLine
 10
654.1688258089093
 20
659.6702942971119
 30
0.0
 11
682.5289508089094
 21
659.6702942971119
 31
0.0
  0
LINE
  5
307C
330
18
100
AcDbEntity
  8
0
100
AcDbLine
 10
243.3304495911588
 20
663.0573902889945
 30
0.0
 11
252.9896995911581
 21
653.604015288995
 31
0.0
  0
LINE
  5
307D
330
18
100
AcDbEntity
  8
0
100
AcDbLine
 10
252.9896995911581
 20
653.604015288995
 30
0.0
 11
205.7211370911577
 21
653.604015288995
 31
0.0
  0
LINE
  5
307E
330
18
100
AcDbEntity
  8
0
100
AcDbLine
 10
243.3304495911588
 20
658.3307027889948
 30
0.0
 11
243.3304495911588
 21
663.0573902889945
 31
0.0
  0
LINE
  5
307F
330
18
100
AcDbEntity
  8
0
100
AcDbLine
 10
224.6278870911583
 20
663.0573902889945
 30
0.0
 11
229.3562620911584
 21
658.3307027889948
 31
0.0
  0
LINE
  5
3080
330
18
100
AcDbEntity
  8
0
100
AcDbLine
 10
205.7211370911577
 20
653.604015288995
 30
0.0
 11
196.2677620911581
 21
663.0573902889945
 31
0.0
  0
LINE
  5
3081
330
18
100
AcDbEntity
  8
0
100
AcDbLine
 10
229.3562620911584
 20
658.3307027889948
 30
0.0
 11
243.3304495911588
 21
658.3307027889948
 31
0.0
  0
LINE
  5
3082
330
18
100
AcDbEntity
  8
0
100
AcDbLine
 10
196.2677620911581
 20
663.0573902889945
 30
0.0
 11
224.6278870911583
 21
663.0573902889945
 31
0.0
  0
LINE
  5
3083
330
18
100
AcDbEntity
  8
0
100
AcDbLine
 10
246.7200206406792
 20
799.3850403483143
 30
0.0
 11
256.3792706406784
 21
789.9316653483147
 31
0.0
  0
LINE
  5
3084
330
18
100
AcDbEntity
  8
0
100
AcDbLine
 10
256.3792706406784
 20
789.9316653483147
 30
0.0
 11
209.110708140678
 21
789.9316653483147
 31
0.0
  0
LINE
  5
3085
330
18
100
AcDbEntity
  8
0
100
AcDbLine
 10
246.7200206406792
 20
794.6583528483145
 30
0.0
 11
246.7200206406792
 21
799.3850403483143
 31
0.0
  0
LINE
  5
3086
330
18
100
AcDbEntity
  8
0
100
AcDbLine
 10
228.0174581406786
 20
799.3850403483143
 30
0.0
 11
232.7458331406787
 21
794.6583528483145
 31
0.0
  0
LINE
  5
3087
330
18
100
AcDbEntity
  8
0
100
AcDbLine
 10
209.110708140678
 20
789.9316653483147
 30
0.0
 11
199.6573331406784
 21
799.3850403483143
 31
0.0
  0
LINE
  5
3088
330
18
100
AcDbEntity
  8
0
100
AcDbLine
 10
232.7458331406787
 20
794.6583528483145
 30
0.0
 11
246.7200206406792
 21
794.6583528483145
 31
0.0
  0
LINE
  5
3089
330
18
100
AcDbEntity
  8
0
100
AcDbLine
 10
199.6573331406784
 20
799.3850403483143
 30
0.0
 11
228.0174581406786
 21
799.3850403483143
 31
0.0
  0
LINE
  5
308A
330
18
100
AcDbEntity
  8
0
100
AcDbLine
 10
232.415446369016
 20
357.1873986951204
 30
0.0
 11
242.0746963690153
 21
347.7340236951208
 31
0.0
  0
LINE
  5
308B
330
18
100
AcDbEntity
  8
0
100
AcDbLine
 10
242.0746963690153
 20
347.7340236951208
 30
0.0
 11
194.8061338690149
 21
347.7340236951208
 31
0.0
  0
LINE
  5
308C
330
18
100
AcDbEntity
  8
0
100
AcDbLine
 10
232.415446369016
 20
352.4607111951206
 30
0.0
 11
232.415446369016
 21
357.1873986951204
 31
0.0
  0
LINE
  5
308D
330
18
100
AcDbEntity
  8
0
100
AcDbLine
 10
213.7128838690155
 20
357.1873986951204
 30
0.0
 11
218.4412588690156
 21
352.4607111951206
 31
0.0
  0
LINE
  5
308E
330
18
100
AcDbEntity
  8
0
100
AcDbLine
 10
194.8061338690149
 20
347.7340236951208
 30
0.0
 11
185.3527588690153
 21
357.1873986951204
 31
0.0
  0
LINE
  5
308F
330
18
100
AcDbEntity
  8
0
100
AcDbLine
 10
218.4412588690156
 20
352.4607111951206
 30
0.0
 11
232.415446369016
 21
352.4607111951206
 31
0.0
  0
LINE
  5
3090
330
18
100
AcDbEntity
  8
0
100
AcDbLine
 10
185.3527588690153
 20
357.1873986951204
 30
0.0
 11
213.7128838690155
 21
357.1873986951204
 31
0.0
  0
LINE
  5
3091
330
18
100
AcDbEntity
  8
0
100
AcDbLine
 10
232.415446369016
 20
189.5261067590231
 30
0.0
 11
242.0746963690153
 21
180.0727317590235
 31
0.0
  0
LINE
  5
3092
330
18
100
AcDbEntity
  8
0
100
AcDbLine
 10
242.0746963690153
 20
180.0727317590235
 30
0.0
 11
194.8061338690149
 21
180.0727317590235
 31
0.0
  0
LINE
  5
3093
330
18
100
AcDbEntity
  8
0
100
AcDbLine
 10
232.415446369016
 20
184.7994192590233
 30
0.0
 11
232.415446369016
 21
189.5261067590231
 31
0.0
  0
LINE
  5
3094
330
18
100
AcDbEntity
  8
0
100
AcDbLine
 10
213.7128838690155
 20
189.5261067590231
 30
0.0
 11
218.4412588690156
 21
184.7994192590233
 31
0.0
  0
LINE
  5
3095
330
18
100
AcDbEntity
  8
0
100
AcDbLine
 10
194.8061338690149
 20
180.0727317590235
 30
0.0
 11
185.3527588690153
 21
189.5261067590231
 31
0.0
  0
LINE
  5
3096
330
18
100
AcDbEntity
  8
0
100
AcDbLine
 10
218.4412588690156
 20
184.7994192590233
 30
0.0
 11
232.415446369016
 21
184.7994192590233
 31
0.0
  0
LINE
  5
3097
330
18
100
AcDbEntity
  8
0
100
AcDbLine
 10
185.3527588690153
 20
189.5261067590231
 30
0.0
 11
213.7128838690155
 21
189.5261067590231
 31
0.0
  0
LINE
  5
3098
330
18
100
AcDbEntity
  8
0
100
AcDbLine
 10
667.992148390445
 20
189.5261067590231
 30
0.0
 11
677.6513983904442
 21
180.0727317590235
 31
0.0
  0
LINE
  5
3099
330
18
100
AcDbEntity
  8
0
100
AcDbLine
 10
677.6513983904442
 20
180.0727317590235
 30
0.0
 11
630.3828358904438
 21
180.0727317590235
 31
0.0
  0
LINE
  5
309A
330
18
100
AcDbEntity
  8
0
100
AcDbLine
 10
667.992148390445
 20
184.7994192590233
 30
0.0
 11
667.992148390445
 21
189.5261067590231
 31
0.0
  0
LINE
  5
309B
330
18
100
AcDbEntity
  8
0
100
AcDbLine
 10
649.2895858904444
 20
189.5261067590231
 30
0.0
 11
654.0179608904445
 21
184.7994192590233
 31
0.0
  0
LINE
  5
309C
330
18
100
AcDbEntity
  8
0
100
AcDbLine
 10
630.3828358904438
 20
180.0727317590235
 30
0.0
 11
620.9294608904443
 21
189.5261067590231
 31
0.0
  0
LINE
  5
309D
330
18
100
AcDbEntity
  8
0
100
AcDbLine
 10
654.0179608904445
 20
184.7994192590233
 30
0.0
 11
667.992148390445
 21
184.7994192590233
 31
0.0
  0
LINE
  5
309E
330
18
100
AcDbEntity
  8
0
100
AcDbLine
 10
620.9294608904443
 20
189.5261067590231
 30
0.0
 11
649.2895858904444
 21
189.5261067590231
 31
0.0
  0
LINE
  5
309F
330
18
100
AcDbEntity
  8
0
100
AcDbLine
 10
1150.721524787128
 20
187.8325599854424
 30
0.0
 11
1160.380774787127
 21
178.3791849854428
 31
0.0
  0
LINE
  5
30A0
330
18
100
AcDbEntity
  8
0
100
AcDbLine
 10
1160.380774787127
 20
178.3791849854428
 30
0.0
 11
1113.112212287127
 21
178.3791849854428
 31
0.0
  0
LINE
  5
30A1
330
18
100
AcDbEntity
  8
0
100
AcDbLine
 10
1150.721524787128
 20
183.1058724854426
 30
0.0
 11
1150.721524787128
 21
187.8325599854424
 31
0.0
  0
LINE
  5
30A2
330
18
100
AcDbEntity
  8
0
100
AcDbLine
 10
1132.018962287128
 20
187.8325599854424
 30
0.0
 11
1136.747337287128
 21
183.1058724854426
 31
0.0
  0
LINE
  5
30A3
330
18
100
AcDbEntity
  8
0
100
AcDbLine
 10
1113.112212287127
 20
178.3791849854428
 30
0.0
 11
1103.658837287127
 21
187.8325599854424
 31
0.0
  0
LINE
  5
30A4
330
18
100
AcDbEntity
  8
0
100
AcDbLine
 10
1136.747337287128
 20
183.1058724854426
 30
0.0
 11
1150.721524787128
 21
183.1058724854426
 31
0.0
  0
LINE
  5
30A5
330
18
100
AcDbEntity
  8
0
100
AcDbLine
 10
1103.658837287127
 20
187.8325599854424
 30
0.0
 11
1132.018962287128
 21
187.8325599854424
 31
0.0
  0
LINE
  5
30A6
330
18
100
AcDbEntity
  8
0
100
AcDbLine
 10
1333.217922551614
 20
875.3778156562658
 30
0.0
 11
1342.671297551614
 21
884.8311906562653
 31
0.0
  0
LINE
  5
30A7
330
18
100
AcDbEntity
  8
0
100
AcDbLine
 10
1295.608610051613
 20
880.1045031562654
 30
0.0
 11
1295.608610051613
 21
884.8311906562653
 31
0.0
  0
LINE
  5
30A8
330
18
100
AcDbEntity
  8
0
100
AcDbLine
 10
1295.608610051613
 20
884.8311906562653
 30
0.0
 11
1285.949360051614
 21
875.3778156562658
 31
0.0
  0
LINE
  5
30A9
330
18
100
AcDbEntity
  8
0
100
AcDbLine
 10
1314.311172551614
 20
884.8311906562653
 30
0.0
 11
1309.582797551614
 21
880.1045031562654
 31
0.0
  0
LINE
  5
30AA
330
18
100
AcDbEntity
  8
0
100
AcDbLine
 10
1309.582797551614
 20
880.1045031562654
 30
0.0
 11
1295.608610051613
 21
880.1045031562654
 31
0.0
  0
LINE
  5
30AB
330
18
100
AcDbEntity
  8
0
100
AcDbLine
 10
1285.949360051614
 20
875.3778156562658
 30
0.0
 11
1333.217922551614
 21
875.3778156562658
 31
0.0
  0
LINE
  5
30AC
330
18
100
AcDbEntity
  8
0
100
AcDbLine
 10
1342.671297551614
 20
884.8311906562653
 30
0.0
 11
1314.311172551614
 21
884.8311906562653
 31
0.0
  0
LINE
  5
30AD
330
18
100
AcDbEntity
  8
0
100
AcDbLine
 10
852.3833684750234
 20
873.6842664379633
 30
0.0
 11
861.8367434750229
 21
883.1376414379629
 31
0.0
  0
LINE
  5
30AE
330
18
100
AcDbEntity
  8
0
100
AcDbLine
 10
814.7740559750223
 20
878.4109539379631
 30
0.0
 11
814.7740559750223
 21
883.1376414379629
 31
0.0
  0
LINE
  5
30AF
330
18
100
AcDbEntity
  8
0
100
AcDbLine
 10
814.7740559750223
 20
883.1376414379629
 30
0.0
 11
805.114805975023
 21
873.6842664379633
 31
0.0
  0
LINE
  5
30B0
330
18
100
AcDbEntity
  8
0
100
AcDbLine
 10
833.4766184750229
 20
883.1376414379629
 30
0.0
 11
828.7482434750227
 21
878.4109539379631
 31
0.0
  0
LINE
  5
30B1
330
18
100
AcDbEntity
  8
0
100
AcDbLine
 10
828.7482434750227
 20
878.4109539379631
 30
0.0
 11
814.7740559750223
 21
878.4109539379631
 31
0.0
  0
LINE
  5
30B2
330
18
100
AcDbEntity
  8
0
100
AcDbLine
 10
805.114805975023
 20
873.6842664379633
 30
0.0
 11
852.3833684750234
 21
873.6842664379633
 31
0.0
  0
LINE
  5
30B3
330
18
100
AcDbEntity
  8
0
100
AcDbLine
 10
861.8367434750229
 20
883.1376414379629
 30
0.0
 11
833.4766184750229
 21
883.1376414379629
 31
0.0
  0
LINE
  5
30B4
330
18
100
AcDbEntity
  8
0
100
AcDbLine
 10
392.7875192325118
 20
873.6842664379633
 30
0.0
 11
402.2408942325114
 21
883.1376414379629
 31
0.0
  0
LINE
  5
30B5
330
18
100
AcDbEntity
  8
0
100
AcDbLine
 10
355.1782067325107
 20
878.4109539379631
 30
0.0
 11
355.1782067325107
 21
883.1376414379629
 31
0.0
  0
LINE
  5
30B6
330
18
100
AcDbEntity
  8
0
100
AcDbLine
 10
355.1782067325107
 20
883.1376414379629
 30
0.0
 11
345.5189567325114
 21
873.6842664379633
 31
0.0
  0
LINE
  5
30B7
330
18
100
AcDbEntity
  8
0
100
AcDbLine
 10
373.8807692325112
 20
883.1376414379629
 30
0.0
 11
369.1523942325111
 21
878.4109539379631
 31
0.0
  0
LINE
  5
30B8
330
18
100
AcDbEntity
  8
0
100
AcDbLine
 10
369.1523942325111
 20
878.4109539379631
 30
0.0
 11
355.1782067325107
 21
878.4109539379631
 31
0.0
  0
LINE
  5
30B9
330
18
100
AcDbEntity
  8
0
100
AcDbLine
 10
345.5189567325114
 20
873.6842664379633
 30
0.0
 11
392.7875192325118
 21
873.6842664379633
 31
0.0
  0
LINE
  5
30BA
330
18
100
AcDbEntity
  8
0
100
AcDbLine
 10
402.2408942325114
 20
883.1376414379629
 30
0.0
 11
373.8807692325112
 21
883.1376414379629
 31
0.0
  0
LINE
  5
30BB
330
18
100
AcDbEntity
  8
0
100
AcDbLine
 10
424.242163063072
 20
468.7446880296429
 30
0.0
 11
433.6955380630715
 21
478.1980630296425
 31
0.0
  0
LINE
  5
30BC
330
18
100
AcDbEntity
  8
0
100
AcDbLine
 10
386.6328505630708
 20
473.4713755296427
 30
0.0
 11
386.6328505630708
 21
478.1980630296425
 31
0.0
  0
LINE
  5
30BD
330
18
100
AcDbEntity
  8
0
100
AcDbLine
 10
386.6328505630708
 20
478.1980630296425
 30
0.0
 11
376.9736005630716
 21
468.7446880296429
 31
0.0
  0
LINE
  5
30BE
330
18
100
AcDbEntity
  8
0
100
AcDbLine
 10
405.3354130630713
 20
478.1980630296425
 30
0.0
 11
400.6070380630712
 21
473.4713755296427
 31
0.0
  0
LINE
  5
30BF
330
18
100
AcDbEntity
  8
0
100
AcDbLine
 10
400.6070380630712
 20
473.4713755296427
 30
0.0
 11
386.6328505630708
 21
473.4713755296427
 31
0.0
  0
LINE
  5
30C0
330
18
100
AcDbEntity
  8
0
100
AcDbLine
 10
376.9736005630716
 20
468.7446880296429
 30
0.0
 11
424.242163063072
 21
468.7446880296429
 31
0.0
  0
LINE
  5
30C1
330
18
100
AcDbEntity
  8
0
100
AcDbLine
 10
433.6955380630715
 20
478.1980630296425
 30
0.0
 11
405.3354130630713
 21
478.1980630296425
 31
0.0
  0
LINE
  5
30C2
330
18
100
AcDbEntity
  8
0
100
AcDbLine
 10
864.903221658781
 20
472.1317864662474
 30
0.0
 11
874.3565966587807
 21
481.5851614662469
 31
0.0
  0
LINE
  5
30C3
330
18
100
AcDbEntity
  8
0
100
AcDbLine
 10
827.2939091587799
 20
476.8584739662471
 30
0.0
 11
827.2939091587799
 21
481.5851614662469
 31
0.0
  0
LINE
  5
30C4
330
18
100
AcDbEntity
  8
0
100
AcDbLine
 10
827.2939091587799
 20
481.5851614662469
 30
0.0
 11
817.6346591587808
 21
472.1317864662474
 31
0.0
  0
LINE
  5
30C5
330
18
100
AcDbEntity
  8
0
100
AcDbLine
 10
845.9964716587805
 20
481.5851614662469
 30
0.0
 11
841.2680966587805
 21
476.8584739662471
 31
0.0
  0
LINE
  5
30C6
330
18
100
AcDbEntity
  8
0
100
AcDbLine
 10
841.2680966587805
 20
476.8584739662471
 30
0.0
 11
827.2939091587799
 21
476.8584739662471
 31
0.0
  0
LINE
  5
30C7
330
18
100
AcDbEntity
  8
0
100
AcDbLine
 10
817.6346591587808
 20
472.1317864662474
 30
0.0
 11
864.903221658781
 21
472.1317864662474
 31
0.0
  0
LINE
  5
30C8
330
18
100
AcDbEntity
  8
0
100
AcDbLine
 10
874.3565966587807
 20
481.5851614662469
 30
0.0
 11
845.9964716587805
 21
481.5851614662469
 31
0.0
  0
LINE
  5
30C9
330
18
100
AcDbEntity
  8
0
100
AcDbLine
 10
1349.327383580224
 20
470.4382372479454
 30
0.0
 11
1358.780758580224
 21
479.8916122479449
 31
0.0
  0
LINE
  5
30CA
330
18
100
AcDbEntity
  8
0
100
AcDbLine
 10
1311.718071080223
 20
475.1649247479451
 30
0.0
 11
1311.718071080223
 21
479.8916122479449
 31
0.0
  0
LINE
  5
30CB
330
18
100
AcDbEntity
  8
0
100
AcDbLine
 10
1311.718071080223
 20
479.8916122479449
 30
0.0
 11
1302.058821080224
 21
470.4382372479454
 31
0.0
  0
LINE
  5
30CC
330
18
100
AcDbEntity
  8
0
100
AcDbLine
 10
1330.420633580224
 20
479.8916122479449
 30
0.0
 11
1325.692258580223
 21
475.1649247479451
 31
0.0
  0
LINE
  5
30CD
330
18
100
AcDbEntity
  8
0
100
AcDbLine
 10
1325.692258580223
 20
475.1649247479451
 30
0.0
 11
1311.718071080223
 21
475.1649247479451
 31
0.0
  0
LINE
  5
30CE
330
18
100
AcDbEntity
  8
0
100
AcDbLine
 10
1302.058821080224
 20
470.4382372479454
 30
0.0
 11
1349.327383580224
 21
470.4382372479454
 31
0.0
  0
LINE
  5
30CF
330
18
100
AcDbEntity
  8
0
100
AcDbLine
 10
1358.780758580224
 20
479.8916122479449
 30
0.0
 11
1330.420633580224
 21
479.8916122479449
 31
0.0
  0
TEXT
  5
30D0
330
18
100
AcDbEntity
  8
0
100
AcDbText
 10
59.30399817214311
 20
209.5994589225579
 30
0.0
 40
15.0
  1
正面
100
AcDbText
  0
TEXT
  5
30D1
330
18
100
AcDbEntity
  8
0
100
AcDbText
 10
59.30399817214311
 20
336.6060806104324
 30
0.0
 40
15.0
  1
平面
100
AcDbText
  0
TEXT
  5
30D2
330
18
100
AcDbEntity
  8
0
100
AcDbText
 10
59.30399817214311
 20
431.5116742493901
 30
0.0
 40
15.0
  1
背面
100
AcDbText
  0
VIEWPORT
  5
41
330
15
100
AcDbEntity
 67
     1
  8
0
100
AcDbViewport
 10
117.358407079646
 20
73.5
 30
0.0
 40
234.716814159292
 41
147.0
 68
     1
 69
     1
1001
ACAD
1000
MVIEW
1002
{
1070
    16
1010
0.0
1020
0.0
1030
0.0
1010
0.0
1020
0.0
1030
1.0
1040
0.0
1040
147.0
1040
117.358407079646
1040
73.5
1040
50.0
1040
0.0
1040
0.0
1070
     0
1070
   100
1070
     1
1070
     1
1070
     0
1070
     0
1070
     0
1070
     0
1040
0.0
1040
0.0
1040
0.0
1040
1.0
1040
1.0
1040
0.0
1040
0.0
1070
     0
1002
{
1002
}
1002
}
  0
ENDSEC
  0
SECTION
  2
OBJECTS
  0
DICTIONARY
  5
C
330
0
100
AcDbDictionary
  3
ACAD_GROUP
350
D
  3
ACAD_LAYOUT
350
3164
  3
ACAD_MLINESTYLE
350
E
  3
ACAD_PLOTSETTINGS
350
3165
1001
ACAD
1000
TREAT_AS_HARD
1070
     0
  0
DICTIONARY
  5
31D6
330
18
100
AcDbDictionary
  3
ACAD_LAYOUTSELFREF
350
31D7
  0
DICTIONARY
  5
31D4
330
15
100
AcDbDictionary
  3
ACAD_LAYOUTSELFREF
350
31D5
  0
DICTIONARY
  5
D
102
{ACAD_REACTORS
330
C
102
}
330
C
100
AcDbDictionary
1001
ACAD
1000
TREAT_AS_HARD
1070
     0
  0
DICTIONARY
  5
3164
102
{ACAD_REACTORS
330
C
102
}
330
C
100
AcDbDictionary
1001
ACAD
1000
TREAT_AS_HARD
1070
     0
  0
DICTIONARY
  5
E
102
{ACAD_REACTORS
330
C
102
}
330
C
100
AcDbDictionary
  3
STANDARD
350
1B
1001
ACAD
1000
TREAT_AS_HARD
1070
     0
  0
DICTIONARY
  5
3165
102
{ACAD_REACTORS
330
C
102
}
330
C
100
AcDbDictionary
1001
ACAD
1000
TREAT_AS_HARD
1070
     0
  0
XRECORD
  5
31D7
102
{ACAD_REACTORS
330
31D6
102
}
330
31D6
100
AcDbXrecord
340
18
  0
XRECORD
  5
31D5
102
{ACAD_REACTORS
330
31D4
102
}
330
31D4
100
AcDbXrecord
340
15
  0
MLINESTYLE
  5
1B
102
{ACAD_REACTORS
330
E
102
}
330
E
100
AcDbMlineStyle
  2
STANDARD
 70
     0
  3

 62
     0
 51
90.0
 52
90.0
 71
     2
 49
0.5
 62
   256
  6
BYLAYER
 49
-0.5
 62
   256
  6
BYLAYER
  0
ENDSEC
  0
EOF
