  0
SECTION
  2
HEADER
  9
$ACADVER
  1
AC1009
  9
$INSBASE
 10
0.0
 20
0.0
 30
0.0
  9
$EXTMIN
 10
33.0
 20
15.0
 30
0.0
  9
$EXTMAX
 10
858.0
 20
573.0
 30
103400.0068
  9
$LIMMIN
 10
0.0
 20
0.0
  9
$LIMMAX
 10
891.0
 20
630.0
  9
$ORTHOMODE
 70
     1
  9
$REGENMODE
 70
     1
  9
$FILLMODE
 70
     1
  9
$QTEXTMODE
 70
     0
  9
$MIRRTEXT
 70
     1
  9
$DRAGMODE
 70
     2
  9
$LTSCALE
 40
12.0
  9
$OSMODE
 70
   163
  9
$ATTMODE
 70
     1
  9
$TEXTSIZE
 40
12.0
  9
$TRACEWID
 40
0.05
  9
$TEXTSTYLE
  7
STANDARD
  9
$CLAYER
  8
DIM
  9
$CELTYPE
  6
BYLAYER
  9
$CECOLOR
 62
   256
  9
$DIMSCALE
 40
3.0
  9
$DIMASZ
 40
2.8
  9
$DIMEXO
 40
1.0
  9
$DIMDLI
 40
5.0
  9
$DIMRND
 40
0.1
  9
$DIMDLE
 40
0.0
  9
$DIMEXE
 40
1.0
  9
$DIMTP
 40
0.0
  9
$DIMTM
 40
0.0
  9
$DIMTXT
 40
2.5
  9
$DIMCEN
 40
0.0
  9
$DIMTSZ
 40
0.0
  9
$DIMTOL
 70
     0
  9
$DIMLIM
 70
     0
  9
$DIMTIH
 70
     0
  9
$DIMTOH
 70
     0
  9
$DIMSE1
 70
     0
  9
$DIMSE2
 70
     0
  9
$DIMTAD
 70
     3
  9
$DIMZIN
 70
     8
  9
$DIMBLK
  1

  9
$DIMASO
 70
     1
  9
$DIMSHO
 70
     1
  9
$DIMPOST
  1
 
  9
$DIMAPOST
  1

  9
$DIMALT
 70
     0
  9
$DIMALTD
 70
     2
  9
$DIMALTF
 40
1.0
  9
$DIMLFAC
 40
1.0
  9
$DIMTOFL
 70
     1
  9
$DIMTVP
 40
0.0
  9
$DIMTIX
 70
     0
  9
$DIMSOXD
 70
     0
  9
$DIMSAH
 70
     1
  9
$DIMBLK1
  1
_OPEN
  9
$DIMBLK2
  1
_OPEN
  9
$DIMSTYLE
  2
DIM1
  9
$DIMCLRD
 70
     2
  9
$DIMCLRE
 70
     2
  9
$DIMCLRT
 70
     2
  9
$DIMTFAC
 40
0.7
  9
$DIMGAP
 40
0.85
  9
$LUNITS
 70
     2
  9
$LUPREC
 70
     4
  9
$SKETCHINC
 40
0.1
  9
$FILLETRAD
 40
5.0
  9
$AUNITS
 70
     0
  9
$AUPREC
 70
     0
  9
$MENU
  1
C:\ACADR13\WIN\SUPPORT\ACAD.mnc
  9
$ELEVATION
 40
0.0
  9
$PELEVATION
 40
0.0
  9
$THICKNESS
 40
0.0
  9
$LIMCHECK
 70
     0
  9
$BLIPMODE
 70
     1
  9
$CHAMFERA
 40
0.0
  9
$CHAMFERB
 40
0.0
  9
$SKPOLY
 70
     0
  9
$TDCREATE
 40
2451564.587412
  9
$TDUPDATE
 40
2451744.407749
  9
$TDINDWG
 40
0.17733
  9
$TDUSRTIMER
 40
0.17733
  9
$USRTIMER
 70
     1
  9
$ANGBASE
 50
0.0
  9
$ANGDIR
 70
     0
  9
$PDMODE
 70
     0
  9
$PDSIZE
 40
0.0
  9
$PLINEWID
 40
0.0
  9
$COORDS
 70
     2
  9
$SPLFRAME
 70
     0
  9
$SPLINETYPE
 70
     6
  9
$SPLINESEGS
 70
     8
  9
$ATTDIA
 70
     0
  9
$ATTREQ
 70
     1
  9
$HANDLING
 70
     1
  9
$HANDSEED
  5
92FD
  9
$SURFTAB1
 70
     6
  9
$SURFTAB2
 70
     6
  9
$SURFTYPE
 70
     6
  9
$SURFU
 70
     6
  9
$SURFV
 70
     6
  9
$UCSNAME
  2

  9
$UCSORG
 10
0.0
 20
0.0
 30
0.0
  9
$UCSXDIR
 10
1.0
 20
0.0
 30
0.0
  9
$UCSYDIR
 10
0.0
 20
1.0
 30
0.0
  9
$PUCSNAME
  2

  9
$PUCSORG
 10
0.0
 20
0.0
 30
0.0
  9
$PUCSXDIR
 10
1.0
 20
0.0
 30
0.0
  9
$PUCSYDIR
 10
0.0
 20
1.0
 30
0.0
  9
$USERI1
 70
     0
  9
$USERI2
 70
     0
  9
$USERI3
 70
     0
  9
$USERI4
 70
     0
  9
$USERI5
 70
     0
  9
$USERR1
 40
0.0
  9
$USERR2
 40
0.0
  9
$USERR3
 40
0.0
  9
$USERR4
 40
0.0
  9
$USERR5
 40
0.0
  9
$WORLDVIEW
 70
     1
  9
$SHADEDGE
 70
     3
  9
$SHADEDIF
 70
    70
  9
$TILEMODE
 70
     1
  9
$MAXACTVP
 70
    16
  9
$PLIMCHECK
 70
     0
  9
$PEXTMIN
 10
1.000000E+020
 20
1.000000E+020
 30
1.000000E+020
  9
$PEXTMAX
 10
-1.000000E+020
 20
-1.000000E+020
 30
-1.000000E+020
  9
$PLIMMIN
 10
0.0
 20
0.0
  9
$PLIMMAX
 10
20.0
 20
147.0
  9
$UNITMODE
 70
     0
  9
$VISRETAIN
 70
     0
  9
$PLINEGEN
 70
     0
  9
$PSLTSCALE
 70
     1
  0
ENDSEC
  0
SECTION
  2
TABLES
  0
TABLE
  2
VPORT
 70
     2
  0
VPORT
  2
*ACTIVE
 70
     0
 10
0.0
 20
0.0
 11
1.0
 21
1.0
 12
588.45576
 22
333.958368
 13
0.0
 23
0.0
 14
1.0
 24
1.0
 15
0.0
 25
0.0
 16
0.0
 26
0.0
 36
1.0
 17
0.0
 27
0.0
 37
0.0
 40
667.916736
 41
1.762063
 42
50.0
 43
0.0
 44
0.0
 50
0.0
 51
0.0
 71
     0
 72
   100
 73
     1
 74
     1
 75
     0
 76
     0
 77
     0
 78
     0
  0
ENDTAB
  0
TABLE
  2
LTYPE
 70
     5
  0
LTYPE
  2
CONTINUOUS
 70
     0
  3
Solid line
 72
    65
 73
     0
 40
0.0
  0
LTYPE
  2
DASHED
 70
     0
  3
__ __ __ __ __ __ __ __ __ __ __ __ __ __ __ __
 72
    65
 73
     2
 40
0.75
 49
0.5
 49
-0.25
  0
LTYPE
  2
HIDDEN
 70
     0
  3
__ __ __ __ __ __ __ __ __ __ __ __ __ __ __ __
 72
    65
 73
     2
 40
0.375
 49
0.25
 49
-0.125
  0
LTYPE
  2
CENTER
 70
     0
  3
____ _ ____ _ ____ _ ____ _ ____ _ ____ _ ____ 
 72
    65
 73
     4
 40
2.0
 49
1.25
 49
-0.25
 49
0.25
 49
-0.25
  0
LTYPE
  2
PHANTOM
 70
     0
  3
______  __  __  ______  __  __  ______  __  __ 
 72
    65
 73
     6
 40
2.5
 49
1.25
 49
-0.25
 49
0.25
 49
-0.25
 49
0.25
 49
-0.25
  0
ENDTAB
  0
TABLE
  2
LAYER
 70
    15
  0
LAYER
  2
0
 70
     0
 62
     7
  6
CONTINUOUS
  0
LAYER
  2
5
 70
     0
 62
     2
  6
CONTINUOUS
  0
LAYER
  2
1
 70
     0
 62
     4
  6
DASHED
  0
LAYER
  2
2
 70
     0
 62
     3
  6
CENTER
  0
LAYER
  2
3
 70
     0
 62
     5
  6
CONTINUOUS
  0
LAYER
  2
4
 70
     0
 62
     4
  6
PHANTOM
  0
LAYER
  2
HOJO
 70
     0
 62
     4
  6
HIDDEN
  0
LAYER
  2
6-TEX1
 70
     0
 62
     2
  6
CONTINUOUS
  0
LAYER
  2
8-TEX3
 70
     0
 62
     5
  6
CONTINUOUS
  0
LAYER
  2
7-TEX2
 70
     0
 62
     7
  6
CONTINUOUS
  0
LAYER
  2
DIM
 70
     0
 62
     2
  6
CONTINUOUS
  0
LAYER
  2
FORM
 70
     4
 62
     1
  6
CONTINUOUS
  0
LAYER
  2
BLK
 70
     0
 62
     7
  6
CONTINUOUS
  0
LAYER
  2
DUST
 70
     0
 62
     1
  6
CONTINUOUS
  0
LAYER
  2
DEFPOINTS
 70
     0
 62
     7
  6
CONTINUOUS
  0
ENDTAB
  0
TABLE
  2
STYLE
 70
     3
  0
STYLE
  2
STANDARD
 70
     0
 40
0.0
 41
0.8
 50
0.0
 71
     0
 42
12.0
  3
simplex
  4
extfont
  0
STYLE
  2
PTSH
 70
     0
 40
0.0
 41
0.9
 50
0.0
 71
     0
 42
4.0
  3
SIMPLEX
  4
EXTFONT
  0
STYLE
  2
DIM
 70
     0
 40
0.0
 41
0.8
 50
0.0
 71
     0
 42
4.0
  3
simplex
  4
extfont
  0
ENDTAB
  0
TABLE
  2
VIEW
 70
     0
  0
ENDTAB
  0
TABLE
  2
UCS
 70
     0
  0
ENDTAB
  0
TABLE
  2
APPID
 70
     1
  0
APPID
  2
ACAD
 70
     0
  0
ENDTAB
  0
TABLE
  2
DIMSTYLE
 70
     7
  0
DIMSTYLE
  2
DIM1
 70
     0
  3
 
  4

  5

  6
_OPEN
  7
_OPEN
 40
3.0
 41
2.8
 42
1.0
 43
5.0
 44
1.0
 45
0.1
 46
0.0
 47
0.0
 48
0.0
140
2.5
141
0.0
142
0.0
143
1.0
144
1.0
145
0.0
146
0.7
147
0.85
 71
     0
 72
     0
 73
     0
 74
     0
 75
     0
 76
     0
 77
     3
 78
     8
170
     0
171
     2
172
     1
173
     1
174
     0
175
     0
176
     2
177
     2
178
     2
  0
DIMSTYLE
  2
USER1
 70
     0
  3

  4

  5

  6
_OPEN
  7
_OPEN
 40
1.0
 41
2.8
 42
1.0
 43
5.0
 44
1.0
 45
0.1
 46
0.0
 47
0.0
 48
0.0
140
2.5
141
0.0
142
0.0
143
1.0
144
1.0
145
0.0
146
0.7
147
0.85
 71
     0
 72
     0
 73
     0
 74
     0
 75
     0
 76
     0
 77
     3
 78
     8
170
     0
171
     2
172
     1
173
     1
174
     0
175
     0
176
     2
177
     2
178
     2
  0
DIMSTYLE
  2
USER2
 70
     0
  3

  4

  5

  6
_OPEN
  7
_OPEN
 40
1.0
 41
2.8
 42
1.0
 43
5.0
 44
1.0
 45
0.1
 46
0.0
 47
0.0
 48
0.0
140
2.5
141
0.0
142
0.0
143
1.0
144
1.0
145
0.0
146
0.7
147
0.85
 71
     0
 72
     0
 73
     0
 74
     0
 75
     0
 76
     0
 77
     3
 78
     8
170
     0
171
     2
172
     1
173
     1
174
     0
175
     0
176
     2
177
     2
178
     2
  0
DIMSTYLE
  2
USER3
 70
     0
  3

  4

  5

  6
_OPEN
  7
_OPEN
 40
1.0
 41
2.8
 42
1.0
 43
5.0
 44
1.0
 45
0.1
 46
0.0
 47
0.0
 48
0.0
140
2.5
141
0.0
142
0.0
143
1.0
144
1.0
145
0.0
146
0.7
147
0.85
 71
     0
 72
     0
 73
     0
 74
     0
 75
     0
 76
     0
 77
     3
 78
     8
170
     0
171
     2
172
     1
173
     1
174
     0
175
     0
176
     2
177
     2
178
     2
  0
DIMSTYLE
  2
USER4
 70
     0
  3

  4

  5

  6
_OPEN
  7
_OPEN
 40
1.0
 41
2.8
 42
1.0
 43
5.0
 44
1.0
 45
0.1
 46
0.0
 47
0.0
 48
0.0
140
2.5
141
0.0
142
0.0
143
1.0
144
1.0
145
0.0
146
0.7
147
0.85
 71
     0
 72
     0
 73
     0
 74
     0
 75
     0
 76
     0
 77
     3
 78
     8
170
     0
171
     2
172
     1
173
     1
174
     0
175
     0
176
     2
177
     2
178
     2
  0
DIMSTYLE
  2
USER5
 70
     0
  3

  4

  5

  6
_OPEN
  7
_OPEN
 40
1.0
 41
2.8
 42
1.0
 43
5.0
 44
1.0
 45
0.1
 46
0.0
 47
0.0
 48
0.0
140
2.5
141
0.0
142
0.0
143
1.0
144
1.0
145
0.0
146
0.7
147
0.85
 71
     0
 72
     0
 73
     0
 74
     0
 75
     0
 76
     0
 77
     3
 78
     8
170
     0
171
     2
172
     1
173
     1
174
     0
175
     0
176
     2
177
     2
178
     2
  0
DIMSTYLE
  2
JIS1
 70
     0
  3

  4

  5

  6

  7

 40
1.0
 41
2.5
 42
0.0625
 43
0.38
 44
0.18
 45
0.1
 46
0.0
 47
0.0
 48
0.0
140
2.5
141
0.09
142
0.0
143
25.4
144
1.0
145
0.0
146
1.0
147
0.09
 71
     0
 72
     0
 73
     1
 74
     1
 75
     0
 76
     0
 77
     1
 78
    12
170
     0
171
     2
172
     0
173
     0
174
     0
175
     0
176
     0
177
     0
178
     0
  0
ENDTAB
  0
ENDSEC
  0
SECTION
  2
BLOCKS
  0
BLOCK
  8
0
  2
$MODEL_SPACE
 70
     0
 10
0.0
 20
0.0
 30
0.0
  3
$MODEL_SPACE
  1

  0
ENDBLK
  5
3D
  8
0
  0
BLOCK
 67
     1
  8
0
  2
$PAPER_SPACE
 70
     0
 10
0.0
 20
0.0
 30
0.0
  3
$PAPER_SPACE
  1

  0
ENDBLK
  5
3B
 67
     1
  8
0
  0
BLOCK
  8
0
  2
_OPEN
 70
     0
 10
0.0
 20
0.0
 30
0.0
  3
_OPEN
  1
H1111.DWG
  0
LINE
  5
244A
  8
0
  6
BYBLOCK
 62
     0
 10
-1.0
 20
0.166667
 30
0.0
 11
0.0
 21
0.0
 31
0.0
  0
LINE
  5
244B
  8
0
  6
BYBLOCK
 62
     0
 10
0.0
 20
0.0
 30
0.0
 11
-1.0
 21
-0.166667
 31
0.0
  0
LINE
  5
244C
  8
0
  6
BYBLOCK
 62
     0
 10
0.0
 20
0.0
 30
0.0
 11
-1.0
 21
0.0
 31
0.0
  0
ENDBLK
  5
244D
  8
0
  0
ENDSEC
  0
SECTION
  2
ENTITIES
  0
TEXT
  5
2529
  8
FORM
  6
CONTINUOUS
 62
     1
 10
821.4
 20
21.0
 30
0.0
 40
9.0
  1
TM5
 41
0.9
  7
PTSH
 72
     2
 11
843.0
 21
25.5
 31
0.0
 73
     2
  0
POLYLINE
  5
2563
  8
FORM
 62
     7
 66
     1
 10
0.0
 20
0.0
 30
0.0
 70
     1
  0
VERTEX
  5
92F7
  8
FORM
 62
     7
 10
33.0
 20
15.0
 30
0.0
  0
VERTEX
  5
92F8
  8
FORM
 62
     7
 10
858.0
 20
15.0
 30
0.0
  0
VERTEX
  5
92F9
  8
FORM
 62
     7
 10
858.0
 20
573.0
 30
0.0
  0
VERTEX
  5
92FA
  8
FORM
 62
     7
 10
33.0
 20
573.0
 30
0.0
  0
SEQEND
  5
92FB
  8
FORM
 62
     7
  0
TEXT
  5
4D10
  8
0
 10
404.3
 20
53.0
 30
0.0
 40
14.0
  1
TLV TM5
 72
     4
 11
445.5
 21
60.0
 31
0.0
  0
ARC
  5
7C59
  8
0
 10
561.604021
 20
423.153263
 30
0.0
 40
20.0
 50
67.744353
 51
92.803465
  0
LINE
  5
7C5A
  8
0
 10
599.295818
 20
424.671326
 30
0.0
 11
565.956818
 21
436.311326
 31
0.0
  0
LINE
  5
7C5B
  8
0
 10
537.520418
 20
310.803326
 30
0.0
 11
537.520418
 21
315.303326
 31
0.0
  0
LINE
  5
7C5C
  8
0
 10
505.520418
 20
315.303326
 30
0.0
 11
505.520418
 21
310.803326
 31
0.0
  0
LINE
  5
7C5D
  8
0
 10
515.520418
 20
224.909426
 30
0.0
 11
507.703418
 21
246.290226
 31
0.0
  0
LINE
  5
7C5E
  8
0
 10
527.520418
 20
224.909426
 30
0.0
 11
535.338418
 21
246.290226
 31
0.0
  0
LINE
  5
7C5F
  8
0
 10
515.520418
 20
224.909426
 30
0.0
 11
527.520418
 21
224.909426
 31
0.0
  0
LINE
  5
7C60
  8
0
 10
521.520418
 20
205.436626
 30
0.0
 11
517.120418
 21
205.436626
 31
0.0
  0
LINE
  5
7C61
  8
0
 10
517.720418
 20
205.436626
 30
0.0
 11
525.320418
 21
205.436626
 31
0.0
  0
LINE
  5
7C62
  8
0
 10
517.790418
 20
205.436626
 30
0.0
 11
525.240418
 21
205.436626
 31
0.0
  0
LINE
  5
7C63
  8
0
 10
518.970418
 20
205.036726
 30
0.0
 11
524.070418
 21
205.036726
 31
0.0
  0
LINE
  5
7C64
  8
0
 10
517.013418
 20
205.536326
 30
0.0
 11
515.520418
 21
224.909426
 31
0.0
  0
LINE
  5
7C65
  8
0
 10
517.120418
 20
205.436626
 30
0.0
 11
517.013418
 21
205.536326
 31
0.0
  0
LINE
  5
7C66
  8
0
 10
518.770418
 20
205.436626
 30
0.0
 11
518.770418
 21
205.236626
 31
0.0
  0
LINE
  5
7C67
  8
0
 10
518.770418
 20
205.236626
 30
0.0
 11
518.770418
 21
205.236626
 31
0.0
  0
LINE
  5
7C68
  8
0
 10
518.770418
 20
205.236626
 30
0.0
 11
518.773418
 21
205.207726
 31
0.0
  0
LINE
  5
7C69
  8
0
 10
518.773418
 20
205.207726
 30
0.0
 11
518.779418
 21
205.177926
 31
0.0
  0
LINE
  5
7C6A
  8
0
 10
518.779418
 20
205.177926
 30
0.0
 11
518.791418
 21
205.148426
 31
0.0
  0
LINE
  5
7C6B
  8
0
 10
518.791418
 20
205.148426
 30
0.0
 11
518.808418
 21
205.120426
 31
0.0
  0
LINE
  5
7C6C
  8
0
 10
518.808418
 20
205.120426
 30
0.0
 11
518.829418
 21
205.095226
 31
0.0
  0
LINE
  5
7C6D
  8
0
 10
518.829418
 20
205.095226
 30
0.0
 11
518.854418
 21
205.073926
 31
0.0
  0
LINE
  5
7C6E
  8
0
 10
518.854418
 20
205.073926
 30
0.0
 11
518.882418
 21
205.057226
 31
0.0
  0
LINE
  5
7C6F
  8
0
 10
518.882418
 20
205.057226
 30
0.0
 11
518.912418
 21
205.045526
 31
0.0
  0
LINE
  5
7C70
  8
0
 10
518.912418
 20
205.045526
 30
0.0
 11
518.970418
 21
205.036726
 31
0.0
  0
LINE
  5
7C71
  8
0
 10
526.028418
 20
205.536326
 30
0.0
 11
527.520418
 21
224.909426
 31
0.0
  0
LINE
  5
7C72
  8
0
 10
525.240418
 20
205.436626
 30
0.0
 11
525.920418
 21
205.436626
 31
0.0
  0
LINE
  5
7C73
  8
0
 10
525.920418
 20
205.436626
 30
0.0
 11
526.028418
 21
205.536326
 31
0.0
  0
LINE
  5
7C74
  8
0
 10
524.070418
 20
205.036726
 30
0.0
 11
524.070418
 21
205.036726
 31
0.0
  0
LINE
  5
7C75
  8
0
 10
524.070418
 20
205.036726
 30
0.0
 11
524.099418
 21
205.038826
 31
0.0
  0
LINE
  5
7C76
  8
0
 10
524.099418
 20
205.038826
 30
0.0
 11
524.129418
 21
205.045526
 31
0.0
  0
LINE
  5
7C77
  8
0
 10
524.129418
 20
205.045526
 30
0.0
 11
524.159418
 21
205.057226
 31
0.0
  0
LINE
  5
7C78
  8
0
 10
524.159418
 20
205.057226
 30
0.0
 11
524.187418
 21
205.073926
 31
0.0
  0
LINE
  5
7C79
  8
0
 10
524.187418
 20
205.073926
 30
0.0
 11
524.212418
 21
205.095226
 31
0.0
  0
LINE
  5
7C7A
  8
0
 10
524.212418
 20
205.095226
 30
0.0
 11
524.233418
 21
205.120426
 31
0.0
  0
LINE
  5
7C7B
  8
0
 10
524.233418
 20
205.120426
 30
0.0
 11
524.250418
 21
205.148426
 31
0.0
  0
LINE
  5
7C7C
  8
0
 10
524.250418
 20
205.148426
 30
0.0
 11
524.262418
 21
205.177926
 31
0.0
  0
LINE
  5
7C7D
  8
0
 10
524.262418
 20
205.177926
 30
0.0
 11
524.270418
 21
205.236626
 31
0.0
  0
LINE
  5
7C7E
  8
0
 10
524.270418
 20
205.236626
 30
0.0
 11
524.270418
 21
205.436626
 31
0.0
  0
LINE
  5
7C7F
  8
0
 10
520.851418
 20
205.036726
 30
0.0
 11
520.987418
 21
204.663426
 31
0.0
  0
ARC
  5
7C80
  8
0
 10
521.093407
 20
204.66896
 30
0.0
 40
0.106134
 50
182.988778
 51
270.005673
  0
LINE
  5
7C81
  8
0
 10
521.093418
 20
204.562826
 30
0.0
 11
521.520418
 21
204.536626
 31
0.0
  0
LINE
  5
7C82
  8
0
 10
521.520418
 20
204.536626
 30
0.0
 11
521.947418
 21
204.562726
 31
0.0
  0
ARC
  5
7C83
  8
0
 10
521.953394
 20
204.663573
 30
0.0
 40
0.101023
 50
266.608315
 51
359.916935
  0
LINE
  5
7C84
  8
0
 10
522.054418
 20
204.663426
 30
0.0
 11
522.189418
 21
205.036726
 31
0.0
  0
LINE
  5
7C85
  8
0
 10
521.520418
 20
205.436626
 30
0.0
 11
525.240418
 21
205.436626
 31
0.0
  0
ARC
  5
7C86
  8
0
 10
517.237718
 20
269.683802
 30
0.0
 40
5.442783
 50
49.196205
 51
109.762226
  0
ARC
  5
7C87
  8
0
 10
514.864658
 20
263.044974
 30
0.0
 40
6.539286
 50
274.673101
 51
335.065473
  0
LINE
  5
7C88
  8
0
 10
535.473418
 20
246.789226
 30
0.0
 11
507.568418
 21
246.789226
 31
0.0
  0
LINE
  5
7C89
  8
0
 10
505.520418
 20
310.803326
 30
0.0
 11
537.520418
 21
310.803326
 31
0.0
  0
LINE
  5
7C8A
  8
0
 10
536.720418
 20
310.341326
 30
0.0
 11
506.320418
 21
310.341326
 31
0.0
  0
LINE
  5
7C8B
  8
0
 10
506.320418
 20
309.765326
 30
0.0
 11
536.720418
 21
309.765326
 31
0.0
  0
LINE
  5
7C8C
  8
0
 10
537.520418
 20
309.303326
 30
0.0
 11
505.520418
 21
309.303326
 31
0.0
  0
LINE
  5
7C8D
  8
0
 10
505.520418
 20
304.803326
 30
0.0
 11
537.520418
 21
304.803326
 31
0.0
  0
LINE
  5
7C8E
  8
0
 10
536.720418
 20
304.341326
 30
0.0
 11
506.320418
 21
304.341326
 31
0.0
  0
LINE
  5
7C8F
  8
0
 10
506.320418
 20
303.765326
 30
0.0
 11
536.720418
 21
303.765326
 31
0.0
  0
LINE
  5
7C90
  8
0
 10
537.520418
 20
303.303326
 30
0.0
 11
505.520418
 21
303.303326
 31
0.0
  0
LINE
  5
7C91
  8
0
 10
505.520418
 20
298.803326
 30
0.0
 11
537.520418
 21
298.803326
 31
0.0
  0
LINE
  5
7C92
  8
0
 10
536.720418
 20
298.341326
 30
0.0
 11
506.320418
 21
298.341326
 31
0.0
  0
LINE
  5
7C93
  8
0
 10
506.320418
 20
297.765326
 30
0.0
 11
536.720418
 21
297.765326
 31
0.0
  0
LINE
  5
7C94
  8
0
 10
537.520418
 20
297.303326
 30
0.0
 11
505.520418
 21
297.303326
 31
0.0
  0
LINE
  5
7C95
  8
0
 10
505.520418
 20
292.803326
 30
0.0
 11
537.520418
 21
292.803326
 31
0.0
  0
LINE
  5
7C96
  8
0
 10
536.720418
 20
292.341326
 30
0.0
 11
506.320418
 21
292.341326
 31
0.0
  0
LINE
  5
7C97
  8
0
 10
506.320418
 20
291.765326
 30
0.0
 11
536.720418
 21
291.765326
 31
0.0
  0
LINE
  5
7C98
  8
0
 10
537.520418
 20
291.303326
 30
0.0
 11
505.520418
 21
291.303326
 31
0.0
  0
LINE
  5
7C99
  8
0
 10
505.520418
 20
286.803326
 30
0.0
 11
537.520418
 21
286.803326
 31
0.0
  0
LINE
  5
7C9A
  8
0
 10
536.720418
 20
286.341326
 30
0.0
 11
506.320418
 21
286.341326
 31
0.0
  0
LINE
  5
7C9B
  8
0
 10
506.320418
 20
285.765326
 30
0.0
 11
536.720418
 21
285.765326
 31
0.0
  0
LINE
  5
7C9C
  8
0
 10
537.520418
 20
285.303326
 30
0.0
 11
505.520418
 21
285.303326
 31
0.0
  0
LINE
  5
7C9D
  8
0
 10
505.520418
 20
280.803326
 30
0.0
 11
537.520418
 21
280.803326
 31
0.0
  0
LINE
  5
7C9E
  8
0
 10
536.720418
 20
280.341326
 30
0.0
 11
506.320418
 21
280.341326
 31
0.0
  0
LINE
  5
7C9F
  8
0
 10
506.320418
 20
279.765326
 30
0.0
 11
536.720418
 21
279.765326
 31
0.0
  0
LINE
  5
7CA0
  8
0
 10
537.520418
 20
279.303326
 30
0.0
 11
505.520418
 21
279.303326
 31
0.0
  0
LINE
  5
7CA1
  8
0
 10
505.513418
 20
274.803726
 30
0.0
 11
537.520418
 21
274.811326
 31
0.0
  0
LINE
  5
7CA2
  8
0
 10
507.013418
 20
250.958026
 30
0.0
 11
536.028418
 21
250.958026
 31
0.0
  0
LINE
  5
7CA3
  8
0
 10
505.520418
 20
279.303326
 30
0.0
 11
505.520418
 21
274.803726
 31
0.0
  0
LINE
  5
7CA4
  8
0
 10
508.988418
 20
273.803726
 30
0.0
 11
508.988418
 21
260.288126
 31
0.0
  0
LINE
  5
7CA5
  8
0
 10
510.048418
 20
260.288126
 30
0.0
 11
510.048418
 21
273.803726
 31
0.0
  0
LINE
  5
7CA6
  8
0
 10
504.513418
 20
273.803726
 30
0.0
 11
504.513418
 21
260.288126
 31
0.0
  0
ARC
  5
7CA7
  8
0
 10
504.618504
 20
260.349185
 30
0.0
 40
4.370341
 50
299.016952
 51
359.199483
  0
ARC
  5
7CA8
  8
0
 10
506.264415
 20
258.78554
 30
0.0
 40
2.307327
 50
139.366069
 51
281.854883
  0
LINE
  5
7CA9
  8
0
 10
507.703418
 20
246.290226
 30
0.0
 11
507.703418
 21
246.290226
 31
0.0
  0
LINE
  5
7CAA
  8
0
 10
507.703418
 20
246.290226
 30
0.0
 11
507.669418
 21
246.389326
 31
0.0
  0
LINE
  5
7CAB
  8
0
 10
507.669418
 20
246.389326
 30
0.0
 11
507.638418
 21
246.489626
 31
0.0
  0
LINE
  5
7CAC
  8
0
 10
507.638418
 20
246.489626
 30
0.0
 11
507.610418
 21
246.591226
 31
0.0
  0
LINE
  5
7CAD
  8
0
 10
507.610418
 20
246.591226
 30
0.0
 11
507.587418
 21
246.693926
 31
0.0
  0
LINE
  5
7CAE
  8
0
 10
507.587418
 20
246.693926
 30
0.0
 11
507.566418
 21
246.797326
 31
0.0
  0
LINE
  5
7CAF
  8
0
 10
507.566418
 20
246.797326
 30
0.0
 11
507.550418
 21
246.901426
 31
0.0
  0
LINE
  5
7CB0
  8
0
 10
507.550418
 20
246.901426
 30
0.0
 11
507.537418
 21
247.006026
 31
0.0
  0
LINE
  5
7CB1
  8
0
 10
507.537418
 20
247.006026
 30
0.0
 11
507.528418
 21
247.110826
 31
0.0
  0
LINE
  5
7CB2
  8
0
 10
507.528418
 20
247.110826
 30
0.0
 11
507.520418
 21
247.320426
 31
0.0
  0
LINE
  5
7CB3
  8
0
 10
507.520418
 20
247.320426
 30
0.0
 11
507.520418
 21
250.958026
 31
0.0
  0
LINE
  5
7CB4
  8
0
 10
504.513418
 20
260.288126
 30
0.0
 11
507.013418
 21
250.958026
 31
0.0
  0
LINE
  5
7CB5
  8
0
 10
508.988418
 20
260.288126
 30
0.0
 11
509.880418
 21
257.782626
 31
0.0
  0
LINE
  5
7CB6
  8
0
 10
509.880418
 20
257.782626
 30
0.0
 11
510.287418
 21
257.782626
 31
0.0
  0
LINE
  5
7CB7
  8
0
 10
510.287418
 20
257.782626
 30
0.0
 11
510.048418
 21
260.288126
 31
0.0
  0
ARC
  5
7CB8
  8
0
 10
515.63535
 20
262.55025
 30
0.0
 40
6.027522
 50
202.042802
 51
267.7377
  0
ARC
  5
7CB9
  8
0
 10
507.007335
 20
272.378025
 30
0.0
 40
2.44076
 50
35.740959
 51
96.325558
  0
ARC
  5
7CBA
  8
0
 10
506.590533
 20
272.157986
 30
0.0
 40
2.65007
 50
86.801008
 51
141.609504
  0
LINE
  5
7CBB
  8
0
 10
505.520418
 20
274.803726
 30
0.0
 11
505.513418
 21
274.803726
 31
0.0
  0
LINE
  5
7CBC
  8
0
 10
505.513418
 20
274.803726
 30
0.0
 11
504.513418
 21
273.803726
 31
0.0
  0
LINE
  5
7CBD
  8
0
 10
510.287418
 20
274.603626
 30
0.0
 11
509.880418
 21
274.603626
 31
0.0
  0
LINE
  5
7CBE
  8
0
 10
509.880418
 20
274.603626
 30
0.0
 11
508.988418
 21
273.803726
 31
0.0
  0
LINE
  5
7CBF
  8
0
 10
510.048418
 20
273.803726
 30
0.0
 11
510.287418
 21
274.603626
 31
0.0
  0
ARC
  5
7CC0
  8
0
 10
513.901057
 20
268.017471
 30
0.0
 40
6.951517
 50
77.56941
 51
123.656707
  0
LINE
  5
7CC1
  8
0
 10
505.520418
 20
297.303326
 30
0.0
 11
505.520418
 21
292.803326
 31
0.0
  0
LINE
  5
7CC2
  8
0
 10
505.520418
 20
292.803326
 30
0.0
 11
506.320418
 21
292.341326
 31
0.0
  0
LINE
  5
7CC3
  8
0
 10
506.320418
 20
292.341326
 30
0.0
 11
506.320418
 21
291.765326
 31
0.0
  0
LINE
  5
7CC4
  8
0
 10
506.320418
 20
291.765326
 30
0.0
 11
505.520418
 21
291.303326
 31
0.0
  0
LINE
  5
7CC5
  8
0
 10
505.520418
 20
286.803326
 30
0.0
 11
506.320418
 21
286.341326
 31
0.0
  0
LINE
  5
7CC6
  8
0
 10
506.320418
 20
286.341326
 30
0.0
 11
506.320418
 21
285.765326
 31
0.0
  0
LINE
  5
7CC7
  8
0
 10
506.320418
 20
285.765326
 30
0.0
 11
505.520418
 21
285.303326
 31
0.0
  0
LINE
  5
7CC8
  8
0
 10
505.520418
 20
280.803326
 30
0.0
 11
506.320418
 21
280.341326
 31
0.0
  0
LINE
  5
7CC9
  8
0
 10
506.320418
 20
280.341326
 30
0.0
 11
506.320418
 21
279.765326
 31
0.0
  0
LINE
  5
7CCA
  8
0
 10
506.320418
 20
279.765326
 30
0.0
 11
505.520418
 21
279.303326
 31
0.0
  0
LINE
  5
7CCB
  8
0
 10
505.520418
 20
285.303326
 30
0.0
 11
505.520418
 21
280.803326
 31
0.0
  0
LINE
  5
7CCC
  8
0
 10
505.520418
 20
291.303326
 30
0.0
 11
505.520418
 21
286.803326
 31
0.0
  0
LINE
  5
7CCD
  8
0
 10
505.520418
 20
310.803326
 30
0.0
 11
506.320418
 21
310.341326
 31
0.0
  0
LINE
  5
7CCE
  8
0
 10
506.320418
 20
310.341326
 30
0.0
 11
506.320418
 21
309.765326
 31
0.0
  0
LINE
  5
7CCF
  8
0
 10
506.320418
 20
309.765326
 30
0.0
 11
505.520418
 21
309.303326
 31
0.0
  0
LINE
  5
7CD0
  8
0
 10
505.520418
 20
304.803326
 30
0.0
 11
506.320418
 21
304.341326
 31
0.0
  0
LINE
  5
7CD1
  8
0
 10
506.320418
 20
304.341326
 30
0.0
 11
506.320418
 21
303.765326
 31
0.0
  0
LINE
  5
7CD2
  8
0
 10
506.320418
 20
303.765326
 30
0.0
 11
505.520418
 21
303.303326
 31
0.0
  0
LINE
  5
7CD3
  8
0
 10
505.520418
 20
309.303326
 30
0.0
 11
505.520418
 21
304.803326
 31
0.0
  0
LINE
  5
7CD4
  8
0
 10
505.520418
 20
298.803326
 30
0.0
 11
506.320418
 21
298.341326
 31
0.0
  0
LINE
  5
7CD5
  8
0
 10
506.320418
 20
298.341326
 30
0.0
 11
506.320418
 21
297.765326
 31
0.0
  0
LINE
  5
7CD6
  8
0
 10
506.320418
 20
297.765326
 30
0.0
 11
505.520418
 21
297.303326
 31
0.0
  0
LINE
  5
7CD7
  8
0
 10
505.520418
 20
303.303326
 30
0.0
 11
505.520418
 21
298.803326
 31
0.0
  0
LINE
  5
7CD8
  8
0
 10
537.520418
 20
274.803726
 30
0.0
 11
537.520418
 21
279.303326
 31
0.0
  0
LINE
  5
7CD9
  8
0
 10
533.040418
 20
273.803726
 30
0.0
 11
533.040418
 21
260.288126
 31
0.0
  0
LINE
  5
7CDA
  8
0
 10
534.101418
 20
260.288126
 30
0.0
 11
534.101418
 21
273.803726
 31
0.0
  0
LINE
  5
7CDB
  8
0
 10
538.528418
 20
260.288126
 30
0.0
 11
538.528418
 21
273.803726
 31
0.0
  0
LINE
  5
7CDC
  8
0
 10
521.256418
 20
274.603626
 30
0.0
 11
521.256418
 21
257.782626
 31
0.0
  0
LINE
  5
7CDD
  8
0
 10
521.832418
 20
257.782626
 30
0.0
 11
521.832418
 21
274.603626
 31
0.0
  0
LINE
  5
7CDE
  8
0
 10
520.794418
 20
273.803726
 30
0.0
 11
520.794418
 21
260.288126
 31
0.0
  0
LINE
  5
7CDF
  8
0
 10
522.294418
 20
260.288126
 30
0.0
 11
522.294418
 21
273.803726
 31
0.0
  0
ARC
  5
7CE0
  8
0
 10
527.110658
 20
263.044974
 30
0.0
 40
6.539286
 50
274.673101
 51
335.065473
  0
LINE
  5
7CE1
  8
0
 10
520.794418
 20
260.288126
 30
0.0
 11
521.256418
 21
257.782626
 31
0.0
  0
LINE
  5
7CE2
  8
0
 10
521.256418
 20
257.782626
 30
0.0
 11
521.832418
 21
257.782626
 31
0.0
  0
LINE
  5
7CE3
  8
0
 10
521.832418
 20
257.782626
 30
0.0
 11
522.294418
 21
260.288126
 31
0.0
  0
ARC
  5
7CE4
  8
0
 10
527.88135
 20
262.55025
 30
0.0
 40
6.027522
 50
202.042802
 51
267.7377
  0
ARC
  5
7CE5
  8
0
 10
534.158525
 20
260.335567
 30
0.0
 40
4.37015
 50
299.378474
 51
359.378006
  0
LINE
  5
7CE6
  8
0
 10
533.040418
 20
260.288126
 30
0.0
 11
532.801418
 21
257.782626
 31
0.0
  0
LINE
  5
7CE7
  8
0
 10
532.801418
 20
257.782626
 30
0.0
 11
533.208418
 21
257.782626
 31
0.0
  0
LINE
  5
7CE8
  8
0
 10
533.208418
 20
257.782626
 30
0.0
 11
534.101418
 21
260.288126
 31
0.0
  0
ARC
  5
7CE9
  8
0
 10
535.794589
 20
258.754645
 30
0.0
 40
2.28438
 50
137.833312
 51
282.84444
  0
LINE
  5
7CEA
  8
0
 10
535.338418
 20
246.290226
 30
0.0
 11
535.338418
 21
246.290226
 31
0.0
  0
LINE
  5
7CEB
  8
0
 10
535.338418
 20
246.290226
 30
0.0
 11
535.372418
 21
246.389326
 31
0.0
  0
LINE
  5
7CEC
  8
0
 10
535.372418
 20
246.389326
 30
0.0
 11
535.403418
 21
246.489626
 31
0.0
  0
LINE
  5
7CED
  8
0
 10
535.403418
 20
246.489626
 30
0.0
 11
535.430418
 21
246.591226
 31
0.0
  0
LINE
  5
7CEE
  8
0
 10
535.430418
 20
246.591226
 30
0.0
 11
535.454418
 21
246.693926
 31
0.0
  0
LINE
  5
7CEF
  8
0
 10
535.454418
 20
246.693926
 30
0.0
 11
535.474418
 21
246.797326
 31
0.0
  0
LINE
  5
7CF0
  8
0
 10
535.474418
 20
246.797326
 30
0.0
 11
535.491418
 21
246.901426
 31
0.0
  0
LINE
  5
7CF1
  8
0
 10
535.491418
 20
246.901426
 30
0.0
 11
535.504418
 21
247.006026
 31
0.0
  0
LINE
  5
7CF2
  8
0
 10
535.504418
 20
247.006026
 30
0.0
 11
535.513418
 21
247.110826
 31
0.0
  0
LINE
  5
7CF3
  8
0
 10
535.513418
 20
247.110826
 30
0.0
 11
535.520418
 21
247.320426
 31
0.0
  0
LINE
  5
7CF4
  8
0
 10
535.520418
 20
247.320426
 30
0.0
 11
535.520418
 21
250.958026
 31
0.0
  0
LINE
  5
7CF5
  8
0
 10
536.028418
 20
250.958026
 30
0.0
 11
538.528418
 21
260.288126
 31
0.0
  0
ARC
  5
7CF6
  8
0
 10
529.48073
 20
269.682541
 30
0.0
 40
5.44569
 50
49.181076
 51
109.71784
  0
LINE
  5
7CF7
  8
0
 10
521.256418
 20
274.603626
 30
0.0
 11
520.794418
 21
273.803726
 31
0.0
  0
LINE
  5
7CF8
  8
0
 10
522.294418
 20
273.803726
 30
0.0
 11
521.832418
 21
274.603626
 31
0.0
  0
LINE
  5
7CF9
  8
0
 10
521.832418
 20
274.603626
 30
0.0
 11
521.256418
 21
274.603626
 31
0.0
  0
ARC
  5
7CFA
  8
0
 10
526.150327
 20
268.019658
 30
0.0
 40
6.951509
 50
77.596996
 51
123.689134
  0
ARC
  5
7CFB
  8
0
 10
536.541077
 20
272.375199
 30
0.0
 40
2.447491
 50
35.709087
 51
95.595914
  0
LINE
  5
7CFC
  8
0
 10
538.528418
 20
273.803726
 30
0.0
 11
537.528418
 21
274.803726
 31
0.0
  0
LINE
  5
7CFD
  8
0
 10
537.528418
 20
274.803726
 30
0.0
 11
537.520418
 21
274.803726
 31
0.0
  0
LINE
  5
7CFE
  8
0
 10
532.801418
 20
274.603626
 30
0.0
 11
533.040418
 21
273.803726
 31
0.0
  0
LINE
  5
7CFF
  8
0
 10
534.101418
 20
273.803726
 30
0.0
 11
533.208418
 21
274.603626
 31
0.0
  0
LINE
  5
7D00
  8
0
 10
533.208418
 20
274.603626
 30
0.0
 11
532.801418
 21
274.603626
 31
0.0
  0
ARC
  5
7D01
  8
0
 10
536.173574
 20
272.18426
 30
0.0
 40
2.629924
 50
87.19187
 51
141.991064
  0
LINE
  5
7D02
  8
0
 10
537.520418
 20
292.803326
 30
0.0
 11
537.520418
 21
297.303326
 31
0.0
  0
LINE
  5
7D03
  8
0
 10
537.520418
 20
291.303326
 30
0.0
 11
536.720418
 21
291.765326
 31
0.0
  0
LINE
  5
7D04
  8
0
 10
536.720418
 20
291.765326
 30
0.0
 11
536.720418
 21
292.341326
 31
0.0
  0
LINE
  5
7D05
  8
0
 10
536.720418
 20
292.341326
 30
0.0
 11
537.520418
 21
292.803326
 31
0.0
  0
LINE
  5
7D06
  8
0
 10
537.520418
 20
285.303326
 30
0.0
 11
536.720418
 21
285.765326
 31
0.0
  0
LINE
  5
7D07
  8
0
 10
536.720418
 20
285.765326
 30
0.0
 11
536.720418
 21
286.341326
 31
0.0
  0
LINE
  5
7D08
  8
0
 10
536.720418
 20
286.341326
 30
0.0
 11
537.520418
 21
286.803326
 31
0.0
  0
LINE
  5
7D09
  8
0
 10
537.520418
 20
279.303326
 30
0.0
 11
536.720418
 21
279.765326
 31
0.0
  0
LINE
  5
7D0A
  8
0
 10
536.720418
 20
279.765326
 30
0.0
 11
536.720418
 21
280.341326
 31
0.0
  0
LINE
  5
7D0B
  8
0
 10
536.720418
 20
280.341326
 30
0.0
 11
537.520418
 21
280.803326
 31
0.0
  0
LINE
  5
7D0C
  8
0
 10
537.520418
 20
280.803326
 30
0.0
 11
537.520418
 21
285.303326
 31
0.0
  0
LINE
  5
7D0D
  8
0
 10
537.520418
 20
286.803326
 30
0.0
 11
537.520418
 21
291.303326
 31
0.0
  0
LINE
  5
7D0E
  8
0
 10
537.520418
 20
309.303326
 30
0.0
 11
536.720418
 21
309.765326
 31
0.0
  0
LINE
  5
7D0F
  8
0
 10
536.720418
 20
309.765326
 30
0.0
 11
536.720418
 21
310.341326
 31
0.0
  0
LINE
  5
7D10
  8
0
 10
536.720418
 20
310.341326
 30
0.0
 11
537.520418
 21
310.803326
 31
0.0
  0
LINE
  5
7D11
  8
0
 10
537.520418
 20
303.303326
 30
0.0
 11
536.720418
 21
303.765326
 31
0.0
  0
LINE
  5
7D12
  8
0
 10
536.720418
 20
303.765326
 30
0.0
 11
536.720418
 21
304.341326
 31
0.0
  0
LINE
  5
7D13
  8
0
 10
536.720418
 20
304.341326
 30
0.0
 11
537.520418
 21
304.803326
 31
0.0
  0
LINE
  5
7D14
  8
0
 10
537.520418
 20
304.803326
 30
0.0
 11
537.520418
 21
309.303326
 31
0.0
  0
LINE
  5
7D15
  8
0
 10
537.520418
 20
297.303326
 30
0.0
 11
536.720418
 21
297.765326
 31
0.0
  0
LINE
  5
7D16
  8
0
 10
536.720418
 20
297.765326
 30
0.0
 11
536.720418
 21
298.341326
 31
0.0
  0
LINE
  5
7D17
  8
0
 10
536.720418
 20
298.341326
 30
0.0
 11
537.520418
 21
298.803326
 31
0.0
  0
LINE
  5
7D18
  8
0
 10
537.520418
 20
298.803326
 30
0.0
 11
537.520418
 21
303.303326
 31
0.0
  0
ARC
  5
7D19
  8
0
 10
534.370818
 20
427.429326
 30
0.0
 40
15.7
 50
90.0
 51
180.0
  0
LINE
  5
7D1A
  8
0
 10
537.520418
 20
377.710326
 30
0.0
 11
537.520418
 21
374.360326
 31
0.0
  0
LINE
  5
7D1B
  8
0
 10
505.520418
 20
374.360326
 30
0.0
 11
505.520418
 21
377.710326
 31
0.0
  0
ARC
  5
7D1C
  8
0
 10
517.224951
 20
368.709596
 30
0.0
 40
5.465336
 50
49.417034
 51
109.535224
  0
ARC
  5
7D1D
  8
0
 10
516.907454
 20
353.624468
 30
0.0
 40
6.986286
 50
257.517414
 51
303.568623
  0
LINE
  5
7D1E
  8
0
 10
507.520418
 20
374.360326
 30
0.0
 11
535.520418
 21
374.360326
 31
0.0
  0
LINE
  5
7D1F
  8
0
 10
505.520418
 20
334.803326
 30
0.0
 11
537.520418
 21
334.803326
 31
0.0
  0
LINE
  5
7D20
  8
0
 10
536.720418
 20
334.341326
 30
0.0
 11
506.320418
 21
334.341326
 31
0.0
  0
LINE
  5
7D21
  8
0
 10
506.320418
 20
333.765326
 30
0.0
 11
536.720418
 21
333.765326
 31
0.0
  0
LINE
  5
7D22
  8
0
 10
537.520418
 20
333.303326
 30
0.0
 11
505.520418
 21
333.303326
 31
0.0
  0
LINE
  5
7D23
  8
0
 10
505.520418
 20
328.803326
 30
0.0
 11
537.520418
 21
328.803326
 31
0.0
  0
LINE
  5
7D24
  8
0
 10
536.720418
 20
328.341326
 30
0.0
 11
506.320418
 21
328.341326
 31
0.0
  0
LINE
  5
7D25
  8
0
 10
506.320418
 20
327.765326
 30
0.0
 11
536.720418
 21
327.765326
 31
0.0
  0
LINE
  5
7D26
  8
0
 10
537.520418
 20
327.303326
 30
0.0
 11
505.520418
 21
327.303326
 31
0.0
  0
LINE
  5
7D27
  8
0
 10
505.520418
 20
340.803326
 30
0.0
 11
537.520418
 21
340.803326
 31
0.0
  0
LINE
  5
7D28
  8
0
 10
536.720418
 20
340.341326
 30
0.0
 11
506.320418
 21
340.341326
 31
0.0
  0
LINE
  5
7D29
  8
0
 10
506.320418
 20
339.765326
 30
0.0
 11
536.720418
 21
339.765326
 31
0.0
  0
LINE
  5
7D2A
  8
0
 10
537.520418
 20
339.303326
 30
0.0
 11
505.520418
 21
339.303326
 31
0.0
  0
LINE
  5
7D2B
  8
0
 10
505.520418
 20
346.803326
 30
0.0
 11
537.520418
 21
346.803326
 31
0.0
  0
LINE
  5
7D2C
  8
0
 10
537.528418
 20
373.860326
 30
0.0
 11
505.513418
 21
373.860326
 31
0.0
  0
LINE
  5
7D2D
  8
0
 10
535.520418
 20
373.860326
 30
0.0
 11
507.520418
 21
373.860326
 31
0.0
  0
LINE
  5
7D2E
  8
0
 10
505.520418
 20
322.803326
 30
0.0
 11
537.520418
 21
322.803326
 31
0.0
  0
LINE
  5
7D2F
  8
0
 10
536.720418
 20
322.341326
 30
0.0
 11
506.320418
 21
322.341326
 31
0.0
  0
LINE
  5
7D30
  8
0
 10
506.320418
 20
321.765326
 30
0.0
 11
536.720418
 21
321.765326
 31
0.0
  0
LINE
  5
7D31
  8
0
 10
537.520418
 20
321.303326
 30
0.0
 11
505.520418
 21
321.303326
 31
0.0
  0
LINE
  5
7D32
  8
0
 10
505.520418
 20
316.803326
 30
0.0
 11
537.520418
 21
316.803326
 31
0.0
  0
LINE
  5
7D33
  8
0
 10
536.720418
 20
316.341326
 30
0.0
 11
506.320418
 21
316.341326
 31
0.0
  0
LINE
  5
7D34
  8
0
 10
506.320418
 20
315.765326
 30
0.0
 11
536.720418
 21
315.765326
 31
0.0
  0
LINE
  5
7D35
  8
0
 10
537.520418
 20
315.303326
 30
0.0
 11
505.520418
 21
315.303326
 31
0.0
  0
LINE
  5
7D36
  8
0
 10
505.520418
 20
346.803326
 30
0.0
 11
505.520418
 21
340.803326
 31
0.0
  0
LINE
  5
7D37
  8
0
 10
506.320418
 20
327.765326
 30
0.0
 11
505.520418
 21
327.303326
 31
0.0
  0
LINE
  5
7D38
  8
0
 10
505.520418
 20
322.803326
 30
0.0
 11
506.320418
 21
322.341326
 31
0.0
  0
LINE
  5
7D39
  8
0
 10
506.320418
 20
322.341326
 30
0.0
 11
506.320418
 21
321.765326
 31
0.0
  0
LINE
  5
7D3A
  8
0
 10
506.320418
 20
321.765326
 30
0.0
 11
505.520418
 21
321.303326
 31
0.0
  0
LINE
  5
7D3B
  8
0
 10
505.520418
 20
316.803326
 30
0.0
 11
506.320418
 21
316.341326
 31
0.0
  0
LINE
  5
7D3C
  8
0
 10
506.320418
 20
316.341326
 30
0.0
 11
506.320418
 21
315.765326
 31
0.0
  0
LINE
  5
7D3D
  8
0
 10
506.320418
 20
315.765326
 30
0.0
 11
505.520418
 21
315.303326
 31
0.0
  0
LINE
  5
7D3E
  8
0
 10
505.520418
 20
321.303326
 30
0.0
 11
505.520418
 21
316.803326
 31
0.0
  0
LINE
  5
7D3F
  8
0
 10
505.520418
 20
327.303326
 30
0.0
 11
505.520418
 21
322.803326
 31
0.0
  0
LINE
  5
7D40
  8
0
 10
505.520418
 20
340.803326
 30
0.0
 11
506.320418
 21
340.341326
 31
0.0
  0
LINE
  5
7D41
  8
0
 10
506.320418
 20
340.341326
 30
0.0
 11
506.320418
 21
339.765326
 31
0.0
  0
LINE
  5
7D42
  8
0
 10
506.320418
 20
339.765326
 30
0.0
 11
505.520418
 21
339.303326
 31
0.0
  0
LINE
  5
7D43
  8
0
 10
505.520418
 20
334.803326
 30
0.0
 11
506.320418
 21
334.341326
 31
0.0
  0
LINE
  5
7D44
  8
0
 10
506.320418
 20
334.341326
 30
0.0
 11
506.320418
 21
333.765326
 31
0.0
  0
LINE
  5
7D45
  8
0
 10
506.320418
 20
333.765326
 30
0.0
 11
505.520418
 21
333.303326
 31
0.0
  0
LINE
  5
7D46
  8
0
 10
505.520418
 20
328.803326
 30
0.0
 11
506.320418
 21
328.341326
 31
0.0
  0
LINE
  5
7D47
  8
0
 10
506.320418
 20
328.341326
 30
0.0
 11
506.320418
 21
327.765326
 31
0.0
  0
LINE
  5
7D48
  8
0
 10
505.520418
 20
333.303326
 30
0.0
 11
505.520418
 21
328.803326
 31
0.0
  0
LINE
  5
7D49
  8
0
 10
505.520418
 20
339.303326
 30
0.0
 11
505.520418
 21
334.803326
 31
0.0
  0
LINE
  5
7D4A
  8
0
 10
516.437418
 20
359.998326
 30
0.0
 11
516.437418
 21
362.474326
 31
0.0
  0
LINE
  5
7D4B
  8
0
 10
517.707418
 20
362.474326
 30
0.0
 11
517.707418
 21
359.855326
 31
0.0
  0
LINE
  5
7D4C
  8
0
 10
519.093418
 20
349.332326
 30
0.0
 11
519.093418
 21
371.332326
 31
0.0
  0
LINE
  5
7D4D
  8
0
 10
511.702418
 20
371.332326
 30
0.0
 11
511.702418
 21
349.332326
 31
0.0
  0
LINE
  5
7D4E
  8
0
 10
510.024418
 20
372.860326
 30
0.0
 11
510.024418
 21
347.803326
 31
0.0
  0
LINE
  5
7D4F
  8
0
 10
508.964418
 20
372.860326
 30
0.0
 11
508.964418
 21
347.803326
 31
0.0
  0
LINE
  5
7D50
  8
0
 10
504.513418
 20
372.860326
 30
0.0
 11
504.513418
 21
347.803326
 31
0.0
  0
ARC
  5
7D51
  8
0
 10
506.886892
 20
349.450359
 30
0.0
 40
2.651194
 50
266.789586
 51
321.593107
  0
ARC
  5
7D52
  8
0
 10
506.501272
 20
349.231161
 30
0.0
 40
2.439389
 50
215.825925
 51
275.578838
  0
LINE
  5
7D53
  8
0
 10
504.523418
 20
347.803326
 30
0.0
 11
504.513418
 21
347.803326
 31
0.0
  0
LINE
  5
7D54
  8
0
 10
504.513418
 20
347.803326
 30
0.0
 11
505.513418
 21
346.803326
 31
0.0
  0
LINE
  5
7D55
  8
0
 10
505.513418
 20
346.803326
 30
0.0
 11
505.520418
 21
346.803326
 31
0.0
  0
LINE
  5
7D56
  8
0
 10
516.485418
 20
359.855326
 30
0.0
 11
516.485418
 21
359.855326
 31
0.0
  0
LINE
  5
7D57
  8
0
 10
516.485418
 20
359.855326
 30
0.0
 11
516.478418
 21
359.857326
 31
0.0
  0
LINE
  5
7D58
  8
0
 10
516.478418
 20
359.857326
 30
0.0
 11
516.471418
 21
359.862326
 31
0.0
  0
LINE
  5
7D59
  8
0
 10
516.471418
 20
359.862326
 30
0.0
 11
516.464418
 21
359.870326
 31
0.0
  0
LINE
  5
7D5A
  8
0
 10
516.464418
 20
359.870326
 30
0.0
 11
516.457418
 21
359.882326
 31
0.0
  0
LINE
  5
7D5B
  8
0
 10
516.457418
 20
359.882326
 30
0.0
 11
516.451418
 21
359.897326
 31
0.0
  0
LINE
  5
7D5C
  8
0
 10
516.451418
 20
359.897326
 30
0.0
 11
516.446418
 21
359.915326
 31
0.0
  0
LINE
  5
7D5D
  8
0
 10
516.446418
 20
359.915326
 30
0.0
 11
516.442418
 21
359.935326
 31
0.0
  0
LINE
  5
7D5E
  8
0
 10
516.442418
 20
359.935326
 30
0.0
 11
516.439418
 21
359.956326
 31
0.0
  0
LINE
  5
7D5F
  8
0
 10
516.439418
 20
359.956326
 30
0.0
 11
516.437418
 21
359.998326
 31
0.0
  0
LINE
  5
7D60
  8
0
 10
517.707418
 20
359.855326
 30
0.0
 11
517.707418
 21
359.855326
 31
0.0
  0
LINE
  5
7D61
  8
0
 10
517.694418
 20
359.671326
 30
0.0
 11
517.651418
 21
359.482326
 31
0.0
  0
LINE
  5
7D62
  8
0
 10
517.651418
 20
359.482326
 30
0.0
 11
517.577418
 21
359.295326
 31
0.0
  0
LINE
  5
7D63
  8
0
 10
517.577418
 20
359.295326
 30
0.0
 11
517.471418
 21
359.118326
 31
0.0
  0
LINE
  5
7D64
  8
0
 10
517.471418
 20
359.118326
 30
0.0
 11
517.335418
 21
358.958326
 31
0.0
  0
LINE
  5
7D65
  8
0
 10
517.335418
 20
358.958326
 30
0.0
 11
517.175418
 21
358.822326
 31
0.0
  0
LINE
  5
7D66
  8
0
 10
517.175418
 20
358.822326
 30
0.0
 11
516.998418
 21
358.716326
 31
0.0
  0
LINE
  5
7D67
  8
0
 10
516.998418
 20
358.716326
 30
0.0
 11
516.810418
 21
358.642326
 31
0.0
  0
LINE
  5
7D68
  8
0
 10
516.810418
 20
358.642326
 30
0.0
 11
516.437418
 21
358.586326
 31
0.0
  0
ARC
  5
7D69
  8
0
 10
517.072418
 20
354.895826
 30
0.0
 40
0.6345
 50
270.0
 51
90.0
  0
LINE
  5
7D6A
  8
0
 10
517.707418
 20
359.855326
 30
0.0
 11
517.694418
 21
359.671326
 31
0.0
  0
ARC
  5
7D6B
  8
0
 10
513.722918
 20
356.757213
 30
0.0
 40
0.634508
 50
0.28115
 51
179.71885
  0
LINE
  5
7D6C
  8
0
 10
514.357418
 20
356.760326
 30
0.0
 11
514.357418
 21
355.530326
 31
0.0
  0
ARC
  5
7D6D
  8
0
 10
513.723055
 20
353.030698
 30
0.0
 40
0.634373
 50
270.123081
 51
0.327709
  0
ARC
  5
7D6E
  8
0
 10
513.722932
 20
353.030848
 30
0.0
 40
0.634523
 50
179.685915
 51
270.134193
  0
LINE
  5
7D6F
  8
0
 10
514.357418
 20
354.261326
 30
0.0
 11
514.357418
 21
353.034326
 31
0.0
  0
LINE
  5
7D70
  8
0
 10
513.088418
 20
353.034326
 30
0.0
 11
513.088418
 21
356.760326
 31
0.0
  0
ARC
  5
7D71
  8
0
 10
513.723418
 20
359.220826
 30
0.0
 40
0.6345
 50
90.0
 51
270.0
  0
LINE
  5
7D72
  8
0
 10
510.024418
 20
347.803326
 30
0.0
 11
510.264418
 21
347.003326
 31
0.0
  0
LINE
  5
7D73
  8
0
 10
508.964418
 20
347.803326
 30
0.0
 11
509.856418
 21
347.003326
 31
0.0
  0
LINE
  5
7D74
  8
0
 10
509.856418
 20
347.003326
 30
0.0
 11
510.264418
 21
347.003326
 31
0.0
  0
LINE
  5
7D75
  8
0
 10
513.723418
 20
359.855326
 30
0.0
 11
516.485418
 21
359.855326
 31
0.0
  0
LINE
  5
7D76
  8
0
 10
516.437418
 20
358.586326
 30
0.0
 11
513.723418
 21
358.586326
 31
0.0
  0
LINE
  5
7D77
  8
0
 10
514.357418
 20
355.530326
 30
0.0
 11
517.072418
 21
355.530326
 31
0.0
  0
LINE
  5
7D78
  8
0
 10
517.072418
 20
354.261326
 30
0.0
 11
514.357418
 21
354.261326
 31
0.0
  0
LINE
  5
7D79
  8
0
 10
511.702418
 20
349.332326
 30
0.0
 11
519.093418
 21
349.332326
 31
0.0
  0
ARC
  5
7D7A
  8
0
 10
513.576944
 20
351.956485
 30
0.0
 40
5.465269
 50
229.457002
 51
289.456961
  0
ARC
  5
7D7B
  8
0
 10
506.985377
 20
371.432519
 30
0.0
 40
2.440336
 50
35.809102
 51
95.808205
  0
LINE
  5
7D7C
  8
0
 10
507.520418
 20
373.860326
 30
0.0
 11
507.520418
 21
374.360326
 31
0.0
  0
ARC
  5
7D7D
  8
0
 10
506.590425
 20
371.214297
 30
0.0
 40
2.650164
 50
86.798778
 51
141.603165
  0
LINE
  5
7D7E
  8
0
 10
505.513418
 20
373.860326
 30
0.0
 11
504.513418
 21
372.860326
 31
0.0
  0
LINE
  5
7D7F
  8
0
 10
507.520418
 20
374.360326
 30
0.0
 11
505.520418
 21
374.360326
 31
0.0
  0
LINE
  5
7D80
  8
0
 10
516.368418
 20
365.284326
 30
0.0
 11
516.368418
 21
365.284326
 31
0.0
  0
LINE
  5
7D81
  8
0
 10
516.368418
 20
365.284326
 30
0.0
 11
516.374418
 21
365.298326
 31
0.0
  0
LINE
  5
7D82
  8
0
 10
516.374418
 20
365.298326
 30
0.0
 11
516.380418
 21
365.318326
 31
0.0
  0
LINE
  5
7D83
  8
0
 10
516.380418
 20
365.318326
 30
0.0
 11
516.385418
 21
365.344326
 31
0.0
  0
LINE
  5
7D84
  8
0
 10
516.385418
 20
365.344326
 30
0.0
 11
516.388418
 21
365.376326
 31
0.0
  0
LINE
  5
7D85
  8
0
 10
516.388418
 20
365.376326
 30
0.0
 11
516.389418
 21
365.411326
 31
0.0
  0
LINE
  5
7D86
  8
0
 10
516.389418
 20
365.411326
 30
0.0
 11
516.388418
 21
365.445326
 31
0.0
  0
LINE
  5
7D87
  8
0
 10
516.388418
 20
365.445326
 30
0.0
 11
516.385418
 21
365.477326
 31
0.0
  0
LINE
  5
7D88
  8
0
 10
516.385418
 20
365.477326
 30
0.0
 11
516.380418
 21
365.504326
 31
0.0
  0
ARC
  5
7D89
  8
0
 10
517.072418
 20
362.474326
 30
0.0
 40
0.635
 50
0.0
 51
180.0
  0
LINE
  5
7D8A
  8
0
 10
516.380418
 20
365.504326
 30
0.0
 11
516.368418
 21
365.538326
 31
0.0
  0
ARC
  5
7D8B
  8
0
 10
516.438076
 20
365.410826
 30
0.0
 40
1.269837
 50
296.084458
 51
63.915542
  0
LINE
  5
7D8C
  8
0
 10
509.856418
 20
373.660326
 30
0.0
 11
510.264418
 21
373.660326
 31
0.0
  0
LINE
  5
7D8D
  8
0
 10
510.264418
 20
373.660326
 30
0.0
 11
510.024418
 21
372.860326
 31
0.0
  0
LINE
  5
7D8E
  8
0
 10
508.964418
 20
372.860326
 30
0.0
 11
508.964418
 21
372.860326
 31
0.0
  0
LINE
  5
7D8F
  8
0
 10
510.024418
 20
373.660326
 30
0.0
 11
509.856418
 21
373.660326
 31
0.0
  0
LINE
  5
7D90
  8
0
 10
509.856418
 20
373.660326
 30
0.0
 11
508.964418
 21
372.860326
 31
0.0
  0
ARC
  5
7D91
  8
0
 10
513.722579
 20
367.63337
 30
0.0
 40
0.634729
 50
153.727564
 51
243.908147
  0
ARC
  5
7D92
  8
0
 10
513.723134
 20
367.633167
 30
0.0
 40
0.635316
 50
63.620136
 51
153.733267
  0
ARC
  5
7D93
  8
0
 10
513.722918
 20
363.188826
 30
0.0
 40
0.635288
 50
116.10121
 51
296.10121
  0
LINE
  5
7D94
  8
0
 10
513.443418
 20
363.759326
 30
0.0
 11
516.368418
 21
365.284326
 31
0.0
  0
LINE
  5
7D95
  8
0
 10
516.368418
 20
365.538326
 30
0.0
 11
513.443418
 21
367.063326
 31
0.0
  0
LINE
  5
7D96
  8
0
 10
514.005418
 20
368.202326
 30
0.0
 11
516.996418
 21
366.551326
 31
0.0
  0
LINE
  5
7D97
  8
0
 10
516.996418
 20
364.270326
 30
0.0
 11
514.002418
 21
362.618326
 31
0.0
  0
LINE
  5
7D98
  8
0
 10
519.093418
 20
371.332326
 30
0.0
 11
511.702418
 21
371.332326
 31
0.0
  0
ARC
  5
7D99
  8
0
 10
513.887376
 20
367.039218
 30
0.0
 40
6.986254
 50
77.517304
 51
123.568733
  0
LINE
  5
7D9A
  8
0
 10
537.520418
 20
340.803326
 30
0.0
 11
537.520418
 21
346.803326
 31
0.0
  0
LINE
  5
7D9B
  8
0
 10
537.520418
 20
327.303326
 30
0.0
 11
536.720418
 21
327.765326
 31
0.0
  0
LINE
  5
7D9C
  8
0
 10
537.520418
 20
321.303326
 30
0.0
 11
536.720418
 21
321.765326
 31
0.0
  0
LINE
  5
7D9D
  8
0
 10
536.720418
 20
321.765326
 30
0.0
 11
536.720418
 21
322.341326
 31
0.0
  0
LINE
  5
7D9E
  8
0
 10
536.720418
 20
322.341326
 30
0.0
 11
537.520418
 21
322.803326
 31
0.0
  0
LINE
  5
7D9F
  8
0
 10
537.520418
 20
315.303326
 30
0.0
 11
536.720418
 21
315.765326
 31
0.0
  0
LINE
  5
7DA0
  8
0
 10
536.720418
 20
315.765326
 30
0.0
 11
536.720418
 21
316.341326
 31
0.0
  0
LINE
  5
7DA1
  8
0
 10
536.720418
 20
316.341326
 30
0.0
 11
537.520418
 21
316.803326
 31
0.0
  0
LINE
  5
7DA2
  8
0
 10
537.520418
 20
316.803326
 30
0.0
 11
537.520418
 21
321.303326
 31
0.0
  0
LINE
  5
7DA3
  8
0
 10
537.520418
 20
322.803326
 30
0.0
 11
537.520418
 21
327.303326
 31
0.0
  0
LINE
  5
7DA4
  8
0
 10
537.520418
 20
339.303326
 30
0.0
 11
536.720418
 21
339.765326
 31
0.0
  0
LINE
  5
7DA5
  8
0
 10
536.720418
 20
339.765326
 30
0.0
 11
536.720418
 21
340.341326
 31
0.0
  0
LINE
  5
7DA6
  8
0
 10
536.720418
 20
340.341326
 30
0.0
 11
537.520418
 21
340.803326
 31
0.0
  0
LINE
  5
7DA7
  8
0
 10
537.520418
 20
333.303326
 30
0.0
 11
536.720418
 21
333.765326
 31
0.0
  0
LINE
  5
7DA8
  8
0
 10
536.720418
 20
333.765326
 30
0.0
 11
536.720418
 21
334.341326
 31
0.0
  0
LINE
  5
7DA9
  8
0
 10
536.720418
 20
334.341326
 30
0.0
 11
537.520418
 21
334.803326
 31
0.0
  0
LINE
  5
7DAA
  8
0
 10
536.720418
 20
327.765326
 30
0.0
 11
536.720418
 21
328.341326
 31
0.0
  0
LINE
  5
7DAB
  8
0
 10
536.720418
 20
328.341326
 30
0.0
 11
537.520418
 21
328.803326
 31
0.0
  0
LINE
  5
7DAC
  8
0
 10
537.520418
 20
328.803326
 30
0.0
 11
537.520418
 21
333.303326
 31
0.0
  0
LINE
  5
7DAD
  8
0
 10
537.520418
 20
334.803326
 30
0.0
 11
537.520418
 21
339.303326
 31
0.0
  0
LINE
  5
7DAE
  8
0
 10
521.232418
 20
373.660326
 30
0.0
 11
521.232418
 21
347.003326
 31
0.0
  0
LINE
  5
7DAF
  8
0
 10
521.809418
 20
373.660326
 30
0.0
 11
521.809418
 21
347.003326
 31
0.0
  0
LINE
  5
7DB0
  8
0
 10
534.077418
 20
372.860326
 30
0.0
 11
534.077418
 21
347.803326
 31
0.0
  0
LINE
  5
7DB1
  8
0
 10
533.016418
 20
372.860326
 30
0.0
 11
533.016418
 21
347.803326
 31
0.0
  0
LINE
  5
7DB2
  8
0
 10
522.270418
 20
372.860326
 30
0.0
 11
522.270418
 21
347.803326
 31
0.0
  0
LINE
  5
7DB3
  8
0
 10
520.770418
 20
372.860326
 30
0.0
 11
520.770418
 21
347.803326
 31
0.0
  0
LINE
  5
7DB4
  8
0
 10
538.528418
 20
347.803326
 30
0.0
 11
538.528418
 21
372.860326
 31
0.0
  0
ARC
  5
7DB5
  8
0
 10
529.15346
 20
353.624435
 30
0.0
 40
6.986254
 50
257.517304
 51
303.568733
  0
LINE
  5
7DB6
  8
0
 10
522.270418
 20
347.803326
 30
0.0
 11
521.809418
 21
347.003326
 31
0.0
  0
LINE
  5
7DB7
  8
0
 10
520.770418
 20
347.803326
 30
0.0
 11
521.232418
 21
347.003326
 31
0.0
  0
LINE
  5
7DB8
  8
0
 10
521.232418
 20
347.003326
 30
0.0
 11
521.809418
 21
347.003326
 31
0.0
  0
ARC
  5
7DB9
  8
0
 10
525.822951
 20
351.956525
 30
0.0
 40
5.465304
 50
229.457216
 51
289.456747
  0
ARC
  5
7DBA
  8
0
 10
536.450897
 20
349.45035
 30
0.0
 40
2.651184
 50
266.789478
 51
321.593215
  0
LINE
  5
7DBB
  8
0
 10
537.520418
 20
346.803326
 30
0.0
 11
537.528418
 21
346.803326
 31
0.0
  0
LINE
  5
7DBC
  8
0
 10
537.528418
 20
346.803326
 30
0.0
 11
538.528418
 21
347.803326
 31
0.0
  0
LINE
  5
7DBD
  8
0
 10
534.077418
 20
347.803326
 30
0.0
 11
533.185418
 21
347.003326
 31
0.0
  0
LINE
  5
7DBE
  8
0
 10
533.185418
 20
347.003326
 30
0.0
 11
532.777418
 21
347.003326
 31
0.0
  0
LINE
  5
7DBF
  8
0
 10
533.016418
 20
347.803326
 30
0.0
 11
532.777418
 21
347.003326
 31
0.0
  0
ARC
  5
7DC0
  8
0
 10
536.055966
 20
349.230284
 30
0.0
 40
2.439439
 50
215.79969
 51
275.798366
  0
ARC
  5
7DC1
  8
0
 10
529.463888
 20
368.707148
 30
0.0
 40
5.465287
 50
49.457109
 51
109.456854
  0
LINE
  5
7DC2
  8
0
 10
521.809418
 20
373.660326
 30
0.0
 11
522.270418
 21
372.860326
 31
0.0
  0
LINE
  5
7DC3
  8
0
 10
521.809418
 20
373.660326
 30
0.0
 11
521.232418
 21
373.660326
 31
0.0
  0
LINE
  5
7DC4
  8
0
 10
521.232418
 20
373.660326
 30
0.0
 11
520.770418
 21
372.860326
 31
0.0
  0
LINE
  5
7DC5
  8
0
 10
520.780418
 20
372.860326
 30
0.0
 11
520.770418
 21
372.860326
 31
0.0
  0
ARC
  5
7DC6
  8
0
 10
526.133382
 20
367.039184
 30
0.0
 40
6.986286
 50
77.517414
 51
123.568623
  0
ARC
  5
7DC7
  8
0
 10
536.558714
 20
371.433558
 30
0.0
 40
2.440265
 50
35.780222
 51
96.028794
  0
LINE
  5
7DC8
  8
0
 10
538.538418
 20
372.860326
 30
0.0
 11
538.528418
 21
372.860326
 31
0.0
  0
LINE
  5
7DC9
  8
0
 10
538.528418
 20
372.860326
 30
0.0
 11
537.528418
 21
373.860326
 31
0.0
  0
LINE
  5
7DCA
  8
0
 10
533.016418
 20
373.660326
 30
0.0
 11
533.185418
 21
373.660326
 31
0.0
  0
LINE
  5
7DCB
  8
0
 10
533.185418
 20
373.660326
 30
0.0
 11
534.077418
 21
372.860326
 31
0.0
  0
LINE
  5
7DCC
  8
0
 10
533.016418
 20
373.660326
 30
0.0
 11
532.777418
 21
373.660326
 31
0.0
  0
LINE
  5
7DCD
  8
0
 10
532.777418
 20
373.660326
 30
0.0
 11
533.016418
 21
372.860326
 31
0.0
  0
LINE
  5
7DCE
  8
0
 10
533.016418
 20
372.860326
 30
0.0
 11
533.016418
 21
372.860326
 31
0.0
  0
LINE
  5
7DCF
  8
0
 10
535.520418
 20
374.360326
 30
0.0
 11
535.520418
 21
373.860326
 31
0.0
  0
ARC
  5
7DD0
  8
0
 10
536.15443
 20
371.214287
 30
0.0
 40
2.650174
 50
86.798887
 51
141.603057
  0
LINE
  5
7DD1
  8
0
 10
537.520418
 20
374.360326
 30
0.0
 11
535.520418
 21
374.360326
 31
0.0
  0
LINE
  5
7DD2
  8
0
 10
527.520818
 20
417.660326
 30
0.0
 11
515.520418
 21
417.660326
 31
0.0
  0
LINE
  5
7DD3
  8
0
 10
515.020418
 20
417.660326
 30
0.0
 11
528.020818
 21
417.660326
 31
0.0
  0
LINE
  5
7DD4
  8
0
 10
528.020818
 20
417.160326
 30
0.0
 11
515.020418
 21
417.160326
 31
0.0
  0
LINE
  5
7DD5
  8
0
 10
519.020418
 20
417.660326
 30
0.0
 11
524.020818
 21
417.660326
 31
0.0
  0
LINE
  5
7DD6
  8
0
 10
528.020818
 20
420.160326
 30
0.0
 11
515.020418
 21
420.160326
 31
0.0
  0
LINE
  5
7DD7
  8
0
 10
524.020818
 20
420.160326
 30
0.0
 11
519.020418
 21
420.160326
 31
0.0
  0
LINE
  5
7DD8
  8
0
 10
524.370818
 20
420.160326
 30
0.0
 11
518.670418
 21
420.160326
 31
0.0
  0
ARC
  5
7DD9
  8
0
 10
521.520618
 20
397.160582
 30
0.0
 40
4.451448
 50
231.842781
 51
308.157219
  0
LINE
  5
7DDA
  8
0
 10
528.020818
 20
398.160326
 30
0.0
 11
515.020418
 21
398.160326
 31
0.0
  0
LINE
  5
7DDB
  8
0
 10
515.020418
 20
398.160326
 30
0.0
 11
528.020818
 21
398.160326
 31
0.0
  0
ARC
  5
7DDC
  8
0
 10
521.520618
 20
393.87881
 30
0.0
 40
4.281583
 50
50.034026
 51
129.965974
  0
LINE
  5
7DDD
  8
0
 10
521.520418
 20
380.310326
 30
0.0
 11
519.270418
 21
380.310326
 31
0.0
  0
LINE
  5
7DDE
  8
0
 10
528.020818
 20
392.660326
 30
0.0
 11
515.020418
 21
392.660326
 31
0.0
  0
LINE
  5
7DDF
  8
0
 10
515.020418
 20
392.660326
 30
0.0
 11
528.020818
 21
392.660326
 31
0.0
  0
LINE
  5
7DE0
  8
0
 10
514.520418
 20
383.660326
 30
0.0
 11
528.520818
 21
383.660326
 31
0.0
  0
LINE
  5
7DE1
  8
0
 10
514.270418
 20
383.660326
 30
0.0
 11
528.770818
 21
383.660326
 31
0.0
  0
LINE
  5
7DE2
  8
0
 10
528.770818
 20
391.660326
 30
0.0
 11
514.270418
 21
391.660326
 31
0.0
  0
LINE
  5
7DE3
  8
0
 10
515.020418
 20
391.660326
 30
0.0
 11
528.020818
 21
391.660326
 31
0.0
  0
LINE
  5
7DE4
  8
0
 10
529.270818
 20
384.160326
 30
0.0
 11
513.770418
 21
384.160326
 31
0.0
  0
LINE
  5
7DE5
  8
0
 10
513.770418
 20
391.160326
 30
0.0
 11
529.270818
 21
391.160326
 31
0.0
  0
ARC
  5
7DE6
  8
0
 10
521.520318
 20
376.010486
 30
0.0
 40
5.999437
 50
74.557273
 51
105.442727
  0
LINE
  5
7DE7
  8
0
 10
521.520418
 20
380.310326
 30
0.0
 11
519.270418
 21
380.310326
 31
0.0
  0
LINE
  5
7DE8
  8
0
 10
537.520418
 20
377.710326
 30
0.0
 11
505.520418
 21
377.710326
 31
0.0
  0
LINE
  5
7DE9
  8
0
 10
507.770418
 20
379.710326
 30
0.0
 11
535.270418
 21
379.710326
 31
0.0
  0
LINE
  5
7DEA
  8
0
 10
535.270418
 20
380.310326
 30
0.0
 11
507.770418
 21
380.310326
 31
0.0
  0
LINE
  5
7DEB
  8
0
 10
507.520418
 20
379.710326
 30
0.0
 11
535.520418
 21
379.710326
 31
0.0
  0
LINE
  5
7DEC
  8
0
 10
529.270418
 20
380.310326
 30
0.0
 11
513.770418
 21
380.310326
 31
0.0
  0
LINE
  5
7DED
  8
0
 10
515.020418
 20
417.160326
 30
0.0
 11
515.020418
 21
398.160326
 31
0.0
  0
LINE
  5
7DEE
  8
0
 10
514.020418
 20
393.660326
 30
0.0
 11
515.020418
 21
392.660326
 31
0.0
  0
LINE
  5
7DEF
  8
0
 10
507.770418
 20
380.310326
 30
0.0
 11
507.770418
 21
379.710326
 31
0.0
  0
LINE
  5
7DF0
  8
0
 10
505.520418
 20
377.710326
 30
0.0
 11
507.520418
 21
379.710326
 31
0.0
  0
LINE
  5
7DF1
  8
0
 10
519.652818
 20
381.660326
 30
0.0
 11
513.770418
 21
381.660326
 31
0.0
  0
LINE
  5
7DF2
  8
0
 10
514.520418
 20
381.660326
 30
0.0
 11
514.520418
 21
383.660326
 31
0.0
  0
LINE
  5
7DF3
  8
0
 10
513.770418
 20
391.160326
 30
0.0
 11
513.770418
 21
384.160326
 31
0.0
  0
LINE
  5
7DF4
  8
5
 10
517.270418
 20
391.160326
 30
0.0
 11
517.270418
 21
384.160326
 31
0.0
  0
LINE
  5
7DF5
  8
5
 10
516.570418
 20
391.160326
 30
0.0
 11
516.570418
 21
384.160326
 31
0.0
  0
LINE
  5
7DF6
  8
5
 10
515.870418
 20
391.160326
 30
0.0
 11
515.870418
 21
384.160326
 31
0.0
  0
LINE
  5
7DF7
  8
5
 10
515.170418
 20
391.160326
 30
0.0
 11
515.170418
 21
384.160326
 31
0.0
  0
LINE
  5
7DF8
  8
5
 10
514.470418
 20
391.160326
 30
0.0
 11
514.470418
 21
384.160326
 31
0.0
  0
LINE
  5
7DF9
  8
0
 10
513.770418
 20
384.160326
 30
0.0
 11
514.270418
 21
383.660326
 31
0.0
  0
LINE
  5
7DFA
  8
0
 10
514.270418
 20
391.660326
 30
0.0
 11
513.770418
 21
391.160326
 31
0.0
  0
LINE
  5
7DFB
  8
0
 10
515.020418
 20
392.660326
 30
0.0
 11
515.020418
 21
391.660326
 31
0.0
  0
ARC
  5
7DFC
  8
0
 10
520.135521
 20
381.02236
 30
0.0
 40
0.79977
 50
105.423757
 51
174.981181
  0
LINE
  5
7DFD
  8
5
 10
520.070418
 20
391.160326
 30
0.0
 11
520.070418
 21
384.160326
 31
0.0
  0
LINE
  5
7DFE
  8
5
 10
519.370418
 20
391.160326
 30
0.0
 11
519.370418
 21
384.160326
 31
0.0
  0
LINE
  5
7DFF
  8
5
 10
518.670418
 20
391.160326
 30
0.0
 11
518.670418
 21
384.160326
 31
0.0
  0
LINE
  5
7E00
  8
5
 10
517.970418
 20
391.160326
 30
0.0
 11
517.970418
 21
384.160326
 31
0.0
  0
LINE
  5
7E01
  8
0
 10
519.270418
 20
380.310326
 30
0.0
 11
519.338818
 21
381.092326
 31
0.0
  0
LINE
  5
7E02
  8
0
 10
519.270418
 20
380.310326
 30
0.0
 11
519.339418
 21
381.092326
 31
0.0
  0
ARC
  5
7E03
  8
0
 10
520.136123
 20
381.022358
 30
0.0
 40
0.799772
 50
105.423862
 51
174.981077
  0
LINE
  5
7E04
  8
0
 10
513.770418
 20
380.310326
 30
0.0
 11
513.770418
 21
381.660326
 31
0.0
  0
LINE
  5
7E05
  8
0
 10
514.020418
 20
397.160326
 30
0.0
 11
514.020418
 21
393.660326
 31
0.0
  0
LINE
  5
7E06
  8
0
 10
518.770418
 20
393.660326
 30
0.0
 11
518.770418
 21
397.160326
 31
0.0
  0
LINE
  5
7E07
  8
0
 10
514.020418
 20
397.160326
 30
0.0
 11
514.020418
 21
393.660326
 31
0.0
  0
LINE
  5
7E08
  8
0
 10
518.770418
 20
393.660326
 30
0.0
 11
518.770418
 21
397.160326
 31
0.0
  0
LINE
  5
7E09
  8
0
 10
514.020418
 20
393.660326
 30
0.0
 11
518.770418
 21
393.660326
 31
0.0
  0
LINE
  5
7E0A
  8
0
 10
518.770418
 20
397.160326
 30
0.0
 11
514.020418
 21
397.160326
 31
0.0
  0
LINE
  5
7E0B
  8
0
 10
515.020418
 20
398.160326
 30
0.0
 11
514.020418
 21
397.160326
 31
0.0
  0
LINE
  5
7E0C
  8
0
 10
518.670418
 20
420.160326
 30
0.0
 11
518.670418
 21
427.429326
 31
0.0
  0
LINE
  5
7E0D
  8
0
 10
515.020418
 20
420.160326
 30
0.0
 11
515.020418
 21
417.660326
 31
0.0
  0
LINE
  5
7E0E
  8
0
 10
519.020418
 20
420.160326
 30
0.0
 11
519.020418
 21
417.660326
 31
0.0
  0
LINE
  5
7E0F
  8
0
 10
515.520418
 20
417.660326
 30
0.0
 11
515.020418
 21
417.160326
 31
0.0
  0
LINE
  5
7E10
  8
0
 10
528.020818
 20
398.160326
 30
0.0
 11
528.020818
 21
417.160326
 31
0.0
  0
LINE
  5
7E11
  8
0
 10
528.020818
 20
392.660326
 30
0.0
 11
529.020818
 21
393.660326
 31
0.0
  0
LINE
  5
7E12
  8
0
 10
528.520818
 20
383.660326
 30
0.0
 11
528.520818
 21
381.660326
 31
0.0
  0
LINE
  5
7E13
  8
0
 10
529.270418
 20
381.660326
 30
0.0
 11
523.387818
 21
381.660326
 31
0.0
  0
ARC
  5
7E14
  8
0
 10
522.905114
 20
381.02236
 30
0.0
 40
0.79977
 50
5.018819
 51
74.576243
  0
LINE
  5
7E15
  8
5
 10
525.720818
 20
391.160326
 30
0.0
 11
525.720818
 21
384.160326
 31
0.0
  0
LINE
  5
7E16
  8
5
 10
525.020818
 20
391.160326
 30
0.0
 11
525.020818
 21
384.160326
 31
0.0
  0
LINE
  5
7E17
  8
5
 10
524.320818
 20
391.160326
 30
0.0
 11
524.320818
 21
384.160326
 31
0.0
  0
LINE
  5
7E18
  8
5
 10
523.620818
 20
391.160326
 30
0.0
 11
523.620818
 21
384.160326
 31
0.0
  0
LINE
  5
7E19
  8
5
 10
522.920818
 20
391.160326
 30
0.0
 11
522.920818
 21
384.160326
 31
0.0
  0
LINE
  5
7E1A
  8
5
 10
522.220418
 20
391.160326
 30
0.0
 11
522.220418
 21
384.160326
 31
0.0
  0
LINE
  5
7E1B
  8
0
 10
529.270818
 20
384.160326
 30
0.0
 11
529.270818
 21
391.160326
 31
0.0
  0
LINE
  5
7E1C
  8
5
 10
528.520818
 20
391.160326
 30
0.0
 11
528.520818
 21
384.160326
 31
0.0
  0
LINE
  5
7E1D
  8
5
 10
527.820818
 20
391.160326
 30
0.0
 11
527.820818
 21
384.160326
 31
0.0
  0
LINE
  5
7E1E
  8
5
 10
527.120818
 20
391.160326
 30
0.0
 11
527.120818
 21
384.160326
 31
0.0
  0
LINE
  5
7E1F
  8
5
 10
526.420818
 20
391.160326
 30
0.0
 11
526.420818
 21
384.160326
 31
0.0
  0
LINE
  5
7E20
  8
0
 10
528.770818
 20
383.660326
 30
0.0
 11
529.270818
 21
384.160326
 31
0.0
  0
LINE
  5
7E21
  8
0
 10
529.270818
 20
391.160326
 30
0.0
 11
528.770818
 21
391.660326
 31
0.0
  0
LINE
  5
7E22
  8
0
 10
528.020818
 20
391.660326
 30
0.0
 11
528.020818
 21
392.660326
 31
0.0
  0
LINE
  5
7E23
  8
0
 10
523.701818
 20
381.092326
 30
0.0
 11
523.770818
 21
380.310326
 31
0.0
  0
LINE
  5
7E24
  8
5
 10
521.520418
 20
391.160326
 30
0.0
 11
521.520418
 21
384.160326
 31
0.0
  0
LINE
  5
7E25
  8
5
 10
520.770418
 20
391.160326
 30
0.0
 11
520.770418
 21
384.160326
 31
0.0
  0
LINE
  5
7E26
  8
0
 10
523.770818
 20
380.310326
 30
0.0
 11
521.520418
 21
380.310326
 31
0.0
  0
LINE
  5
7E27
  8
0
 10
529.270418
 20
380.310326
 30
0.0
 11
529.270418
 21
381.660326
 31
0.0
  0
LINE
  5
7E28
  8
0
 10
523.702418
 20
381.092326
 30
0.0
 11
523.770418
 21
380.310326
 31
0.0
  0
ARC
  5
7E29
  8
0
 10
522.905699
 20
381.022347
 30
0.0
 40
0.799787
 50
5.019653
 51
74.575408
  0
LINE
  5
7E2A
  8
0
 10
523.770418
 20
380.310326
 30
0.0
 11
521.520418
 21
380.310326
 31
0.0
  0
LINE
  5
7E2B
  8
0
 10
535.270418
 20
379.710326
 30
0.0
 11
535.270418
 21
380.310326
 31
0.0
  0
LINE
  5
7E2C
  8
0
 10
535.520418
 20
379.710326
 30
0.0
 11
537.520418
 21
377.710326
 31
0.0
  0
LINE
  5
7E2D
  8
0
 10
529.020818
 20
393.660326
 30
0.0
 11
529.020818
 21
397.160326
 31
0.0
  0
LINE
  5
7E2E
  8
0
 10
529.020818
 20
393.660326
 30
0.0
 11
529.020818
 21
397.160326
 31
0.0
  0
LINE
  5
7E2F
  8
0
 10
524.270818
 20
397.160326
 30
0.0
 11
524.270818
 21
393.660326
 31
0.0
  0
LINE
  5
7E30
  8
0
 10
524.270818
 20
397.160326
 30
0.0
 11
524.270818
 21
393.660326
 31
0.0
  0
LINE
  5
7E31
  8
0
 10
524.270818
 20
393.660326
 30
0.0
 11
529.020818
 21
393.660326
 31
0.0
  0
LINE
  5
7E32
  8
0
 10
529.020818
 20
397.160326
 30
0.0
 11
524.270818
 21
397.160326
 31
0.0
  0
LINE
  5
7E33
  8
0
 10
529.020818
 20
397.160326
 30
0.0
 11
528.020818
 21
398.160326
 31
0.0
  0
LINE
  5
7E34
  8
0
 10
559.364818
 20
437.429326
 30
0.0
 11
534.370818
 21
437.429326
 31
0.0
  0
LINE
  5
7E35
  8
0
 10
524.370818
 20
427.429326
 30
0.0
 11
524.370818
 21
420.160326
 31
0.0
  0
LINE
  5
7E36
  8
0
 10
528.020818
 20
417.660326
 30
0.0
 11
528.020818
 21
420.160326
 31
0.0
  0
LINE
  5
7E37
  8
0
 10
524.020818
 20
417.660326
 30
0.0
 11
524.020818
 21
420.160326
 31
0.0
  0
LINE
  5
7E38
  8
0
 10
528.020818
 20
417.160326
 30
0.0
 11
527.520818
 21
417.660326
 31
0.0
  0
ARC
  5
7E39
  8
0
 10
534.370818
 20
427.429326
 30
0.0
 40
10.0
 50
90.0
 51
180.0
  0
ARC
  5
7E3A
  8
0
 10
559.363634
 20
417.429326
 30
0.0
 40
20.0
 50
70.751908
 51
89.996608
  0
LINE
  5
7E4D
  8
0
 10
534.370818
 20
443.129326
 30
0.0
 11
560.625818
 21
443.129326
 31
0.0
  0
ARC
  5
7FEB
  8
0
 10
600.395265
 20
313.619202
 30
0.0
 40
2.997
 50
270.0
 51
90.0
  0
ARC
  5
7FEC
  8
0
 10
583.40612
 20
313.438999
 30
0.0
 40
2.997
 50
90.0
 51
270.0
  0
LINE
  5
7FED
  8
0
 10
600.395291
 20
310.618851
 30
0.0
 11
583.392291
 21
316.437851
 31
0.0
  0
LINE
  5
7FEE
  8
0
 10
583.394291
 20
316.437851
 30
0.0
 11
600.392291
 21
310.618851
 31
0.0
  0
ARC
  5
7FEF
  8
0
 10
600.297318
 20
181.66855
 30
0.0
 40
2.997
 50
270.0
 51
90.0
  0
ARC
  5
7FF0
  8
0
 10
583.319962
 20
181.491524
 30
0.0
 40
2.997
 50
90.0
 51
270.0
  0
LINE
  5
7FF1
  8
0
 10
600.309146
 20
178.672699
 30
0.0
 11
583.306146
 21
184.491699
 31
0.0
  0
LINE
  5
7FF2
  8
0
 10
645.676936
 20
113.311772
 30
0.0
 11
644.676936
 21
114.311772
 31
0.0
  0
LINE
  5
7FF3
  8
0
 10
631.676936
 20
114.311772
 30
0.0
 11
630.676936
 21
113.311772
 31
0.0
  0
ARC
  5
7FF4
  8
0
 10
638.176936
 20
110.030494
 30
0.0
 40
4.281271
 50
50.034026
 51
129.965974
  0
LINE
  5
7FF5
  8
0
 10
630.926936
 20
99.811772
 30
0.0
 11
645.426936
 21
99.811772
 31
0.0
  0
LINE
  5
7FF6
  8
0
 10
645.426936
 20
107.811772
 30
0.0
 11
630.926936
 21
107.811772
 31
0.0
  0
LINE
  5
7FF7
  8
0
 10
631.676936
 20
107.811772
 30
0.0
 11
644.676936
 21
107.811772
 31
0.0
  0
LINE
  5
7FF8
  8
0
 10
644.676936
 20
108.811772
 30
0.0
 11
631.676936
 21
108.811772
 31
0.0
  0
LINE
  5
7FF9
  8
0
 10
631.676936
 20
108.811772
 30
0.0
 11
644.676936
 21
108.811772
 31
0.0
  0
LINE
  5
7FFA
  8
0
 10
645.926936
 20
100.311772
 30
0.0
 11
630.426936
 21
100.311772
 31
0.0
  0
LINE
  5
7FFB
  8
0
 10
630.426936
 20
107.311772
 30
0.0
 11
645.926936
 21
107.311772
 31
0.0
  0
ARC
  5
7FFC
  8
0
 10
638.176936
 20
113.311773
 30
0.0
 40
4.451124
 50
231.842781
 51
308.157219
  0
LINE
  5
7FFD
  8
0
 10
635.426936
 20
113.311772
 30
0.0
 11
630.676936
 21
113.311772
 31
0.0
  0
LINE
  5
7FFE
  8
0
 10
630.676936
 20
109.811772
 30
0.0
 11
635.426936
 21
109.811772
 31
0.0
  0
LINE
  5
7FFF
  8
0
 10
630.426936
 20
107.311772
 30
0.0
 11
630.426936
 21
100.311772
 31
0.0
  0
LINE
  5
8000
  8
5
 10
631.826936
 20
107.311772
 30
0.0
 11
631.826936
 21
100.311772
 31
0.0
  0
LINE
  5
8001
  8
5
 10
631.126936
 20
107.311772
 30
0.0
 11
631.126936
 21
100.311772
 31
0.0
  0
LINE
  5
8002
  8
0
 10
630.426936
 20
100.311772
 30
0.0
 11
630.926936
 21
99.811772
 31
0.0
  0
LINE
  5
8003
  8
0
 10
630.926936
 20
107.811772
 30
0.0
 11
630.426936
 21
107.311772
 31
0.0
  0
LINE
  5
8004
  8
0
 10
631.676936
 20
108.811772
 30
0.0
 11
631.676936
 21
107.811772
 31
0.0
  0
LINE
  5
8005
  8
0
 10
630.676936
 20
109.811772
 30
0.0
 11
631.676936
 21
108.811772
 31
0.0
  0
LINE
  5
8006
  8
5
 10
636.026936
 20
107.311772
 30
0.0
 11
636.026936
 21
100.311772
 31
0.0
  0
LINE
  5
8007
  8
5
 10
635.326936
 20
107.311772
 30
0.0
 11
635.326936
 21
100.311772
 31
0.0
  0
LINE
  5
8008
  8
5
 10
634.626936
 20
107.311772
 30
0.0
 11
634.626936
 21
100.311772
 31
0.0
  0
LINE
  5
8009
  8
5
 10
633.926936
 20
107.311772
 30
0.0
 11
633.926936
 21
100.311772
 31
0.0
  0
LINE
  5
800A
  8
5
 10
633.226936
 20
107.311772
 30
0.0
 11
633.226936
 21
100.311772
 31
0.0
  0
LINE
  5
800B
  8
5
 10
632.526936
 20
107.311772
 30
0.0
 11
632.526936
 21
100.311772
 31
0.0
  0
LINE
  5
800C
  8
0
 10
630.676936
 20
113.311772
 30
0.0
 11
630.676936
 21
109.811772
 31
0.0
  0
LINE
  5
800D
  8
0
 10
630.676936
 20
113.311772
 30
0.0
 11
630.676936
 21
109.811772
 31
0.0
  0
LINE
  5
800E
  8
0
 10
635.426936
 20
109.811772
 30
0.0
 11
635.426936
 21
113.311772
 31
0.0
  0
LINE
  5
800F
  8
0
 10
635.426936
 20
109.811772
 30
0.0
 11
635.426936
 21
113.311772
 31
0.0
  0
LINE
  5
8010
  8
0
 10
645.676936
 20
113.311772
 30
0.0
 11
640.926936
 21
113.311772
 31
0.0
  0
LINE
  5
8011
  8
0
 10
645.926936
 20
100.311772
 30
0.0
 11
645.926936
 21
107.311772
 31
0.0
  0
LINE
  5
8012
  8
5
 10
645.176936
 20
107.311772
 30
0.0
 11
645.176936
 21
100.311772
 31
0.0
  0
LINE
  5
8013
  8
5
 10
644.476936
 20
107.311772
 30
0.0
 11
644.476936
 21
100.311772
 31
0.0
  0
LINE
  5
8014
  8
5
 10
643.776936
 20
107.311772
 30
0.0
 11
643.776936
 21
100.311772
 31
0.0
  0
LINE
  5
8015
  8
5
 10
643.076936
 20
107.311772
 30
0.0
 11
643.076936
 21
100.311772
 31
0.0
  0
LINE
  5
8016
  8
5
 10
642.376936
 20
107.311772
 30
0.0
 11
642.376936
 21
100.311772
 31
0.0
  0
LINE
  5
8017
  8
5
 10
641.676936
 20
107.311772
 30
0.0
 11
641.676936
 21
100.311772
 31
0.0
  0
LINE
  5
8018
  8
5
 10
640.976936
 20
107.311772
 30
0.0
 11
640.976936
 21
100.311772
 31
0.0
  0
LINE
  5
8019
  8
5
 10
640.276936
 20
107.311772
 30
0.0
 11
640.276936
 21
100.311772
 31
0.0
  0
LINE
  5
801A
  8
5
 10
639.576936
 20
107.311772
 30
0.0
 11
639.576936
 21
100.311772
 31
0.0
  0
LINE
  5
801B
  8
5
 10
638.876936
 20
107.311772
 30
0.0
 11
638.876936
 21
100.311772
 31
0.0
  0
LINE
  5
801C
  8
5
 10
638.176936
 20
107.311772
 30
0.0
 11
638.176936
 21
100.311772
 31
0.0
  0
LINE
  5
801D
  8
0
 10
645.426936
 20
99.811772
 30
0.0
 11
645.926936
 21
100.311772
 31
0.0
  0
LINE
  5
801E
  8
0
 10
644.676936
 20
108.811772
 30
0.0
 11
645.676936
 21
109.811772
 31
0.0
  0
LINE
  5
801F
  8
0
 10
640.926936
 20
109.811772
 30
0.0
 11
645.676936
 21
109.811772
 31
0.0
  0
LINE
  5
8020
  8
0
 10
644.676936
 20
107.811772
 30
0.0
 11
644.676936
 21
108.811772
 31
0.0
  0
LINE
  5
8021
  8
0
 10
645.926936
 20
107.311772
 30
0.0
 11
645.426936
 21
107.811772
 31
0.0
  0
LINE
  5
8022
  8
5
 10
637.426936
 20
107.311772
 30
0.0
 11
637.426936
 21
100.311772
 31
0.0
  0
LINE
  5
8023
  8
5
 10
636.726936
 20
107.311772
 30
0.0
 11
636.726936
 21
100.311772
 31
0.0
  0
LINE
  5
8024
  8
0
 10
645.676936
 20
109.811772
 30
0.0
 11
645.676936
 21
113.311772
 31
0.0
  0
LINE
  5
8025
  8
0
 10
645.676936
 20
109.811772
 30
0.0
 11
645.676936
 21
113.311772
 31
0.0
  0
LINE
  5
8026
  8
0
 10
640.926936
 20
113.311772
 30
0.0
 11
640.926936
 21
109.811772
 31
0.0
  0
LINE
  5
8027
  8
0
 10
640.926936
 20
113.311772
 30
0.0
 11
640.926936
 21
109.811772
 31
0.0
  0
LINE
  5
8028
  8
0
 10
633.791802
 20
149.213818
 30
0.0
 11
611.496936
 21
156.844472
 31
0.0
  0
LINE
  5
8029
  8
0
 10
583.327336
 20
160.4865
 30
0.0
 11
631.945936
 21
143.843772
 31
0.0
  0
LINE
  5
802A
  8
0
 10
600.320936
 20
172.669524
 30
0.0
 11
583.317936
 21
178.488524
 31
0.0
  0
LINE
  5
802B
  8
0
 10
600.334765
 20
166.66462
 30
0.0
 11
583.331765
 21
172.48362
 31
0.0
  0
LINE
  5
802C
  8
0
 10
611.496936
 20
156.844472
 30
0.0
 11
583.331575
 21
166.486477
 31
0.0
  0
ARC
  5
802D
  8
0
 10
583.345554
 20
163.483444
 30
0.0
 40
2.997
 50
90.0
 51
270.0
  0
ARC
  5
802E
  8
0
 10
583.319936
 20
175.491524
 30
0.0
 40
2.997
 50
90.0
 51
270.0
  0
ARC
  5
802F
  8
0
 10
583.34558
 20
169.483444
 30
0.0
 40
2.997
 50
90.0
 51
270.0
  0
ARC
  5
8030
  8
0
 10
600.334752
 20
163.663295
 30
0.0
 40
2.997
 50
270.0
 51
90.0
  0
ARC
  5
8031
  8
0
 10
600.309133
 20
175.671375
 30
0.0
 40
2.997
 50
270.0
 51
90.0
  0
ARC
  5
8032
  8
0
 10
600.322936
 20
169.660471
 30
0.0
 40
2.997
 50
270.0
 51
90.0
  0
ARC
  5
8033
  8
0
 10
630.326936
 20
139.090345
 30
0.0
 40
10.7
 50
0.0
 51
71.105946
  0
LINE
  5
8034
  8
0
 10
644.176936
 20
133.811772
 30
0.0
 11
632.176936
 21
133.811772
 31
0.0
  0
LINE
  5
8035
  8
0
 10
631.676936
 20
133.811772
 30
0.0
 11
644.676936
 21
133.811772
 31
0.0
  0
LINE
  5
8036
  8
0
 10
644.676936
 20
136.311772
 30
0.0
 11
631.676936
 21
136.311772
 31
0.0
  0
LINE
  5
8037
  8
0
 10
644.676936
 20
133.311772
 30
0.0
 11
631.676936
 21
133.311772
 31
0.0
  0
LINE
  5
8038
  8
0
 10
635.326936
 20
136.311772
 30
0.0
 11
641.026936
 21
136.311772
 31
0.0
  0
LINE
  5
8039
  8
0
 10
635.676936
 20
133.811772
 30
0.0
 11
640.676936
 21
133.811772
 31
0.0
  0
LINE
  5
803A
  8
0
 10
640.676936
 20
136.311772
 30
0.0
 11
635.676936
 21
136.311772
 31
0.0
  0
LINE
  5
803B
  8
0
 10
644.676936
 20
114.311772
 30
0.0
 11
631.676936
 21
114.311772
 31
0.0
  0
LINE
  5
803C
  8
0
 10
631.676936
 20
114.311772
 30
0.0
 11
644.676936
 21
114.311772
 31
0.0
  0
LINE
  5
803D
  8
0
 10
631.676936
 20
133.311772
 30
0.0
 11
631.676936
 21
114.311772
 31
0.0
  0
ARC
  5
803E
  8
0
 10
630.326936
 20
139.113144
 30
0.0
 40
5.0
 50
0.000318
 51
71.107111
  0
LINE
  5
803F
  8
0
 10
631.676936
 20
136.311772
 30
0.0
 11
631.676936
 21
133.811772
 31
0.0
  0
LINE
  5
8040
  8
0
 10
632.176936
 20
133.811772
 30
0.0
 11
631.676936
 21
133.311772
 31
0.0
  0
LINE
  5
8041
  8
0
 10
635.676936
 20
136.311772
 30
0.0
 11
635.676936
 21
133.811772
 31
0.0
  0
LINE
  5
8042
  8
0
 10
635.326936
 20
139.113172
 30
0.0
 11
635.326936
 21
136.311772
 31
0.0
  0
LINE
  5
8043
  8
0
 10
644.676936
 20
114.311772
 30
0.0
 11
644.676936
 21
133.311772
 31
0.0
  0
LINE
  5
8044
  8
0
 10
644.676936
 20
133.811772
 30
0.0
 11
644.676936
 21
136.311772
 31
0.0
  0
LINE
  5
8045
  8
0
 10
640.676936
 20
133.811772
 30
0.0
 11
640.676936
 21
136.311772
 31
0.0
  0
LINE
  5
8046
  8
0
 10
644.676936
 20
133.311772
 30
0.0
 11
644.176936
 21
133.811772
 31
0.0
  0
LINE
  5
8047
  8
0
 10
641.026936
 20
136.311772
 30
0.0
 11
641.026936
 21
139.090345
 31
0.0
  0
ARC
  5
8048
  8
0
 10
600.296292
 20
247.669814
 30
0.0
 40
2.997
 50
269.773812
 51
90.0
  0
ARC
  5
8049
  8
0
 10
583.30812
 20
247.489963
 30
0.0
 40
2.997
 50
90.0
 51
270.0
  0
LINE
  5
804A
  8
0
 10
600.297318
 20
244.669463
 30
0.0
 11
583.294318
 21
250.488463
 31
0.0
  0
LINE
  5
804B
  8
0
 10
583.296318
 20
250.488463
 30
0.0
 11
600.302067
 21
244.66681
 31
0.0
  0
ARC
  5
804C
  8
0
 10
600.309107
 20
211.671936
 30
0.0
 40
2.997
 50
270.0
 51
90.0
  0
ARC
  5
804D
  8
0
 10
583.30712
 20
211.489401
 30
0.0
 40
2.997
 50
90.0
 51
270.0
  0
LINE
  5
804E
  8
0
 10
600.321936
 20
208.669572
 30
0.0
 11
583.318936
 21
214.488572
 31
0.0
  0
LINE
  5
804F
  8
0
 10
600.297318
 20
190.668901
 30
0.0
 11
583.294318
 21
196.487901
 31
0.0
  0
LINE
  5
8050
  8
0
 10
583.296318
 20
190.487901
 30
0.0
 11
600.294318
 21
184.668901
 31
0.0
  0
LINE
  5
8051
  8
0
 10
600.297318
 20
196.668901
 30
0.0
 11
583.294318
 21
202.487901
 31
0.0
  0
LINE
  5
8052
  8
0
 10
600.321936
 20
202.669572
 30
0.0
 11
583.318936
 21
208.488572
 31
0.0
  0
LINE
  5
8053
  8
0
 10
583.320936
 20
208.488572
 30
0.0
 11
600.318936
 21
202.669572
 31
0.0
  0
ARC
  5
8054
  8
0
 10
583.30812
 20
193.48905
 30
0.0
 40
2.997
 50
90.0
 51
270.0
  0
ARC
  5
8055
  8
0
 10
583.308146
 20
187.488699
 30
0.0
 40
2.997
 50
90.0
 51
270.0
  0
ARC
  5
8056
  8
0
 10
583.308146
 20
199.48905
 30
0.0
 40
2.997
 50
90.0
 51
270.0
  0
ARC
  5
8057
  8
0
 10
583.30812
 20
205.489401
 30
0.0
 40
2.997
 50
90.0
 51
270.0
  0
ARC
  5
8058
  8
0
 10
600.297318
 20
193.668901
 30
0.0
 40
2.997
 50
270.0
 51
90.0
  0
ARC
  5
8059
  8
0
 10
600.297292
 20
187.668901
 30
0.0
 40
2.997
 50
270.0
 51
90.0
  0
ARC
  5
805A
  8
0
 10
600.297292
 20
199.669252
 30
0.0
 40
2.997
 50
270.0
 51
90.0
  0
ARC
  5
805B
  8
0
 10
600.296292
 20
205.669252
 30
0.0
 40
2.997
 50
269.773812
 51
90.0
  0
LINE
  5
805C
  8
0
 10
583.296318
 20
238.488463
 30
0.0
 11
600.294318
 21
232.669463
 31
0.0
  0
LINE
  5
805D
  8
0
 10
600.297318
 20
232.669463
 30
0.0
 11
583.294318
 21
238.488463
 31
0.0
  0
LINE
  5
805E
  8
0
 10
583.296318
 20
232.488463
 30
0.0
 11
600.294318
 21
226.669463
 31
0.0
  0
LINE
  5
805F
  8
0
 10
583.296318
 20
244.488463
 30
0.0
 11
600.294318
 21
238.669463
 31
0.0
  0
LINE
  5
8060
  8
0
 10
600.297318
 20
238.669463
 30
0.0
 11
583.294318
 21
244.488463
 31
0.0
  0
LINE
  5
8061
  8
0
 10
600.309146
 20
220.673261
 30
0.0
 11
583.306146
 21
226.492261
 31
0.0
  0
LINE
  5
8062
  8
0
 10
600.320936
 20
214.670085
 30
0.0
 11
583.317936
 21
220.489085
 31
0.0
  0
ARC
  5
8063
  8
0
 10
583.308146
 20
229.489261
 30
0.0
 40
2.997
 50
90.0
 51
270.0
  0
ARC
  5
8064
  8
0
 10
583.319962
 20
223.492085
 30
0.0
 40
2.997
 50
90.0
 51
270.0
  0
ARC
  5
8065
  8
0
 10
583.319936
 20
217.492085
 30
0.0
 40
2.997
 50
90.0
 51
270.0
  0
ARC
  5
8066
  8
0
 10
583.308146
 20
241.489612
 30
0.0
 40
2.997
 50
90.0
 51
270.0
  0
ARC
  5
8067
  8
0
 10
583.30812
 20
235.489612
 30
0.0
 40
2.997
 50
90.0
 51
270.0
  0
ARC
  5
8068
  8
0
 10
600.297292
 20
229.669463
 30
0.0
 40
2.997
 50
270.0
 51
90.0
  0
ARC
  5
8069
  8
0
 10
600.297318
 20
223.669112
 30
0.0
 40
2.997
 50
270.0
 51
90.0
  0
ARC
  5
806A
  8
0
 10
600.309133
 20
217.671936
 30
0.0
 40
2.997
 50
270.0
 51
90.0
  0
ARC
  5
806B
  8
0
 10
600.297292
 20
241.669814
 30
0.0
 40
2.997
 50
270.0
 51
90.0
  0
ARC
  5
806C
  8
0
 10
600.297318
 20
235.669463
 30
0.0
 40
2.997
 50
270.0
 51
90.0
  0
ARC
  5
806D
  8
0
 10
600.418384
 20
277.619473
 30
0.0
 40
2.997
 50
270.0
 51
90.0
  0
LINE
  5
806E
  8
0
 10
583.417409
 20
280.438473
 30
0.0
 11
600.415409
 21
274.619473
 31
0.0
  0
ARC
  5
806F
  8
0
 10
583.429238
 20
277.439271
 30
0.0
 40
2.997
 50
90.0
 51
270.0
  0
LINE
  5
8070
  8
0
 10
583.319936
 20
256.480378
 30
0.0
 11
600.317936
 21
250.661378
 31
0.0
  0
LINE
  5
8071
  8
0
 10
600.430238
 20
268.623271
 30
0.0
 11
583.427238
 21
274.442271
 31
0.0
  0
LINE
  5
8072
  8
0
 10
600.442028
 20
262.620095
 30
0.0
 11
583.439028
 21
268.439095
 31
0.0
  0
LINE
  5
8073
  8
0
 10
583.441028
 20
262.439095
 30
0.0
 11
600.439028
 21
256.620095
 31
0.0
  0
ARC
  5
8074
  8
0
 10
583.319936
 20
259.483378
 30
0.0
 40
2.997
 50
90.0
 51
270.0
  0
ARC
  5
8075
  8
0
 10
583.30712
 20
253.489963
 30
0.0
 40
2.997
 50
90.0
 51
270.0
  0
ARC
  5
8076
  8
0
 10
583.441028
 20
265.442095
 30
0.0
 40
2.997
 50
90.0
 51
270.0
  0
ARC
  5
8077
  8
0
 10
583.441054
 20
271.442095
 30
0.0
 40
2.997
 50
90.0
 51
270.0
  0
ARC
  5
8078
  8
0
 10
600.430199
 20
259.621946
 30
0.0
 40
2.997
 50
270.0
 51
90.0
  0
ARC
  5
8079
  8
0
 10
600.309107
 20
253.663229
 30
0.0
 40
2.997
 50
270.0
 51
90.0
  0
ARC
  5
807A
  8
0
 10
600.430225
 20
265.621946
 30
0.0
 40
2.997
 50
270.0
 51
90.0
  0
ARC
  5
807B
  8
0
 10
600.418409
 20
271.619122
 30
0.0
 40
2.997
 50
270.0
 51
90.0
  0
LINE
  5
807C
  8
0
 10
583.417909
 20
286.438473
 30
0.0
 11
600.415909
 21
280.619473
 31
0.0
  0
LINE
  5
807D
  8
0
 10
600.418909
 20
286.619473
 30
0.0
 11
583.415909
 21
292.438473
 31
0.0
  0
LINE
  5
807E
  8
0
 10
600.40712
 20
292.622648
 30
0.0
 11
583.40412
 21
298.441648
 31
0.0
  0
LINE
  5
807F
  8
0
 10
583.394291
 20
304.437851
 30
0.0
 11
600.392291
 21
298.618851
 31
0.0
  0
LINE
  5
8080
  8
0
 10
600.395291
 20
304.618851
 30
0.0
 11
583.392291
 21
310.437851
 31
0.0
  0
LINE
  5
8081
  8
0
 10
583.394291
 20
310.437851
 30
0.0
 11
600.392291
 21
304.618851
 31
0.0
  0
ARC
  5
8082
  8
0
 10
583.417935
 20
295.441473
 30
0.0
 40
2.997
 50
90.0
 51
270.0
  0
ARC
  5
8083
  8
0
 10
583.429212
 20
283.439622
 30
0.0
 40
2.997
 50
90.0
 51
270.0
  0
ARC
  5
8084
  8
0
 10
583.417909
 20
289.441473
 30
0.0
 40
2.997
 50
90.0
 51
270.0
  0
ARC
  5
8085
  8
0
 10
583.406094
 20
307.438999
 30
0.0
 40
2.997
 50
90.0
 51
270.0
  0
ARC
  5
8086
  8
0
 10
583.40612
 20
301.438648
 30
0.0
 40
2.997
 50
90.0
 51
270.0
  0
ARC
  5
8087
  8
0
 10
600.395291
 20
295.618499
 30
0.0
 40
2.997
 50
270.0
 51
90.0
  0
ARC
  5
8088
  8
0
 10
600.407107
 20
289.621324
 30
0.0
 40
2.997
 50
270.0
 51
90.0
  0
ARC
  5
8089
  8
0
 10
600.407081
 20
283.621324
 30
0.0
 40
2.997
 50
270.0
 51
90.0
  0
ARC
  5
808A
  8
0
 10
600.395291
 20
307.618851
 30
0.0
 40
2.997
 50
270.0
 51
90.0
  0
ARC
  5
808B
  8
0
 10
600.395265
 20
301.618851
 30
0.0
 40
2.997
 50
270.0
 51
90.0
  0
ARC
  5
808C
  8
0
 10
600.346029
 20
379.498361
 30
0.0
 40
2.997
 50
269.773812
 51
90.0
  0
ARC
  5
808D
  8
0
 10
583.357857
 20
379.31851
 30
0.0
 40
2.997
 50
90.0
 51
270.0
  0
LINE
  5
808E
  8
0
 10
600.347054
 20
376.49801
 30
0.0
 11
583.344054
 21
382.31701
 31
0.0
  0
LINE
  5
808F
  8
0
 10
583.346054
 20
382.31701
 30
0.0
 11
600.351803
 21
376.495357
 31
0.0
  0
ARC
  5
8090
  8
0
 10
583.381501
 20
343.31843
 30
0.0
 40
2.997
 50
90.0
 51
270.0
  0
ARC
  5
8091
  8
0
 10
600.358844
 20
343.500483
 30
0.0
 40
2.997
 50
270.0
 51
90.0
  0
LINE
  5
8092
  8
0
 10
583.369673
 20
346.317632
 30
0.0
 11
600.367673
 21
340.498632
 31
0.0
  0
LINE
  5
8093
  8
0
 10
600.382501
 20
334.50243
 30
0.0
 11
583.379501
 21
340.32143
 31
0.0
  0
LINE
  5
8094
  8
0
 10
600.394291
 20
328.499255
 30
0.0
 11
583.391291
 21
334.318255
 31
0.0
  0
LINE
  5
8095
  8
0
 10
583.393291
 20
328.318255
 30
0.0
 11
600.391291
 21
322.499255
 31
0.0
  0
LINE
  5
8096
  8
0
 10
583.394291
 20
322.437851
 30
0.0
 11
600.40004
 21
316.616198
 31
0.0
  0
LINE
  5
8097
  8
0
 10
600.395291
 20
316.618851
 30
0.0
 11
583.392291
 21
322.437851
 31
0.0
  0
ARC
  5
8098
  8
0
 10
583.405094
 20
325.439351
 30
0.0
 40
2.997
 50
90.0
 51
270.0
  0
ARC
  5
8099
  8
0
 10
583.406094
 20
319.439351
 30
0.0
 40
2.997
 50
90.0
 51
270.0
  0
ARC
  5
809A
  8
0
 10
583.393317
 20
337.321255
 30
0.0
 40
2.997
 50
90.0
 51
270.0
  0
ARC
  5
809B
  8
0
 10
583.393291
 20
331.321255
 30
0.0
 40
2.997
 50
90.0
 51
270.0
  0
ARC
  5
809C
  8
0
 10
600.382462
 20
325.501106
 30
0.0
 40
2.997
 50
270.0
 51
90.0
  0
ARC
  5
809D
  8
0
 10
600.394265
 20
319.619202
 30
0.0
 40
2.997
 50
269.773812
 51
90.0
  0
ARC
  5
809E
  8
0
 10
600.370673
 20
337.498281
 30
0.0
 40
2.997
 50
270.0
 51
90.0
  0
ARC
  5
809F
  8
0
 10
600.382488
 20
331.501106
 30
0.0
 40
2.997
 50
270.0
 51
90.0
  0
LINE
  5
80A0
  8
0
 10
583.346054
 20
370.31701
 30
0.0
 11
600.344054
 21
364.49801
 31
0.0
  0
LINE
  5
80A1
  8
0
 10
600.347054
 20
364.49801
 30
0.0
 11
583.344054
 21
370.31701
 31
0.0
  0
LINE
  5
80A2
  8
0
 10
583.346054
 20
364.31701
 30
0.0
 11
600.344054
 21
358.49801
 31
0.0
  0
LINE
  5
80A3
  8
0
 10
583.346054
 20
376.31701
 30
0.0
 11
600.344054
 21
370.49801
 31
0.0
  0
LINE
  5
80A4
  8
0
 10
600.347054
 20
370.49801
 30
0.0
 11
583.344054
 21
376.31701
 31
0.0
  0
LINE
  5
80A5
  8
0
 10
600.358883
 20
352.501808
 30
0.0
 11
583.355883
 21
358.320808
 31
0.0
  0
LINE
  5
80A6
  8
0
 10
600.370673
 20
346.498632
 30
0.0
 11
583.367673
 21
352.317632
 31
0.0
  0
ARC
  5
80A7
  8
0
 10
583.357883
 20
361.317808
 30
0.0
 40
2.997
 50
90.0
 51
270.0
  0
ARC
  5
80A8
  8
0
 10
583.369699
 20
355.320632
 30
0.0
 40
2.997
 50
90.0
 51
270.0
  0
ARC
  5
80A9
  8
0
 10
583.369673
 20
349.320632
 30
0.0
 40
2.997
 50
90.0
 51
270.0
  0
ARC
  5
80AA
  8
0
 10
583.357883
 20
373.318159
 30
0.0
 40
2.997
 50
90.0
 51
270.0
  0
ARC
  5
80AB
  8
0
 10
583.357857
 20
367.318159
 30
0.0
 40
2.997
 50
90.0
 51
270.0
  0
ARC
  5
80AC
  8
0
 10
600.347029
 20
361.49801
 30
0.0
 40
2.997
 50
270.0
 51
90.0
  0
ARC
  5
80AD
  8
0
 10
600.347054
 20
355.497659
 30
0.0
 40
2.997
 50
270.0
 51
90.0
  0
ARC
  5
80AE
  8
0
 10
600.35887
 20
349.500483
 30
0.0
 40
2.997
 50
270.0
 51
90.0
  0
ARC
  5
80AF
  8
0
 10
600.347029
 20
373.498361
 30
0.0
 40
2.997
 50
270.0
 51
90.0
  0
ARC
  5
80B0
  8
0
 10
600.347054
 20
367.49801
 30
0.0
 40
2.997
 50
270.0
 51
90.0
  0
ARC
  5
80B1
  8
0
 10
583.30862
 20
409.320475
 30
0.0
 40
2.997
 50
90.0
 51
270.0
  0
ARC
  5
80B2
  8
0
 10
600.297818
 20
409.500326
 30
0.0
 40
2.997
 50
270.0
 51
90.0
  0
LINE
  5
80B3
  8
0
 10
600.297818
 20
406.500326
 30
0.0
 11
583.294818
 21
412.319326
 31
0.0
  0
LINE
  5
80B4
  8
0
 10
583.296818
 20
412.319326
 30
0.0
 11
600.294818
 21
406.500326
 31
0.0
  0
LINE
  5
80B5
  8
0
 10
600.309646
 20
394.504124
 30
0.0
 11
583.306646
 21
400.323124
 31
0.0
  0
LINE
  5
80B6
  8
0
 10
583.296818
 20
406.319326
 30
0.0
 11
600.294818
 21
400.500326
 31
0.0
  0
LINE
  5
80B7
  8
0
 10
583.320436
 20
388.319949
 30
0.0
 11
600.318436
 21
382.500949
 31
0.0
  0
LINE
  5
80B8
  8
0
 10
600.321436
 20
388.500949
 30
0.0
 11
583.318436
 21
394.319949
 31
0.0
  0
ARC
  5
80B9
  8
0
 10
583.320436
 20
391.322949
 30
0.0
 40
2.997
 50
90.0
 51
270.0
  0
ARC
  5
80BA
  8
0
 10
583.356857
 20
385.31851
 30
0.0
 40
2.997
 50
90.0
 51
270.0
  0
ARC
  5
80BB
  8
0
 10
583.320462
 20
397.322949
 30
0.0
 40
2.997
 50
90.0
 51
270.0
  0
ARC
  5
80BC
  8
0
 10
583.308646
 20
403.320124
 30
0.0
 40
2.997
 50
90.0
 51
270.0
  0
ARC
  5
80BD
  8
0
 10
600.309633
 20
391.5028
 30
0.0
 40
2.997
 50
270.0
 51
90.0
  0
ARC
  5
80BE
  8
0
 10
600.309607
 20
385.5028
 30
0.0
 40
2.997
 50
270.0
 51
90.0
  0
ARC
  5
80BF
  8
0
 10
600.297792
 20
403.500326
 30
0.0
 40
2.997
 50
270.0
 51
90.0
  0
ARC
  5
80C0
  8
0
 10
600.297818
 20
397.499975
 30
0.0
 40
2.997
 50
270.0
 51
90.0
  0
LINE
  5
80C1
  8
0
 10
569.178818
 20
441.663326
 30
0.0
 11
601.293984
 21
430.330149
 31
0.0
  0
LINE
  5
80C2
  8
0
 10
600.297818
 20
412.500326
 30
0.0
 11
583.294818
 21
418.319326
 31
0.0
  0
LINE
  5
80C3
  8
0
 10
583.296818
 20
418.319326
 30
0.0
 11
600.294818
 21
412.500326
 31
0.0
  0
LINE
  5
80C4
  8
0
 10
600.297818
 20
418.500326
 30
0.0
 11
583.294818
 21
424.319326
 31
0.0
  0
ARC
  5
80C5
  8
0
 10
583.30762
 20
427.320826
 30
0.0
 40
2.997
 50
90.0
 51
270.0
  0
ARC
  5
80C6
  8
0
 10
583.30862
 20
421.320826
 30
0.0
 40
2.997
 50
90.0
 51
270.0
  0
ARC
  5
80C7
  8
0
 10
583.308646
 20
415.320475
 30
0.0
 40
2.997
 50
90.0
 51
270.0
  0
ARC
  5
80C8
  8
0
 10
600.294901
 20
427.500738
 30
0.0
 40
3.000622
 50
250.551553
 51
70.573413
  0
ARC
  5
80C9
  8
0
 10
600.297792
 20
415.500677
 30
0.0
 40
2.997
 50
270.0
 51
90.0
  0
ARC
  5
80CA
  8
0
 10
600.296792
 20
421.500677
 30
0.0
 40
2.997
 50
269.773812
 51
90.0
  0
LINE
  5
89DB
  8
5
 10
337.562241
 20
375.0105
 30
0.0
 11
337.562241
 21
388.0105
 31
0.0
  0
LINE
  5
89DC
  8
5
 10
275.062241
 20
388.0105
 30
0.0
 11
275.062241
 21
375.0105
 31
0.0
  0
LINE
  5
89DD
  8
5
 10
313.312241
 20
376.2935
 30
0.0
 11
313.312241
 21
381.2035
 31
0.0
  0
LINE
  5
89DE
  8
5
 10
310.362241
 20
381.2035
 30
0.0
 11
310.362241
 21
376.2935
 31
0.0
  0
LINE
  5
89DF
  8
5
 10
284.112241
 20
376.2935
 30
0.0
 11
284.112241
 21
381.2035
 31
0.0
  0
LINE
  5
89E0
  8
5
 10
281.162241
 20
381.2035
 30
0.0
 11
281.162241
 21
376.2935
 31
0.0
  0
LINE
  5
89E1
  8
5
 10
316.962241
 20
376.2935
 30
0.0
 11
316.962241
 21
381.2035
 31
0.0
  0
LINE
  5
89E2
  8
5
 10
314.012241
 20
381.2035
 30
0.0
 11
314.012241
 21
376.2935
 31
0.0
  0
LINE
  5
89E3
  8
5
 10
287.762241
 20
376.2935
 30
0.0
 11
287.762241
 21
381.2035
 31
0.0
  0
LINE
  5
89E4
  8
5
 10
284.812241
 20
381.2035
 30
0.0
 11
284.812241
 21
376.2935
 31
0.0
  0
LINE
  5
89E5
  8
5
 10
320.612241
 20
376.2935
 30
0.0
 11
320.612241
 21
381.2035
 31
0.0
  0
LINE
  5
89E6
  8
5
 10
317.662241
 20
381.2035
 30
0.0
 11
317.662241
 21
376.2935
 31
0.0
  0
LINE
  5
89E7
  8
5
 10
291.412241
 20
376.2935
 30
0.0
 11
291.412241
 21
381.2035
 31
0.0
  0
LINE
  5
89E8
  8
5
 10
288.462241
 20
381.2035
 30
0.0
 11
288.462241
 21
376.2935
 31
0.0
  0
LINE
  5
89E9
  8
5
 10
324.262241
 20
376.2935
 30
0.0
 11
324.262241
 21
381.2035
 31
0.0
  0
LINE
  5
89EA
  8
5
 10
321.312241
 20
381.2035
 30
0.0
 11
321.312241
 21
376.2935
 31
0.0
  0
LINE
  5
89EB
  8
5
 10
295.062241
 20
376.2935
 30
0.0
 11
295.062241
 21
381.2035
 31
0.0
  0
LINE
  5
89EC
  8
5
 10
292.112241
 20
381.2035
 30
0.0
 11
292.112241
 21
376.2935
 31
0.0
  0
LINE
  5
89ED
  8
5
 10
327.912241
 20
376.2935
 30
0.0
 11
327.912241
 21
381.2035
 31
0.0
  0
LINE
  5
89EE
  8
5
 10
324.962241
 20
381.2035
 30
0.0
 11
324.962241
 21
376.2935
 31
0.0
  0
LINE
  5
89EF
  8
5
 10
298.712241
 20
376.2935
 30
0.0
 11
298.712241
 21
381.2035
 31
0.0
  0
LINE
  5
89F0
  8
5
 10
295.762241
 20
381.2035
 30
0.0
 11
295.762241
 21
376.2935
 31
0.0
  0
LINE
  5
89F1
  8
5
 10
331.562241
 20
376.2935
 30
0.0
 11
331.562241
 21
381.2035
 31
0.0
  0
LINE
  5
89F2
  8
5
 10
328.612241
 20
381.2035
 30
0.0
 11
328.612241
 21
376.2935
 31
0.0
  0
LINE
  5
89F3
  8
5
 10
302.362241
 20
376.2935
 30
0.0
 11
302.362241
 21
381.2035
 31
0.0
  0
LINE
  5
89F4
  8
5
 10
299.412241
 20
381.2035
 30
0.0
 11
299.412241
 21
376.2935
 31
0.0
  0
LINE
  5
89F5
  8
5
 10
335.212241
 20
376.2935
 30
0.0
 11
335.212241
 21
381.2035
 31
0.0
  0
LINE
  5
89F6
  8
5
 10
332.262241
 20
381.2035
 30
0.0
 11
332.262241
 21
376.2935
 31
0.0
  0
LINE
  5
89F7
  8
5
 10
306.012241
 20
376.2935
 30
0.0
 11
306.012241
 21
381.2035
 31
0.0
  0
LINE
  5
89F8
  8
5
 10
303.062241
 20
381.2035
 30
0.0
 11
303.062241
 21
376.2935
 31
0.0
  0
LINE
  5
89F9
  8
5
 10
309.662241
 20
376.2935
 30
0.0
 11
309.662241
 21
381.2035
 31
0.0
  0
LINE
  5
89FA
  8
5
 10
306.712241
 20
381.2035
 30
0.0
 11
306.712241
 21
376.2935
 31
0.0
  0
LINE
  5
89FB
  8
5
 10
280.462241
 20
376.2935
 30
0.0
 11
280.462241
 21
381.2035
 31
0.0
  0
LINE
  5
89FC
  8
5
 10
277.512241
 20
381.2035
 30
0.0
 11
277.512241
 21
376.2935
 31
0.0
  0
LINE
  5
89FD
  8
0
 10
352.311241
 20
200.343527
 30
0.0
 11
352.311241
 21
401.681073
 31
0.0
  0
LINE
  5
89FE
  8
0
 10
260.313241
 20
401.681073
 30
0.0
 11
260.313241
 21
200.343527
 31
0.0
  0
LINE
  5
89FF
  8
0
 10
265.313241
 20
368.0105
 30
0.0
 11
265.313241
 21
402.3095
 31
0.0
  0
LINE
  5
8A00
  8
0
 10
347.311241
 20
368.0105
 30
0.0
 11
347.311241
 21
402.3095
 31
0.0
  0
LINE
  5
8A03
  8
0
 10
343.062241
 20
371.5105
 30
0.0
 11
343.062241
 21
397.5105
 31
0.0
  0
LINE
  5
8A04
  8
0
 10
269.562241
 20
397.5105
 30
0.0
 11
269.562241
 21
371.5105
 31
0.0
  0
CIRCLE
  5
8A09
  8
0
 10
297.312241
 20
285.5025
 30
0.0
 40
1.49997
  0
LINE
  5
8A0A
  8
0
 10
332.812241
 20
274.1905
 30
0.0
 11
332.812241
 21
296.8325
 31
0.0
  0
LINE
  5
8A0D
  8
0
 10
279.812241
 20
296.8325
 30
0.0
 11
279.812241
 21
274.1905
 31
0.0
  0
LINE
  5
8A15
  8
0
 10
340.312241
 20
214.5108
 30
0.0
 11
340.312241
 21
345.0255
 31
0.0
  0
LINE
  5
8A16
  8
0
 10
272.312241
 20
345.0255
 30
0.0
 11
272.312241
 21
214.5108
 31
0.0
  0
LINE
  5
8A19
  8
0
 10
268.813241
 20
343.5115
 30
0.0
 11
268.813241
 21
207.5147
 31
0.0
  0
LINE
  5
8A1A
  8
0
 10
343.811241
 20
207.5147
 30
0.0
 11
343.811241
 21
343.5115
 31
0.0
  0
LINE
  5
8A21
  8
0
 10
277.312241
 20
209.5108
 30
0.0
 11
335.312241
 21
209.5108
 31
0.0
  0
LINE
  5
8A22
  8
0
 10
306.312241
 20
202.5148
 30
0.0
 11
267.813241
 21
202.5148
 31
0.0
  0
LINE
  5
8A25
  8
0
 10
266.141468
 20
194.515
 30
0.0
 11
346.483014
 21
194.515
 31
0.0
  0
LINE
  5
8A26
  8
0
 10
270.313241
 20
206.0147
 30
0.0
 11
342.311241
 21
206.0147
 31
0.0
  0
LINE
  5
8A9F
  8
0
 10
267.813241
 20
202.5148
 30
0.0
 11
267.813241
 21
334.5115
 31
0.0
  0
LINE
  5
8AB6
  8
0
 10
260.898972
 20
198.929369
 30
0.0
 11
264.727199
 21
195.100842
 31
0.0
  0
LINE
  5
8B21
  8
0
 10
313.312241
 20
230.8115
 30
0.0
 11
313.312241
 21
238.2115
 31
0.0
  0
LINE
  5
8B22
  8
0
 10
299.312241
 20
238.2115
 30
0.0
 11
299.312241
 21
230.8115
 31
0.0
  0
LINE
  5
8B23
  8
0
 10
331.312241
 20
230.8115
 30
0.0
 11
331.312241
 21
238.2115
 31
0.0
  0
LINE
  5
8B24
  8
0
 10
317.312241
 20
238.2115
 30
0.0
 11
317.312241
 21
230.8115
 31
0.0
  0
LINE
  5
8B25
  8
0
 10
300.012241
 20
236.0115
 30
0.0
 11
300.012241
 21
237.9215
 31
0.0
  0
LINE
  5
8B26
  8
0
 10
302.512241
 20
238.8115
 30
0.0
 11
302.512241
 21
236.0115
 31
0.0
  0
LINE
  5
8B27
  8
0
 10
312.612241
 20
231.1015
 30
0.0
 11
312.612241
 21
237.9215
 31
0.0
  0
LINE
  5
8B28
  8
0
 10
318.012241
 20
236.0115
 30
0.0
 11
318.012241
 21
237.9215
 31
0.0
  0
LINE
  5
8B29
  8
0
 10
320.512241
 20
238.8115
 30
0.0
 11
320.512241
 21
236.0115
 31
0.0
  0
LINE
  5
8B2A
  8
0
 10
330.612241
 20
231.1015
 30
0.0
 11
330.612241
 21
237.9215
 31
0.0
  0
TEXT
  5
8B2B
  8
6-TEX1
 10
318.901241
 20
236.5905
 30
0.0
 40
1.6
  1
X
 41
0.9
 72
     1
 11
319.381241
 21
237.3905
 31
0.0
 73
     2
  0
TEXT
  5
8B2C
  8
6-TEX1
 10
300.953241
 20
236.5335
 30
0.0
 40
1.6
  1
W
 41
0.63
 72
     1
 11
301.433241
 21
237.3335
 31
0.0
 73
     2
  0
LINE
  5
8B2D
  8
0
 10
295.312241
 20
230.8115
 30
0.0
 11
295.312241
 21
238.2115
 31
0.0
  0
LINE
  5
8B2E
  8
0
 10
281.312241
 20
238.2115
 30
0.0
 11
281.312241
 21
230.8115
 31
0.0
  0
LINE
  5
8B2F
  8
0
 10
282.012241
 20
236.0115
 30
0.0
 11
282.012241
 21
237.9215
 31
0.0
  0
LINE
  5
8B30
  8
0
 10
284.512241
 20
238.8115
 30
0.0
 11
284.512241
 21
236.0115
 31
0.0
  0
LINE
  5
8B31
  8
0
 10
294.612241
 20
231.1015
 30
0.0
 11
294.612241
 21
237.9215
 31
0.0
  0
TEXT
  5
8B32
  8
6-TEX1
 10
282.929241
 20
236.6475
 30
0.0
 40
1.6
  1
V
 41
0.7875
 72
     1
 11
283.409241
 21
237.4475
 31
0.0
 73
     2
  0
LINE
  5
8B33
  8
0
 10
332.812241
 20
216.1901
 30
0.0
 11
332.812241
 21
266.8325
 31
0.0
  0
LINE
  5
8B34
  8
0
 10
279.812241
 20
266.8325
 30
0.0
 11
279.812241
 21
216.1901
 31
0.0
  0
LINE
  5
8B57
  8
0
 10
330.012241
 20
229.5115
 30
0.0
 11
331.312241
 21
230.8115
 31
0.0
  0
LINE
  5
8B58
  8
0
 10
329.722241
 20
230.2115
 30
0.0
 11
330.612241
 21
231.1015
 31
0.0
  0
LINE
  5
8B59
  8
0
 10
320.512241
 20
236.0115
 30
0.0
 11
318.012241
 21
236.0115
 31
0.0
  0
LINE
  5
8B5A
  8
0
 10
318.012241
 20
231.1015
 30
0.0
 11
318.902241
 21
230.2115
 31
0.0
  0
LINE
  5
8B5B
  8
0
 10
318.012241
 20
236.0115
 30
0.0
 11
318.012241
 21
231.1015
 31
0.0
  0
TEXT
  5
8B5C
  8
7-TEX2
 10
323.589741
 20
232.3645
 30
0.0
 40
4.0
  1
3
 41
0.955125
 72
     1
 11
324.863241
 21
234.3645
 31
0.0
 73
     2
  0
LINE
  5
8B5D
  8
0
 10
318.612241
 20
229.5115
 30
0.0
 11
330.012241
 21
229.5115
 31
0.0
  0
LINE
  5
8B5E
  8
0
 10
318.902241
 20
230.2115
 30
0.0
 11
329.722241
 21
230.2115
 31
0.0
  0
LINE
  5
8B5F
  8
0
 10
331.312241
 20
224.2115
 30
0.0
 11
330.012241
 21
225.5115
 31
0.0
  0
LINE
  5
8B60
  8
0
 10
331.312241
 20
216.8115
 30
0.0
 11
331.312241
 21
224.2115
 31
0.0
  0
LINE
  5
8B61
  8
0
 10
330.612241
 20
223.9215
 30
0.0
 11
329.722241
 21
224.8115
 31
0.0
  0
LINE
  5
8B62
  8
0
 10
330.612241
 20
217.1014
 30
0.0
 11
330.612241
 21
223.9215
 31
0.0
  0
LINE
  5
8B63
  8
0
 10
329.722241
 20
216.2114
 30
0.0
 11
330.612241
 21
217.1014
 31
0.0
  0
LINE
  5
8B65
  8
0
 10
318.902241
 20
224.8115
 30
0.0
 11
320.512241
 21
224.8115
 31
0.0
  0
LINE
  5
8B66
  8
0
 10
318.012241
 20
223.9215
 30
0.0
 11
318.902241
 21
224.8115
 31
0.0
  0
LINE
  5
8B67
  8
0
 10
318.012241
 20
222.0115
 30
0.0
 11
318.012241
 21
223.9215
 31
0.0
  0
LINE
  5
8B68
  8
0
 10
320.512241
 20
222.0115
 30
0.0
 11
318.012241
 21
222.0115
 31
0.0
  0
LINE
  5
8B69
  8
0
 10
320.512241
 20
224.8115
 30
0.0
 11
320.512241
 21
222.0115
 31
0.0
  0
LINE
  5
8B6A
  8
0
 10
318.012241
 20
217.1014
 30
0.0
 11
318.902241
 21
216.2114
 31
0.0
  0
LINE
  5
8B6B
  8
0
 10
318.012241
 20
222.0115
 30
0.0
 11
318.012241
 21
217.1014
 31
0.0
  0
TEXT
  5
8B6C
  8
6-TEX1
 10
318.882241
 20
222.6005
 30
0.0
 40
1.6
  1
Z
 41
0.9
 72
     1
 11
319.362241
 21
223.4005
 31
0.0
 73
     2
  0
TEXT
  5
8B6D
  8
7-TEX2
 10
322.352241
 20
219.2125
 30
0.0
 40
2.0
  1
ENT
 41
0.972491
 72
     1
 11
324.899241
 21
220.2125
 31
0.0
 73
     2
  0
LINE
  5
8B6E
  8
0
 10
330.012241
 20
225.5115
 30
0.0
 11
318.612241
 21
225.5115
 31
0.0
  0
LINE
  5
8B6F
  8
0
 10
329.722241
 20
224.8115
 30
0.0
 11
320.512241
 21
224.8115
 31
0.0
  0
LINE
  5
8B70
  8
0
 10
318.902241
 20
216.2114
 30
0.0
 11
329.722241
 21
216.2114
 31
0.0
  0
LINE
  5
8B71
  8
0
 10
312.012241
 20
229.5115
 30
0.0
 11
313.312241
 21
230.8115
 31
0.0
  0
LINE
  5
8B72
  8
0
 10
311.722241
 20
230.2115
 30
0.0
 11
312.612241
 21
231.1015
 31
0.0
  0
CIRCLE
  5
8B73
  8
0
 10
315.325241
 20
227.5125
 30
0.0
 40
0.5
  0
LINE
  5
8B74
  8
0
 10
299.312241
 20
230.8115
 30
0.0
 11
300.612241
 21
229.5115
 31
0.0
  0
LINE
  5
8B75
  8
0
 10
302.512241
 20
236.0115
 30
0.0
 11
300.012241
 21
236.0115
 31
0.0
  0
LINE
  5
8B76
  8
0
 10
300.012241
 20
231.1015
 30
0.0
 11
300.902241
 21
230.2115
 31
0.0
  0
LINE
  5
8B77
  8
0
 10
300.012241
 20
236.0115
 30
0.0
 11
300.012241
 21
231.1015
 31
0.0
  0
LINE
  5
8B78
  8
0
 10
300.612241
 20
229.5115
 30
0.0
 11
312.012241
 21
229.5115
 31
0.0
  0
LINE
  5
8B79
  8
0
 10
300.902241
 20
230.2115
 30
0.0
 11
311.722241
 21
230.2115
 31
0.0
  0
TEXT
  5
8B7A
  8
7-TEX2
 10
305.038741
 20
232.3835
 30
0.0
 40
4.0
  1
2
 41
0.955125
 72
     1
 11
306.312241
 21
234.3835
 31
0.0
 73
     2
  0
LINE
  5
8B7B
  8
0
 10
312.612241
 20
223.9215
 30
0.0
 11
311.722241
 21
224.8115
 31
0.0
  0
LINE
  5
8B7C
  8
0
 10
312.612241
 20
217.1014
 30
0.0
 11
312.612241
 21
223.9215
 31
0.0
  0
LINE
  5
8B7D
  8
0
 10
311.722241
 20
216.2114
 30
0.0
 11
312.612241
 21
217.1014
 31
0.0
  0
LINE
  5
8B7E
  8
0
 10
317.312241
 20
224.2115
 30
0.0
 11
317.312241
 21
216.8115
 31
0.0
  0
LINE
  5
8B7F
  8
0
 10
313.312241
 20
224.2115
 30
0.0
 11
312.012241
 21
225.5115
 31
0.0
  0
LINE
  5
8B80
  8
0
 10
313.312241
 20
216.8115
 30
0.0
 11
313.312241
 21
224.2115
 31
0.0
  0
LINE
  5
8B81
  8
0
 10
300.012241
 20
217.1014
 30
0.0
 11
300.902241
 21
216.2114
 31
0.0
  0
LINE
  5
8B82
  8
0
 10
300.012241
 20
223.9215
 30
0.0
 11
300.012241
 21
217.1014
 31
0.0
  0
LINE
  5
8B83
  8
0
 10
300.902241
 20
224.8115
 30
0.0
 11
300.012241
 21
223.9215
 31
0.0
  0
LINE
  5
8B84
  8
0
 10
299.312241
 20
224.2115
 30
0.0
 11
299.312241
 21
216.8115
 31
0.0
  0
LINE
  5
8B85
  8
0
 10
300.612241
 20
225.5115
 30
0.0
 11
299.312241
 21
224.2115
 31
0.0
  0
LINE
  5
8B86
  8
0
 10
311.722241
 20
224.8115
 30
0.0
 11
300.902241
 21
224.8115
 31
0.0
  0
LINE
  5
8B87
  8
0
 10
300.902241
 20
216.2114
 30
0.0
 11
311.722241
 21
216.2114
 31
0.0
  0
LINE
  5
8B88
  8
0
 10
312.012241
 20
225.5115
 30
0.0
 11
300.612241
 21
225.5115
 31
0.0
  0
TEXT
  5
8B89
  8
7-TEX2
 10
301.981991
 20
219.3765
 30
0.0
 40
2.0
  1
SHIFT
 41
1.141491
 72
     1
 11
306.439241
 21
220.3765
 31
0.0
 73
     2
  0
CIRCLE
  5
8B8A
  8
0
 10
315.325241
 20
227.5125
 30
0.0
 40
1.49997
  0
LINE
  5
8B8B
  8
0
 10
317.312241
 20
230.8115
 30
0.0
 11
318.612241
 21
229.5115
 31
0.0
  0
LINE
  5
8B8C
  8
0
 10
318.612241
 20
225.5115
 30
0.0
 11
317.312241
 21
224.2115
 31
0.0
  0
LINE
  5
8B8D
  8
0
 10
294.012241
 20
229.5115
 30
0.0
 11
295.312241
 21
230.8115
 31
0.0
  0
LINE
  5
8B8E
  8
0
 10
293.722241
 20
230.2115
 30
0.0
 11
294.612241
 21
231.1015
 31
0.0
  0
TEXT
  5
8B8F
  8
7-TEX2
 10
287.958289
 20
232.4025
 30
0.0
 40
4.0
  1
1
 41
0.8
 72
     1
 11
288.339241
 21
234.4025
 31
0.0
 73
     2
  0
LINE
  5
8B90
  8
0
 10
281.312241
 20
230.8115
 30
0.0
 11
282.612241
 21
229.5115
 31
0.0
  0
LINE
  5
8B91
  8
0
 10
284.512241
 20
236.0115
 30
0.0
 11
282.012241
 21
236.0115
 31
0.0
  0
LINE
  5
8B92
  8
0
 10
282.012241
 20
231.1015
 30
0.0
 11
282.902241
 21
230.2115
 31
0.0
  0
LINE
  5
8B93
  8
0
 10
282.012241
 20
236.0115
 30
0.0
 11
282.012241
 21
231.1015
 31
0.0
  0
LINE
  5
8B94
  8
0
 10
282.612241
 20
229.5115
 30
0.0
 11
294.012241
 21
229.5115
 31
0.0
  0
LINE
  5
8B95
  8
0
 10
282.902241
 20
230.2115
 30
0.0
 11
293.722241
 21
230.2115
 31
0.0
  0
LINE
  5
8B96
  8
0
 10
295.312241
 20
224.2115
 30
0.0
 11
294.012241
 21
225.5115
 31
0.0
  0
LINE
  5
8B97
  8
0
 10
295.312241
 20
216.8115
 30
0.0
 11
295.312241
 21
224.2115
 31
0.0
  0
LINE
  5
8B98
  8
0
 10
294.612241
 20
223.9215
 30
0.0
 11
293.722241
 21
224.8115
 31
0.0
  0
LINE
  5
8B99
  8
0
 10
294.612241
 20
217.1014
 30
0.0
 11
294.612241
 21
223.9215
 31
0.0
  0
LINE
  5
8B9A
  8
0
 10
293.722241
 20
216.2114
 30
0.0
 11
294.612241
 21
217.1014
 31
0.0
  0
TEXT
  5
8B9B
  8
7-TEX2
 10
287.046741
 20
218.4885
 30
0.0
 40
4.0
  1
0
 41
0.955125
 72
     1
 11
288.320241
 21
220.4885
 31
0.0
 73
     2
  0
LINE
  5
8B9C
  8
0
 10
281.312241
 20
224.2115
 30
0.0
 11
281.312241
 21
216.8115
 31
0.0
  0
LINE
  5
8B9D
  8
0
 10
282.612241
 20
225.5115
 30
0.0
 11
281.312241
 21
224.2115
 31
0.0
  0
LINE
  5
8B9E
  8
0
 10
282.902241
 20
224.8115
 30
0.0
 11
284.512241
 21
224.8115
 31
0.0
  0
LINE
  5
8B9F
  8
0
 10
282.012241
 20
223.9215
 30
0.0
 11
282.902241
 21
224.8115
 31
0.0
  0
LINE
  5
8BA0
  8
0
 10
282.012241
 20
222.0115
 30
0.0
 11
282.012241
 21
223.9215
 31
0.0
  0
LINE
  5
8BA1
  8
0
 10
284.512241
 20
222.0115
 30
0.0
 11
282.012241
 21
222.0115
 31
0.0
  0
LINE
  5
8BA2
  8
0
 10
284.512241
 20
224.8115
 30
0.0
 11
284.512241
 21
222.0115
 31
0.0
  0
LINE
  5
8BA3
  8
0
 10
282.012241
 20
217.1014
 30
0.0
 11
282.902241
 21
216.2114
 31
0.0
  0
LINE
  5
8BA4
  8
0
 10
282.012241
 20
222.0115
 30
0.0
 11
282.012241
 21
217.1014
 31
0.0
  0
TEXT
  5
8BA5
  8
6-TEX1
 10
282.815241
 20
222.6005
 30
0.0
 40
1.6
  1
Y
 41
0.7875
 72
     1
 11
283.295241
 21
223.4005
 31
0.0
 73
     2
  0
LINE
  5
8BA6
  8
0
 10
294.012241
 20
225.5115
 30
0.0
 11
282.612241
 21
225.5115
 31
0.0
  0
LINE
  5
8BA7
  8
0
 10
293.722241
 20
224.8115
 30
0.0
 11
284.512241
 21
224.8115
 31
0.0
  0
LINE
  5
8BA8
  8
0
 10
282.902241
 20
216.2114
 30
0.0
 11
293.722241
 21
216.2114
 31
0.0
  0
LINE
  5
8BEB
  8
0
 10
344.811241
 20
202.5148
 30
0.0
 11
344.811241
 21
334.5115
 31
0.0
  0
LINE
  5
8C01
  8
0
 10
347.897283
 20
195.100842
 30
0.0
 11
351.72551
 21
198.929369
 31
0.0
  0
LINE
  5
8C15
  8
0
 10
318.612241
 20
215.5114
 30
0.0
 11
330.012241
 21
215.5114
 31
0.0
  0
LINE
  5
8C17
  8
0
 10
300.612241
 20
215.5114
 30
0.0
 11
312.012241
 21
215.5114
 31
0.0
  0
LINE
  5
8C30
  8
0
 10
282.612241
 20
215.5114
 30
0.0
 11
294.012241
 21
215.5114
 31
0.0
  0
LINE
  5
8C35
  8
0
 10
281.991241
 20
214.0114
 30
0.0
 11
330.633241
 21
214.0114
 31
0.0
  0
LINE
  5
8C3A
  8
0
 10
306.312241
 20
202.5148
 30
0.0
 11
344.811241
 21
202.5148
 31
0.0
  0
LINE
  5
8C3D
  8
0
 10
294.012241
 20
215.5114
 30
0.0
 11
295.312241
 21
216.8115
 31
0.0
  0
LINE
  5
8C3E
  8
0
 10
281.312241
 20
216.8115
 30
0.0
 11
282.612241
 21
215.5114
 31
0.0
  0
LINE
  5
8C3F
  8
0
 10
330.633241
 20
214.0114
 30
0.0
 11
332.812241
 21
216.1901
 31
0.0
  0
LINE
  5
8C40
  8
0
 10
279.812241
 20
216.1901
 30
0.0
 11
281.991241
 21
214.0114
 31
0.0
  0
LINE
  5
8C41
  8
0
 10
330.012241
 20
215.5114
 30
0.0
 11
331.312241
 21
216.8115
 31
0.0
  0
LINE
  5
8C42
  8
0
 10
317.312241
 20
216.8115
 30
0.0
 11
318.612241
 21
215.5114
 31
0.0
  0
LINE
  5
8C43
  8
0
 10
312.012241
 20
215.5114
 30
0.0
 11
313.312241
 21
216.8115
 31
0.0
  0
LINE
  5
8C44
  8
0
 10
299.312241
 20
216.8115
 30
0.0
 11
300.612241
 21
215.5114
 31
0.0
  0
LINE
  5
8CA8
  8
0
 10
331.312241
 20
282.2115
 30
0.0
 11
330.012241
 21
283.5115
 31
0.0
  0
LINE
  5
8CA9
  8
0
 10
330.612241
 20
281.9215
 30
0.0
 11
329.722241
 21
282.8115
 31
0.0
  0
LINE
  5
8CAA
  8
0
 10
318.902241
 20
282.8115
 30
0.0
 11
320.512241
 21
282.8115
 31
0.0
  0
LINE
  5
8CAB
  8
0
 10
318.012241
 20
281.9215
 30
0.0
 11
318.902241
 21
282.8115
 31
0.0
  0
LINE
  5
8CAC
  8
0
 10
318.012241
 20
280.0115
 30
0.0
 11
318.012241
 21
281.9215
 31
0.0
  0
LINE
  5
8CAD
  8
0
 10
320.512241
 20
280.0115
 30
0.0
 11
318.012241
 21
280.0115
 31
0.0
  0
LINE
  5
8CAE
  8
0
 10
320.512241
 20
282.8115
 30
0.0
 11
320.512241
 21
280.0115
 31
0.0
  0
LINE
  5
8CAF
  8
0
 10
327.360241
 20
281.6175
 30
0.0
 11
327.360241
 21
279.6165
 31
0.0
  0
LINE
  5
8CB0
  8
0
 10
321.963241
 20
281.6175
 30
0.0
 11
327.360241
 21
281.6175
 31
0.0
  0
LINE
  5
8CB1
  8
0
 10
321.963241
 20
279.6165
 30
0.0
 11
321.963241
 21
281.6175
 31
0.0
  0
LINE
  5
8CB2
  8
0
 10
320.125241
 20
279.6165
 30
0.0
 11
321.963241
 21
279.6165
 31
0.0
  0
TEXT
  5
8CB3
  8
6-TEX1
 10
318.844241
 20
280.5785
 30
0.0
 40
1.6
  1
O
 41
0.7875
 72
     1
 11
319.324241
 21
281.3785
 31
0.0
 73
     2
  0
LINE
  5
8CB4
  8
0
 10
330.012241
 20
283.5115
 30
0.0
 11
318.612241
 21
283.5115
 31
0.0
  0
LINE
  5
8CB5
  8
0
 10
329.722241
 20
282.8115
 30
0.0
 11
320.512241
 21
282.8115
 31
0.0
  0
LINE
  5
8CB6
  8
0
 10
327.360241
 20
279.6165
 30
0.0
 11
328.866241
 21
279.6165
 31
0.0
  0
LINE
  5
8CB7
  8
0
 10
313.312241
 20
282.2115
 30
0.0
 11
312.012241
 21
283.5115
 31
0.0
  0
LINE
  5
8CB8
  8
0
 10
312.612241
 20
281.9215
 30
0.0
 11
311.722241
 21
282.8115
 31
0.0
  0
LINE
  5
8CB9
  8
0
 10
309.389241
 20
279.6165
 30
0.0
 11
310.867241
 21
279.6165
 31
0.0
  0
LINE
  5
8CBA
  8
0
 10
308.852241
 20
281.6175
 30
0.0
 11
309.389241
 21
279.6165
 31
0.0
  0
LINE
  5
8CBB
  8
0
 10
300.612241
 20
283.5115
 30
0.0
 11
299.312241
 21
282.2115
 31
0.0
  0
LINE
  5
8CBC
  8
0
 10
300.902241
 20
282.8115
 30
0.0
 11
302.512241
 21
282.8115
 31
0.0
  0
LINE
  5
8CBD
  8
0
 10
300.012241
 20
281.9215
 30
0.0
 11
300.902241
 21
282.8115
 31
0.0
  0
LINE
  5
8CBE
  8
0
 10
300.012241
 20
280.0115
 30
0.0
 11
300.012241
 21
281.9215
 31
0.0
  0
LINE
  5
8CBF
  8
0
 10
302.512241
 20
280.0115
 30
0.0
 11
300.012241
 21
280.0115
 31
0.0
  0
LINE
  5
8CC0
  8
0
 10
302.512241
 20
282.8115
 30
0.0
 11
302.512241
 21
280.0115
 31
0.0
  0
LINE
  5
8CC1
  8
0
 10
303.412241
 20
279.6165
 30
0.0
 11
303.949241
 21
281.6175
 31
0.0
  0
LINE
  5
8CC2
  8
0
 10
301.856241
 20
279.6165
 30
0.0
 11
303.412241
 21
279.6165
 31
0.0
  0
TEXT
  5
8CC3
  8
6-TEX1
 10
300.858241
 20
280.5215
 30
0.0
 40
1.6
  1
N
 41
0.9
 72
     1
 11
301.338241
 21
281.3215
 31
0.0
 73
     2
  0
LINE
  5
8CC4
  8
0
 10
312.012241
 20
283.5115
 30
0.0
 11
300.612241
 21
283.5115
 31
0.0
  0
LINE
  5
8CC5
  8
0
 10
311.722241
 20
282.8115
 30
0.0
 11
302.512241
 21
282.8115
 31
0.0
  0
LINE
  5
8CC6
  8
0
 10
303.949241
 20
281.6175
 30
0.0
 11
308.852241
 21
281.6175
 31
0.0
  0
LINE
  5
8CC7
  8
0
 10
318.612241
 20
283.5115
 30
0.0
 11
317.312241
 21
282.2115
 31
0.0
  0
LINE
  5
8CC8
  8
0
 10
330.633241
 20
272.0115
 30
0.0
 11
332.812241
 21
274.1905
 31
0.0
  0
LINE
  5
8CC9
  8
0
 10
330.012241
 20
273.5115
 30
0.0
 11
331.312241
 21
274.8115
 31
0.0
  0
LINE
  5
8CCA
  8
0
 10
329.722241
 20
274.2115
 30
0.0
 11
330.612241
 21
275.1015
 31
0.0
  0
LINE
  5
8CCB
  8
0
 10
318.012241
 20
275.1015
 30
0.0
 11
318.902241
 21
274.2115
 31
0.0
  0
LINE
  5
8CCC
  8
0
 10
322.303241
 20
276.7525
 30
0.0
 11
320.125241
 21
276.7525
 31
0.0
  0
LINE
  5
8CCD
  8
0
 10
326.377241
 20
274.5875
 30
0.0
 11
322.303241
 21
276.7525
 31
0.0
  0
LINE
  5
8CCE
  8
0
 10
318.612241
 20
273.5115
 30
0.0
 11
330.012241
 21
273.5115
 31
0.0
  0
LINE
  5
8CCF
  8
0
 10
318.902241
 20
274.2115
 30
0.0
 11
329.722241
 21
274.2115
 31
0.0
  0
LINE
  5
8CD0
  8
0
 10
328.474241
 20
275.8205
 30
0.0
 11
326.377241
 21
274.5875
 31
0.0
  0
LINE
  5
8CD1
  8
0
 10
327.360241
 20
276.7525
 30
0.0
 11
328.474241
 21
275.8205
 31
0.0
  0
LINE
  5
8CD2
  8
0
 10
328.866241
 20
276.7525
 30
0.0
 11
327.360241
 21
276.7525
 31
0.0
  0
LINE
  5
8CD3
  8
0
 10
331.312241
 20
266.2115
 30
0.0
 11
330.012241
 21
267.5115
 31
0.0
  0
LINE
  5
8CD4
  8
0
 10
331.312241
 20
258.8115
 30
0.0
 11
331.312241
 21
266.2115
 31
0.0
  0
LINE
  5
8CD5
  8
0
 10
330.012241
 20
257.5115
 30
0.0
 11
331.312241
 21
258.8115
 31
0.0
  0
LINE
  5
8CD6
  8
0
 10
330.612241
 20
265.9215
 30
0.0
 11
329.722241
 21
266.8115
 31
0.0
  0
LINE
  5
8CD7
  8
0
 10
330.612241
 20
259.1015
 30
0.0
 11
330.612241
 21
265.9215
 31
0.0
  0
LINE
  5
8CD8
  8
0
 10
329.722241
 20
258.2115
 30
0.0
 11
330.612241
 21
259.1015
 31
0.0
  0
LINE
  5
8CD9
  8
0
 10
318.902241
 20
266.8115
 30
0.0
 11
320.512241
 21
266.8115
 31
0.0
  0
LINE
  5
8CDA
  8
0
 10
318.012241
 20
265.9215
 30
0.0
 11
318.902241
 21
266.8115
 31
0.0
  0
LINE
  5
8CDB
  8
0
 10
318.012241
 20
264.0115
 30
0.0
 11
318.012241
 21
265.9215
 31
0.0
  0
LINE
  5
8CDC
  8
0
 10
320.512241
 20
264.0115
 30
0.0
 11
318.012241
 21
264.0115
 31
0.0
  0
LINE
  5
8CDD
  8
0
 10
320.512241
 20
266.8115
 30
0.0
 11
320.512241
 21
264.0115
 31
0.0
  0
LINE
  5
8CDE
  8
0
 10
318.012241
 20
259.1015
 30
0.0
 11
318.902241
 21
258.2115
 31
0.0
  0
LINE
  5
8CDF
  8
0
 10
318.012241
 20
264.0115
 30
0.0
 11
318.012241
 21
259.1015
 31
0.0
  0
TEXT
  5
8CE0
  8
7-TEX2
 10
323.303741
 20
260.3825
 30
0.0
 40
4.0
  1
9
 41
1.028596
 72
     1
 11
324.577241
 21
262.3825
 31
0.0
 73
     2
  0
TEXT
  5
8CE1
  8
6-TEX1
 10
318.863241
 20
264.5135
 30
0.0
 40
1.6
  1
R
 41
0.9
 72
     1
 11
319.343241
 21
265.3135
 31
0.0
 73
     2
  0
LINE
  5
8CE2
  8
0
 10
330.012241
 20
267.5115
 30
0.0
 11
318.612241
 21
267.5115
 31
0.0
  0
LINE
  5
8CE3
  8
0
 10
318.612241
 20
257.5115
 30
0.0
 11
330.012241
 21
257.5115
 31
0.0
  0
LINE
  5
8CE4
  8
0
 10
329.722241
 20
266.8115
 30
0.0
 11
320.512241
 21
266.8115
 31
0.0
  0
LINE
  5
8CE5
  8
0
 10
318.902241
 20
258.2115
 30
0.0
 11
329.722241
 21
258.2115
 31
0.0
  0
LINE
  5
8CE6
  8
0
 10
332.812241
 20
266.8325
 30
0.0
 11
330.633241
 21
269.0115
 31
0.0
  0
LINE
  5
8CE7
  8
0
 10
312.012241
 20
273.5115
 30
0.0
 11
313.312241
 21
274.8115
 31
0.0
  0
LINE
  5
8CE8
  8
0
 10
311.722241
 20
274.2115
 30
0.0
 11
312.612241
 21
275.1015
 31
0.0
  0
LINE
  5
8CE9
  8
0
 10
310.330241
 20
276.1015
 30
0.0
 11
310.330241
 21
274.6515
 31
0.0
  0
LINE
  5
8CEA
  8
0
 10
309.389241
 20
276.1015
 30
0.0
 11
310.330241
 21
276.1015
 31
0.0
  0
LINE
  5
8CEB
  8
0
 10
309.389241
 20
276.7525
 30
0.0
 11
309.389241
 21
276.1015
 31
0.0
  0
LINE
  5
8CEC
  8
0
 10
310.867241
 20
276.7525
 30
0.0
 11
309.389241
 21
276.7525
 31
0.0
  0
LINE
  5
8CED
  8
0
 10
299.312241
 20
274.8115
 30
0.0
 11
300.612241
 21
273.5115
 31
0.0
  0
LINE
  5
8CEE
  8
0
 10
300.012241
 20
275.1015
 30
0.0
 11
300.902241
 21
274.2115
 31
0.0
  0
LINE
  5
8CEF
  8
0
 10
303.412241
 20
276.7525
 30
0.0
 11
301.856241
 21
276.7525
 31
0.0
  0
LINE
  5
8CF0
  8
0
 10
303.412241
 20
275.6515
 30
0.0
 11
303.412241
 21
276.7525
 31
0.0
  0
LINE
  5
8CF1
  8
0
 10
303.457241
 20
275.3575
 30
0.0
 11
303.412241
 21
275.6515
 31
0.0
  0
LINE
  5
8CF2
  8
0
 10
303.515241
 20
275.2105
 30
0.0
 11
303.457241
 21
275.3575
 31
0.0
  0
LINE
  5
8CF3
  8
0
 10
303.599241
 20
275.0705
 30
0.0
 11
303.515241
 21
275.2105
 31
0.0
  0
LINE
  5
8CF4
  8
0
 10
303.705241
 20
274.9445
 30
0.0
 11
303.599241
 21
275.0705
 31
0.0
  0
LINE
  5
8CF5
  8
0
 10
303.831241
 20
274.8375
 30
0.0
 11
303.705241
 21
274.9445
 31
0.0
  0
LINE
  5
8CF6
  8
0
 10
303.971241
 20
274.7545
 30
0.0
 11
303.831241
 21
274.8375
 31
0.0
  0
LINE
  5
8CF7
  8
0
 10
304.119241
 20
274.6955
 30
0.0
 11
303.971241
 21
274.7545
 31
0.0
  0
LINE
  5
8CF8
  8
0
 10
304.267241
 20
274.6625
 30
0.0
 11
304.119241
 21
274.6955
 31
0.0
  0
LINE
  5
8CF9
  8
0
 10
304.412241
 20
274.6515
 30
0.0
 11
304.267241
 21
274.6625
 31
0.0
  0
LINE
  5
8CFA
  8
0
 10
304.412241
 20
274.6515
 30
0.0
 11
304.412241
 21
274.6515
 31
0.0
  0
LINE
  5
8CFB
  8
0
 10
300.612241
 20
273.5115
 30
0.0
 11
312.012241
 21
273.5115
 31
0.0
  0
LINE
  5
8CFC
  8
0
 10
300.902241
 20
274.2115
 30
0.0
 11
311.722241
 21
274.2115
 31
0.0
  0
LINE
  5
8CFD
  8
0
 10
310.330241
 20
274.6515
 30
0.0
 11
304.412241
 21
274.6515
 31
0.0
  0
LINE
  5
8CFE
  8
0
 10
313.312241
 20
266.2115
 30
0.0
 11
312.012241
 21
267.5115
 31
0.0
  0
LINE
  5
8CFF
  8
0
 10
313.312241
 20
258.8115
 30
0.0
 11
313.312241
 21
266.2115
 31
0.0
  0
LINE
  5
8D00
  8
0
 10
312.012241
 20
257.5115
 30
0.0
 11
313.312241
 21
258.8115
 31
0.0
  0
LINE
  5
8D01
  8
0
 10
317.312241
 20
266.2115
 30
0.0
 11
317.312241
 21
258.8115
 31
0.0
  0
LINE
  5
8D02
  8
0
 10
312.612241
 20
265.9215
 30
0.0
 11
311.722241
 21
266.8115
 31
0.0
  0
LINE
  5
8D03
  8
0
 10
312.612241
 20
259.1015
 30
0.0
 11
312.612241
 21
265.9215
 31
0.0
  0
LINE
  5
8D04
  8
0
 10
311.722241
 20
258.2115
 30
0.0
 11
312.612241
 21
259.1015
 31
0.0
  0
LINE
  5
8D05
  8
0
 10
299.312241
 20
258.8115
 30
0.0
 11
300.612241
 21
257.5115
 31
0.0
  0
LINE
  5
8D06
  8
0
 10
299.312241
 20
266.2115
 30
0.0
 11
299.312241
 21
258.8115
 31
0.0
  0
LINE
  5
8D07
  8
0
 10
300.612241
 20
267.5115
 30
0.0
 11
299.312241
 21
266.2115
 31
0.0
  0
LINE
  5
8D08
  8
0
 10
300.902241
 20
266.8115
 30
0.0
 11
302.512241
 21
266.8115
 31
0.0
  0
LINE
  5
8D09
  8
0
 10
300.012241
 20
265.9215
 30
0.0
 11
300.902241
 21
266.8115
 31
0.0
  0
LINE
  5
8D0A
  8
0
 10
300.012241
 20
264.0115
 30
0.0
 11
300.012241
 21
265.9215
 31
0.0
  0
LINE
  5
8D0B
  8
0
 10
302.512241
 20
264.0115
 30
0.0
 11
300.012241
 21
264.0115
 31
0.0
  0
LINE
  5
8D0C
  8
0
 10
302.512241
 20
266.8115
 30
0.0
 11
302.512241
 21
264.0115
 31
0.0
  0
LINE
  5
8D0D
  8
0
 10
300.012241
 20
259.1015
 30
0.0
 11
300.902241
 21
258.2115
 31
0.0
  0
LINE
  5
8D0E
  8
0
 10
300.012241
 20
264.0115
 30
0.0
 11
300.012241
 21
259.1015
 31
0.0
  0
TEXT
  5
8D0F
  8
6-TEX1
 10
300.877241
 20
264.6465
 30
0.0
 40
1.6
  1
Q
 41
0.7875
 72
     1
 11
301.357241
 21
265.4465
 31
0.0
 73
     2
  0
LINE
  5
8D10
  8
0
 10
312.012241
 20
267.5115
 30
0.0
 11
300.612241
 21
267.5115
 31
0.0
  0
LINE
  5
8D11
  8
0
 10
300.612241
 20
257.5115
 30
0.0
 11
312.012241
 21
257.5115
 31
0.0
  0
LINE
  5
8D12
  8
0
 10
311.722241
 20
266.8115
 30
0.0
 11
302.512241
 21
266.8115
 31
0.0
  0
LINE
  5
8D13
  8
0
 10
300.902241
 20
258.2115
 30
0.0
 11
311.722241
 21
258.2115
 31
0.0
  0
CIRCLE
  5
8D15
  8
0
 10
306.312241
 20
258.5105
 30
0.0
 40
1.09996
  0
TEXT
  5
8D16
  8
7-TEX2
 10
305.038741
 20
260.3255
 30
0.0
 40
4.0
  1
8
 41
0.955125
 72
     1
 11
306.312241
 21
262.3255
 31
0.0
 73
     2
  0
LINE
  5
8D17
  8
0
 10
317.312241
 20
274.8115
 30
0.0
 11
318.612241
 21
273.5115
 31
0.0
  0
LINE
  5
8D18
  8
0
 10
317.312241
 20
258.8115
 30
0.0
 11
318.612241
 21
257.5115
 31
0.0
  0
LINE
  5
8D19
  8
0
 10
318.612241
 20
267.5115
 30
0.0
 11
317.312241
 21
266.2115
 31
0.0
  0
LINE
  5
8D1A
  8
0
 10
331.312241
 20
274.8115
 30
0.0
 11
331.312241
 21
282.2115
 31
0.0
  0
LINE
  5
8D1B
  8
0
 10
317.312241
 20
282.2115
 30
0.0
 11
317.312241
 21
274.8115
 31
0.0
  0
LINE
  5
8D1C
  8
0
 10
313.312241
 20
274.8115
 30
0.0
 11
313.312241
 21
282.2115
 31
0.0
  0
LINE
  5
8D1D
  8
0
 10
299.312241
 20
282.2115
 30
0.0
 11
299.312241
 21
274.8115
 31
0.0
  0
LINE
  5
8D1E
  8
0
 10
330.612241
 20
275.1015
 30
0.0
 11
330.612241
 21
281.9215
 31
0.0
  0
LINE
  5
8D1F
  8
0
 10
318.012241
 20
280.0115
 30
0.0
 11
318.012241
 21
275.1015
 31
0.0
  0
LINE
  5
8D20
  8
0
 10
320.125241
 20
276.7525
 30
0.0
 11
320.125241
 21
279.6165
 31
0.0
  0
LINE
  5
8D21
  8
0
 10
328.866241
 20
279.6165
 30
0.0
 11
328.866241
 21
276.7525
 31
0.0
  0
LINE
  5
8D22
  8
0
 10
312.612241
 20
275.1015
 30
0.0
 11
312.612241
 21
281.9215
 31
0.0
  0
LINE
  5
8D23
  8
0
 10
300.012241
 20
280.0115
 30
0.0
 11
300.012241
 21
275.1015
 31
0.0
  0
LINE
  5
8D24
  8
0
 10
301.856241
 20
276.7525
 30
0.0
 11
301.856241
 21
279.6165
 31
0.0
  0
LINE
  5
8D25
  8
0
 10
310.867241
 20
279.6165
 30
0.0
 11
310.867241
 21
276.7525
 31
0.0
  0
TEXT
  5
8D26
  8
7-TEX2
 10
322.295691
 20
277.4975
 30
0.0
 40
1.44
  1
DISC
 41
1.149144
 72
     1
 11
324.817241
 21
278.2175
 31
0.0
 73
     2
  0
TEXT
  5
8D27
  8
7-TEX2
 10
302.624341
 20
277.3335
 30
0.0
 40
1.44
  1
BUCKET
 41
0.963217
 72
     1
 11
306.521241
 21
278.0535
 31
0.0
 73
     2
  0
LINE
  5
8D28
  8
0
 10
295.312241
 20
282.2115
 30
0.0
 11
294.012241
 21
283.5115
 31
0.0
  0
LINE
  5
8D29
  8
0
 10
294.612241
 20
281.9215
 30
0.0
 11
293.722241
 21
282.8115
 31
0.0
  0
LINE
  5
8D2A
  8
0
 10
292.090241
 20
281.6105
 30
0.0
 11
292.790241
 21
280.9105
 31
0.0
  0
LINE
  5
8D2B
  8
0
 10
286.389241
 20
281.6105
 30
0.0
 11
292.090241
 21
281.6105
 31
0.0
  0
LINE
  5
8D2C
  8
0
 10
285.689241
 20
280.9105
 30
0.0
 11
286.389241
 21
281.6105
 31
0.0
  0
LINE
  5
8D2D
  8
0
 10
285.689241
 20
279.6165
 30
0.0
 11
285.689241
 21
280.9105
 31
0.0
  0
LINE
  5
8D2E
  8
0
 10
282.612241
 20
283.5115
 30
0.0
 11
281.312241
 21
282.2115
 31
0.0
  0
LINE
  5
8D2F
  8
0
 10
282.902241
 20
282.8115
 30
0.0
 11
284.512241
 21
282.8115
 31
0.0
  0
LINE
  5
8D30
  8
0
 10
282.012241
 20
281.9215
 30
0.0
 11
282.902241
 21
282.8115
 31
0.0
  0
LINE
  5
8D31
  8
0
 10
282.012241
 20
280.0115
 30
0.0
 11
282.012241
 21
281.9215
 31
0.0
  0
LINE
  5
8D32
  8
0
 10
284.512241
 20
280.0115
 30
0.0
 11
282.012241
 21
280.0115
 31
0.0
  0
LINE
  5
8D33
  8
0
 10
284.512241
 20
282.8115
 30
0.0
 11
284.512241
 21
280.0115
 31
0.0
  0
TEXT
  5
8D34
  8
6-TEX1
 10
282.853241
 20
280.5405
 30
0.0
 40
1.6
  1
M
 41
0.7875
 72
     1
 11
283.333241
 21
281.3405
 31
0.0
 73
     2
  0
LINE
  5
8D35
  8
0
 10
294.012241
 20
283.5115
 30
0.0
 11
282.612241
 21
283.5115
 31
0.0
  0
LINE
  5
8D36
  8
0
 10
293.722241
 20
282.8115
 30
0.0
 11
284.512241
 21
282.8115
 31
0.0
  0
LINE
  5
8D37
  8
0
 10
283.744241
 20
279.6165
 30
0.0
 11
285.689241
 21
279.6165
 31
0.0
  0
LINE
  5
8D38
  8
0
 10
294.012241
 20
273.5115
 30
0.0
 11
295.312241
 21
274.8115
 31
0.0
  0
LINE
  5
8D39
  8
0
 10
293.722241
 20
274.2115
 30
0.0
 11
294.612241
 21
275.1015
 31
0.0
  0
LINE
  5
8D3A
  8
0
 10
285.689241
 20
276.1365
 30
0.0
 11
285.689241
 21
276.7525
 31
0.0
  0
LINE
  5
8D3B
  8
0
 10
287.273241
 20
276.1365
 30
0.0
 11
285.689241
 21
276.1365
 31
0.0
  0
LINE
  5
8D3C
  8
0
 10
287.273241
 20
274.6305
 30
0.0
 11
287.273241
 21
276.1365
 31
0.0
  0
LINE
  5
8D3D
  8
0
 10
291.057241
 20
274.6305
 30
0.0
 11
287.273241
 21
274.6305
 31
0.0
  0
LINE
  5
8D3E
  8
0
 10
291.057241
 20
276.1365
 30
0.0
 11
291.057241
 21
274.6305
 31
0.0
  0
LINE
  5
8D3F
  8
0
 10
292.790241
 20
276.1365
 30
0.0
 11
291.057241
 21
276.1365
 31
0.0
  0
LINE
  5
8D40
  8
0
 10
279.812241
 20
274.1905
 30
0.0
 11
281.991241
 21
272.0115
 31
0.0
  0
LINE
  5
8D41
  8
0
 10
281.312241
 20
274.8115
 30
0.0
 11
282.612241
 21
273.5115
 31
0.0
  0
LINE
  5
8D42
  8
0
 10
282.012241
 20
275.1015
 30
0.0
 11
282.902241
 21
274.2115
 31
0.0
  0
LINE
  5
8D43
  8
0
 10
282.612241
 20
273.5115
 30
0.0
 11
294.012241
 21
273.5115
 31
0.0
  0
LINE
  5
8D44
  8
0
 10
282.902241
 20
274.2115
 30
0.0
 11
293.722241
 21
274.2115
 31
0.0
  0
LINE
  5
8D45
  8
0
 10
285.689241
 20
276.7525
 30
0.0
 11
283.744241
 21
276.7525
 31
0.0
  0
LINE
  5
8D46
  8
0
 10
295.312241
 20
266.2115
 30
0.0
 11
294.012241
 21
267.5115
 31
0.0
  0
LINE
  5
8D47
  8
0
 10
295.312241
 20
258.8115
 30
0.0
 11
295.312241
 21
266.2115
 31
0.0
  0
LINE
  5
8D48
  8
0
 10
294.012241
 20
257.5115
 30
0.0
 11
295.312241
 21
258.8115
 31
0.0
  0
LINE
  5
8D49
  8
0
 10
294.612241
 20
265.9215
 30
0.0
 11
293.722241
 21
266.8115
 31
0.0
  0
LINE
  5
8D4A
  8
0
 10
294.612241
 20
259.1015
 30
0.0
 11
294.612241
 21
265.9215
 31
0.0
  0
LINE
  5
8D4B
  8
0
 10
293.722241
 20
258.2115
 30
0.0
 11
294.612241
 21
259.1015
 31
0.0
  0
TEXT
  5
8D4C
  8
7-TEX2
 10
286.951741
 20
260.3635
 30
0.0
 40
4.0
  1
7
 41
0.955125
 72
     1
 11
288.225241
 21
262.3635
 31
0.0
 73
     2
  0
LINE
  5
8D4D
  8
0
 10
281.312241
 20
258.8115
 30
0.0
 11
282.612241
 21
257.5115
 31
0.0
  0
LINE
  5
8D4E
  8
0
 10
281.312241
 20
266.2115
 30
0.0
 11
281.312241
 21
258.8115
 31
0.0
  0
LINE
  5
8D4F
  8
0
 10
282.612241
 20
267.5115
 30
0.0
 11
281.312241
 21
266.2115
 31
0.0
  0
LINE
  5
8D50
  8
0
 10
282.902241
 20
266.8115
 30
0.0
 11
284.512241
 21
266.8115
 31
0.0
  0
LINE
  5
8D51
  8
0
 10
282.012241
 20
265.9215
 30
0.0
 11
282.902241
 21
266.8115
 31
0.0
  0
LINE
  5
8D52
  8
0
 10
282.012241
 20
264.0115
 30
0.0
 11
282.012241
 21
265.9215
 31
0.0
  0
LINE
  5
8D53
  8
0
 10
284.512241
 20
264.0115
 30
0.0
 11
282.012241
 21
264.0115
 31
0.0
  0
LINE
  5
8D54
  8
0
 10
284.512241
 20
266.8115
 30
0.0
 11
284.512241
 21
264.0115
 31
0.0
  0
LINE
  5
8D55
  8
0
 10
282.012241
 20
259.1015
 30
0.0
 11
282.902241
 21
258.2115
 31
0.0
  0
LINE
  5
8D56
  8
0
 10
282.012241
 20
264.0115
 30
0.0
 11
282.012241
 21
259.1015
 31
0.0
  0
TEXT
  5
8D57
  8
6-TEX1
 10
282.967241
 20
264.4755
 30
0.0
 40
1.6
  1
P
 41
0.9
 72
     1
 11
283.447241
 21
265.2755
 31
0.0
 73
     2
  0
LINE
  5
8D58
  8
0
 10
294.012241
 20
267.5115
 30
0.0
 11
282.612241
 21
267.5115
 31
0.0
  0
LINE
  5
8D59
  8
0
 10
282.612241
 20
257.5115
 30
0.0
 11
294.012241
 21
257.5115
 31
0.0
  0
LINE
  5
8D5A
  8
0
 10
293.722241
 20
266.8115
 30
0.0
 11
284.512241
 21
266.8115
 31
0.0
  0
LINE
  5
8D5B
  8
0
 10
282.902241
 20
258.2115
 30
0.0
 11
293.722241
 21
258.2115
 31
0.0
  0
LINE
  5
8D5C
  8
0
 10
281.991241
 20
269.0115
 30
0.0
 11
279.812241
 21
266.8325
 31
0.0
  0
LINE
  5
8D5D
  8
0
 10
295.312241
 20
274.8115
 30
0.0
 11
295.312241
 21
282.2115
 31
0.0
  0
LINE
  5
8D5E
  8
0
 10
281.312241
 20
282.2115
 30
0.0
 11
281.312241
 21
274.8115
 31
0.0
  0
LINE
  5
8D5F
  8
0
 10
294.612241
 20
275.1015
 30
0.0
 11
294.612241
 21
281.9215
 31
0.0
  0
LINE
  5
8D60
  8
0
 10
282.012241
 20
280.0115
 30
0.0
 11
282.012241
 21
275.1015
 31
0.0
  0
LINE
  5
8D61
  8
0
 10
283.744241
 20
276.7525
 30
0.0
 11
283.744241
 21
279.6165
 31
0.0
  0
LINE
  5
8D62
  8
0
 10
292.790241
 20
280.9105
 30
0.0
 11
292.790241
 21
276.1365
 31
0.0
  0
TEXT
  5
8D63
  8
7-TEX2
 10
284.575341
 20
277.3335
 30
0.0
 40
1.44
  1
THERMO
 41
0.947163
 72
     1
 11
288.472241
 21
278.0535
 31
0.0
 73
     2
  0
LINE
  5
8D64
  8
0
 10
281.991241
 20
272.0115
 30
0.0
 11
330.633241
 21
272.0115
 31
0.0
  0
LINE
  5
8D65
  8
0
 10
330.633241
 20
269.0115
 30
0.0
 11
281.991241
 21
269.0115
 31
0.0
  0
LINE
  5
8D66
  8
0
 10
331.312241
 20
252.2115
 30
0.0
 11
330.012241
 21
253.5115
 31
0.0
  0
LINE
  5
8D67
  8
0
 10
330.612241
 20
251.9215
 30
0.0
 11
329.722241
 21
252.8115
 31
0.0
  0
LINE
  5
8D68
  8
0
 10
318.902241
 20
252.8115
 30
0.0
 11
320.512241
 21
252.8115
 31
0.0
  0
LINE
  5
8D69
  8
0
 10
318.012241
 20
251.9215
 30
0.0
 11
318.902241
 21
252.8115
 31
0.0
  0
LINE
  5
8D6A
  8
0
 10
318.012241
 20
250.0115
 30
0.0
 11
318.012241
 21
251.9215
 31
0.0
  0
LINE
  5
8D6B
  8
0
 10
320.512241
 20
250.0115
 30
0.0
 11
318.012241
 21
250.0115
 31
0.0
  0
LINE
  5
8D6C
  8
0
 10
320.512241
 20
252.8115
 30
0.0
 11
320.512241
 21
250.0115
 31
0.0
  0
TEXT
  5
8D6D
  8
6-TEX1
 10
318.901241
 20
250.5045
 30
0.0
 40
1.6
  1
U
 41
0.9
 72
     1
 11
319.381241
 21
251.3045
 31
0.0
 73
     2
  0
LINE
  5
8D6E
  8
0
 10
330.012241
 20
253.5115
 30
0.0
 11
318.612241
 21
253.5115
 31
0.0
  0
LINE
  5
8D6F
  8
0
 10
329.722241
 20
252.8115
 30
0.0
 11
320.512241
 21
252.8115
 31
0.0
  0
LINE
  5
8D70
  8
0
 10
330.012241
 20
243.5115
 30
0.0
 11
331.312241
 21
244.8115
 31
0.0
  0
LINE
  5
8D71
  8
0
 10
331.312241
 20
238.2115
 30
0.0
 11
330.012241
 21
239.5115
 31
0.0
  0
LINE
  5
8D72
  8
0
 10
329.722241
 20
244.2115
 30
0.0
 11
330.612241
 21
245.1015
 31
0.0
  0
LINE
  5
8D73
  8
0
 10
330.612241
 20
237.9215
 30
0.0
 11
329.722241
 21
238.8115
 31
0.0
  0
LINE
  5
8D74
  8
0
 10
318.012241
 20
245.1015
 30
0.0
 11
318.902241
 21
244.2115
 31
0.0
  0
LINE
  5
8D75
  8
0
 10
318.902241
 20
238.8115
 30
0.0
 11
320.512241
 21
238.8115
 31
0.0
  0
LINE
  5
8D76
  8
0
 10
318.012241
 20
237.9215
 30
0.0
 11
318.902241
 21
238.8115
 31
0.0
  0
LINE
  5
8D77
  8
0
 10
318.612241
 20
243.5115
 30
0.0
 11
330.012241
 21
243.5115
 31
0.0
  0
LINE
  5
8D78
  8
0
 10
330.012241
 20
239.5115
 30
0.0
 11
318.612241
 21
239.5115
 31
0.0
  0
LINE
  5
8D79
  8
0
 10
318.902241
 20
244.2115
 30
0.0
 11
329.722241
 21
244.2115
 31
0.0
  0
LINE
  5
8D7A
  8
0
 10
329.722241
 20
238.8115
 30
0.0
 11
320.512241
 21
238.8115
 31
0.0
  0
LINE
  5
8D7B
  8
0
 10
331.312241
 20
244.8115
 30
0.0
 11
331.312241
 21
252.2115
 31
0.0
  0
LINE
  5
8D7C
  8
0
 10
330.612241
 20
245.1015
 30
0.0
 11
330.612241
 21
251.9215
 31
0.0
  0
LINE
  5
8D7D
  8
0
 10
318.012241
 20
250.0115
 30
0.0
 11
318.012241
 21
245.1015
 31
0.0
  0
TEXT
  5
8D7E
  8
7-TEX2
 10
323.532741
 20
246.3735
 30
0.0
 40
4.0
  1
6
 41
1.028596
 72
     1
 11
324.806241
 21
248.3735
 31
0.0
 73
     2
  0
LINE
  5
8D7F
  8
0
 10
313.312241
 20
252.2115
 30
0.0
 11
312.012241
 21
253.5115
 31
0.0
  0
LINE
  5
8D80
  8
0
 10
312.612241
 20
251.9215
 30
0.0
 11
311.722241
 21
252.8115
 31
0.0
  0
LINE
  5
8D81
  8
0
 10
300.612241
 20
253.5115
 30
0.0
 11
299.312241
 21
252.2115
 31
0.0
  0
LINE
  5
8D82
  8
0
 10
300.902241
 20
252.8115
 30
0.0
 11
302.512241
 21
252.8115
 31
0.0
  0
LINE
  5
8D83
  8
0
 10
300.012241
 20
251.9215
 30
0.0
 11
300.902241
 21
252.8115
 31
0.0
  0
LINE
  5
8D84
  8
0
 10
300.012241
 20
250.0115
 30
0.0
 11
300.012241
 21
251.9215
 31
0.0
  0
LINE
  5
8D85
  8
0
 10
302.512241
 20
250.0115
 30
0.0
 11
300.012241
 21
250.0115
 31
0.0
  0
LINE
  5
8D86
  8
0
 10
302.512241
 20
252.8115
 30
0.0
 11
302.512241
 21
250.0115
 31
0.0
  0
CIRCLE
  5
8D87
  8
0
 10
297.312241
 20
248.5135
 30
0.0
 40
1.49997
  0
TEXT
  5
8D88
  8
6-TEX1
 10
300.915241
 20
250.5615
 30
0.0
 40
1.6
  1
T
 41
0.9
 72
     1
 11
301.395241
 21
251.3615
 31
0.0
 73
     2
  0
LINE
  5
8D89
  8
0
 10
312.012241
 20
253.5115
 30
0.0
 11
300.612241
 21
253.5115
 31
0.0
  0
LINE
  5
8D8A
  8
0
 10
311.722241
 20
252.8115
 30
0.0
 11
302.512241
 21
252.8115
 31
0.0
  0
LINE
  5
8D8B
  8
0
 10
312.012241
 20
243.5115
 30
0.0
 11
313.312241
 21
244.8115
 31
0.0
  0
LINE
  5
8D8C
  8
0
 10
313.312241
 20
238.2115
 30
0.0
 11
312.012241
 21
239.5115
 31
0.0
  0
LINE
  5
8D8D
  8
0
 10
311.722241
 20
244.2115
 30
0.0
 11
312.612241
 21
245.1015
 31
0.0
  0
LINE
  5
8D8E
  8
0
 10
312.612241
 20
237.9215
 30
0.0
 11
311.722241
 21
238.8115
 31
0.0
  0
LINE
  5
8D8F
  8
0
 10
299.312241
 20
244.8115
 30
0.0
 11
300.612241
 21
243.5115
 31
0.0
  0
LINE
  5
8D90
  8
0
 10
300.612241
 20
239.5115
 30
0.0
 11
299.312241
 21
238.2115
 31
0.0
  0
LINE
  5
8D91
  8
0
 10
300.012241
 20
245.1015
 30
0.0
 11
300.902241
 21
244.2115
 31
0.0
  0
LINE
  5
8D92
  8
0
 10
300.902241
 20
238.8115
 30
0.0
 11
302.512241
 21
238.8115
 31
0.0
  0
LINE
  5
8D93
  8
0
 10
300.012241
 20
237.9215
 30
0.0
 11
300.902241
 21
238.8115
 31
0.0
  0
LINE
  5
8D94
  8
0
 10
300.612241
 20
243.5115
 30
0.0
 11
312.012241
 21
243.5115
 31
0.0
  0
LINE
  5
8D95
  8
0
 10
312.012241
 20
239.5115
 30
0.0
 11
300.612241
 21
239.5115
 31
0.0
  0
LINE
  5
8D96
  8
0
 10
300.902241
 20
244.2115
 30
0.0
 11
311.722241
 21
244.2115
 31
0.0
  0
LINE
  5
8D97
  8
0
 10
311.722241
 20
238.8115
 30
0.0
 11
302.512241
 21
238.8115
 31
0.0
  0
LINE
  5
8D98
  8
0
 10
317.312241
 20
252.2115
 30
0.0
 11
317.312241
 21
244.8115
 31
0.0
  0
LINE
  5
8D99
  8
0
 10
313.312241
 20
244.8115
 30
0.0
 11
313.312241
 21
252.2115
 31
0.0
  0
LINE
  5
8D9A
  8
0
 10
299.312241
 20
252.2115
 30
0.0
 11
299.312241
 21
244.8115
 31
0.0
  0
LINE
  5
8D9B
  8
0
 10
312.612241
 20
245.1015
 30
0.0
 11
312.612241
 21
251.9215
 31
0.0
  0
LINE
  5
8D9C
  8
0
 10
300.012241
 20
250.0115
 30
0.0
 11
300.012241
 21
245.1015
 31
0.0
  0
TEXT
  5
8D9D
  8
7-TEX2
 10
305.038741
 20
246.3735
 30
0.0
 40
4.0
  1
5
 41
0.955125
 72
     1
 11
306.312241
 21
248.3735
 31
0.0
 73
     2
  0
LINE
  5
8D9E
  8
0
 10
317.312241
 20
244.8115
 30
0.0
 11
318.612241
 21
243.5115
 31
0.0
  0
LINE
  5
8D9F
  8
0
 10
318.612241
 20
253.5115
 30
0.0
 11
317.312241
 21
252.2115
 31
0.0
  0
LINE
  5
8DA0
  8
0
 10
318.612241
 20
239.5115
 30
0.0
 11
317.312241
 21
238.2115
 31
0.0
  0
LINE
  5
8DA1
  8
0
 10
295.312241
 20
252.2115
 30
0.0
 11
294.012241
 21
253.5115
 31
0.0
  0
LINE
  5
8DA2
  8
0
 10
294.612241
 20
251.9215
 30
0.0
 11
293.722241
 21
252.8115
 31
0.0
  0
LINE
  5
8DA3
  8
0
 10
282.612241
 20
253.5115
 30
0.0
 11
281.312241
 21
252.2115
 31
0.0
  0
LINE
  5
8DA4
  8
0
 10
282.902241
 20
252.8115
 30
0.0
 11
284.512241
 21
252.8115
 31
0.0
  0
LINE
  5
8DA5
  8
0
 10
282.012241
 20
251.9215
 30
0.0
 11
282.902241
 21
252.8115
 31
0.0
  0
LINE
  5
8DA6
  8
0
 10
282.012241
 20
250.0115
 30
0.0
 11
282.012241
 21
251.9215
 31
0.0
  0
LINE
  5
8DA7
  8
0
 10
284.512241
 20
250.0115
 30
0.0
 11
282.012241
 21
250.0115
 31
0.0
  0
LINE
  5
8DA8
  8
0
 10
284.512241
 20
252.8115
 30
0.0
 11
284.512241
 21
250.0115
 31
0.0
  0
TEXT
  5
8DA9
  8
6-TEX1
 10
282.910241
 20
250.5235
 30
0.0
 40
1.6
  1
S
 41
0.9
 72
     1
 11
283.390241
 21
251.3235
 31
0.0
 73
     2
  0
LINE
  5
8DAA
  8
0
 10
294.012241
 20
253.5115
 30
0.0
 11
282.612241
 21
253.5115
 31
0.0
  0
LINE
  5
8DAB
  8
0
 10
293.722241
 20
252.8115
 30
0.0
 11
284.512241
 21
252.8115
 31
0.0
  0
LINE
  5
8DAC
  8
0
 10
294.012241
 20
243.5115
 30
0.0
 11
295.312241
 21
244.8115
 31
0.0
  0
LINE
  5
8DAD
  8
0
 10
295.312241
 20
238.2115
 30
0.0
 11
294.012241
 21
239.5115
 31
0.0
  0
LINE
  5
8DAE
  8
0
 10
293.722241
 20
244.2115
 30
0.0
 11
294.612241
 21
245.1015
 31
0.0
  0
LINE
  5
8DAF
  8
0
 10
294.612241
 20
237.9215
 30
0.0
 11
293.722241
 21
238.8115
 31
0.0
  0
LINE
  5
8DB0
  8
0
 10
281.312241
 20
244.8115
 30
0.0
 11
282.612241
 21
243.5115
 31
0.0
  0
LINE
  5
8DB1
  8
0
 10
282.612241
 20
239.5115
 30
0.0
 11
281.312241
 21
238.2115
 31
0.0
  0
LINE
  5
8DB2
  8
0
 10
282.012241
 20
245.1015
 30
0.0
 11
282.902241
 21
244.2115
 31
0.0
  0
LINE
  5
8DB3
  8
0
 10
282.902241
 20
238.8115
 30
0.0
 11
284.512241
 21
238.8115
 31
0.0
  0
LINE
  5
8DB4
  8
0
 10
282.012241
 20
237.9215
 30
0.0
 11
282.902241
 21
238.8115
 31
0.0
  0
LINE
  5
8DB5
  8
0
 10
282.612241
 20
243.5115
 30
0.0
 11
294.012241
 21
243.5115
 31
0.0
  0
LINE
  5
8DB6
  8
0
 10
294.012241
 20
239.5115
 30
0.0
 11
282.612241
 21
239.5115
 31
0.0
  0
LINE
  5
8DB7
  8
0
 10
282.902241
 20
244.2115
 30
0.0
 11
293.722241
 21
244.2115
 31
0.0
  0
LINE
  5
8DB8
  8
0
 10
293.722241
 20
238.8115
 30
0.0
 11
284.512241
 21
238.8115
 31
0.0
  0
LINE
  5
8DB9
  8
0
 10
295.312241
 20
244.8115
 30
0.0
 11
295.312241
 21
252.2115
 31
0.0
  0
LINE
  5
8DBA
  8
0
 10
281.312241
 20
252.2115
 30
0.0
 11
281.312241
 21
244.8115
 31
0.0
  0
LINE
  5
8DBB
  8
0
 10
294.612241
 20
245.1015
 30
0.0
 11
294.612241
 21
251.9215
 31
0.0
  0
LINE
  5
8DBC
  8
0
 10
282.012241
 20
250.0115
 30
0.0
 11
282.012241
 21
245.1015
 31
0.0
  0
TEXT
  5
8DBD
  8
7-TEX2
 10
287.046741
 20
246.3925
 30
0.0
 40
4.0
  1
4
 41
0.89145
 72
     1
 11
288.320241
 21
248.3925
 31
0.0
 73
     2
  0
LINE
  5
8DBF
  8
0
 10
277.902241
 20
357.8115
 30
0.0
 11
277.012241
 21
356.9215
 31
0.0
  0
LINE
  5
8DC0
  8
0
 10
277.612241
 20
358.5115
 30
0.0
 11
276.312241
 21
357.2115
 31
0.0
  0
LINE
  5
8DC1
  8
0
 10
276.312241
 20
349.8115
 30
0.0
 11
277.612241
 21
348.5115
 31
0.0
  0
LINE
  5
8DC6
  8
0
 10
277.012241
 20
350.1015
 30
0.0
 11
277.902241
 21
349.2115
 31
0.0
  0
ARC
  5
8DC9
  8
0
 10
279.312199
 20
353.510638
 30
0.0
 40
10.999862
 50
89.999781
 51
230.478496
  0
ARC
  5
8DCA
  8
0
 10
279.31301
 20
353.511007
 30
0.0
 40
14.499493
 50
89.999086
 51
223.602039
  0
LINE
  5
8DCB
  8
5
 10
275.062241
 20
375.0105
 30
0.0
 11
337.562241
 21
375.0105
 31
0.0
  0
LINE
  5
8DD0
  8
0
 10
269.562241
 20
371.5105
 30
0.0
 11
343.062241
 21
371.5105
 31
0.0
  0
LINE
  5
8E55
  8
0
 10
262.563241
 20
362.6685
 30
0.0
 11
265.313241
 21
368.0105
 31
0.0
  0
LINE
  5
8E57
  8
0
 10
277.012241
 20
356.9215
 30
0.0
 11
277.012241
 21
350.1015
 31
0.0
  0
LINE
  5
8E61
  8
0
 10
276.312241
 20
357.2115
 30
0.0
 11
276.312241
 21
349.8115
 31
0.0
  0
LINE
  5
8E6C
  8
0
 10
272.322241
 20
345.0255
 30
0.0
 11
272.312241
 21
345.0255
 31
0.0
  0
LINE
  5
8E6D
  8
0
 10
272.322241
 20
345.0255
 30
0.0
 11
272.312241
 21
345.0255
 31
0.0
  0
LINE
  5
8E71
  8
0
 10
262.563241
 20
341.2615
 30
0.0
 11
262.563241
 21
362.6685
 31
0.0
  0
LINE
  5
8E78
  8
0
 10
267.813241
 20
334.5115
 30
0.0
 11
262.563241
 21
341.2615
 31
0.0
  0
LINE
  5
8E7D
  8
0
 10
332.812241
 20
304.1905
 30
0.0
 11
332.812241
 21
340.8325
 31
0.0
  0
LINE
  5
8E7E
  8
0
 10
279.812241
 20
340.8325
 30
0.0
 11
279.812241
 21
304.1905
 31
0.0
  0
LINE
  5
8EC6
  8
0
 10
331.312241
 20
326.2115
 30
0.0
 11
330.012241
 21
327.5115
 31
0.0
  0
LINE
  5
8EC7
  8
0
 10
330.612241
 20
325.9215
 30
0.0
 11
329.722241
 21
326.8115
 31
0.0
  0
LINE
  5
8EC8
  8
0
 10
330.612241
 20
319.1015
 30
0.0
 11
330.612241
 21
325.9215
 31
0.0
  0
LINE
  5
8EC9
  8
5
 10
321.808241
 20
326.3195
 30
0.0
 11
321.808241
 21
325.3195
 31
0.0
  0
LINE
  5
8ECA
  8
5
 10
325.076241
 20
326.3195
 30
0.0
 11
321.808241
 21
326.3195
 31
0.0
  0
LINE
  5
8ECB
  8
5
 10
325.076241
 20
326.8195
 30
0.0
 11
325.076241
 21
326.3195
 31
0.0
  0
LINE
  5
8ECC
  8
5
 10
326.808241
 20
325.8195
 30
0.0
 11
325.076241
 21
326.8195
 31
0.0
  0
LINE
  5
8ECD
  8
5
 10
325.076241
 20
324.8195
 30
0.0
 11
326.808241
 21
325.8195
 31
0.0
  0
LINE
  5
8ECE
  8
5
 10
325.076241
 20
325.3195
 30
0.0
 11
325.076241
 21
324.8195
 31
0.0
  0
LINE
  5
8ECF
  8
5
 10
321.808241
 20
325.3195
 30
0.0
 11
325.076241
 21
325.3195
 31
0.0
  0
LINE
  5
8ED0
  8
0
 10
320.812241
 20
327.5115
 30
0.0
 11
318.612241
 21
327.5115
 31
0.0
  0
LINE
  5
8ED1
  8
0
 10
321.312241
 20
328.0115
 30
0.0
 11
320.812241
 21
327.5115
 31
0.0
  0
LINE
  5
8ED2
  8
0
 10
327.312241
 20
328.0115
 30
0.0
 11
321.312241
 21
328.0115
 31
0.0
  0
LINE
  5
8ED3
  8
0
 10
327.812241
 20
327.5115
 30
0.0
 11
327.312241
 21
328.0115
 31
0.0
  0
LINE
  5
8ED4
  8
0
 10
318.902241
 20
326.8115
 30
0.0
 11
320.512241
 21
326.8115
 31
0.0
  0
LINE
  5
8ED5
  8
0
 10
318.012241
 20
325.9215
 30
0.0
 11
318.902241
 21
326.8115
 31
0.0
  0
LINE
  5
8ED6
  8
0
 10
318.012241
 20
324.0115
 30
0.0
 11
318.012241
 21
325.9215
 31
0.0
  0
LINE
  5
8ED7
  8
0
 10
320.512241
 20
324.0115
 30
0.0
 11
318.012241
 21
324.0115
 31
0.0
  0
LINE
  5
8ED8
  8
0
 10
320.512241
 20
326.8115
 30
0.0
 11
320.512241
 21
324.0115
 31
0.0
  0
LINE
  5
8ED9
  8
0
 10
320.812241
 20
326.8115
 30
0.0
 11
320.512241
 21
326.8115
 31
0.0
  0
LINE
  5
8EDA
  8
0
 10
321.312241
 20
327.3115
 30
0.0
 11
320.812241
 21
326.8115
 31
0.0
  0
LINE
  5
8EDB
  8
0
 10
327.312241
 20
327.3115
 30
0.0
 11
321.312241
 21
327.3115
 31
0.0
  0
LINE
  5
8EDC
  8
0
 10
327.812241
 20
326.8115
 30
0.0
 11
327.312241
 21
327.3115
 31
0.0
  0
LINE
  5
8EDD
  8
0
 10
318.012241
 20
324.0115
 30
0.0
 11
318.012241
 21
319.1015
 31
0.0
  0
TEXT
  5
8EDE
  8
6-TEX1
 10
318.820241
 20
324.6325
 30
0.0
 40
1.6
  1
F
 41
0.969231
 72
     1
 11
319.300241
 21
325.4325
 31
0.0
 73
     2
  0
LINE
  5
8EDF
  8
0
 10
330.012241
 20
327.5115
 30
0.0
 11
327.812241
 21
327.5115
 31
0.0
  0
LINE
  5
8EE0
  8
0
 10
329.722241
 20
326.8115
 30
0.0
 11
327.812241
 21
326.8115
 31
0.0
  0
TEXT
  5
8EE1
  8
7-TEX2
 10
320.925341
 20
321.3205
 30
0.0
 40
1.6
  1
MODIFY
 41
1.042751
 72
     1
 11
325.255241
 21
322.1205
 31
0.0
 73
     2
  0
LINE
  5
8EE2
  8
0
 10
312.012241
 20
327.5115
 30
0.0
 11
309.812241
 21
327.5115
 31
0.0
  0
LINE
  5
8EE3
  8
0
 10
313.312241
 20
326.2115
 30
0.0
 11
312.012241
 21
327.5115
 31
0.0
  0
LINE
  5
8EE4
  8
0
 10
311.722241
 20
326.8115
 30
0.0
 11
309.812241
 21
326.8115
 31
0.0
  0
LINE
  5
8EE5
  8
0
 10
312.612241
 20
325.9215
 30
0.0
 11
311.722241
 21
326.8115
 31
0.0
  0
LINE
  5
8EE6
  8
0
 10
312.612241
 20
319.1015
 30
0.0
 11
312.612241
 21
325.9215
 31
0.0
  0
LINE
  5
8EE7
  8
5
 10
306.812241
 20
322.0205
 30
0.0
 11
306.812241
 21
324.8555
 31
0.0
  0
LINE
  5
8EE8
  8
5
 10
307.562241
 20
322.0205
 30
0.0
 11
306.812241
 21
322.0205
 31
0.0
  0
LINE
  5
8EE9
  8
0
 10
302.812241
 20
327.5115
 30
0.0
 11
300.612241
 21
327.5115
 31
0.0
  0
LINE
  5
8EEA
  8
0
 10
300.612241
 20
327.5115
 30
0.0
 11
299.312241
 21
326.2115
 31
0.0
  0
LINE
  5
8EEB
  8
0
 10
300.902241
 20
326.8115
 30
0.0
 11
302.512241
 21
326.8115
 31
0.0
  0
LINE
  5
8EEC
  8
0
 10
300.012241
 20
325.9215
 30
0.0
 11
300.902241
 21
326.8115
 31
0.0
  0
LINE
  5
8EED
  8
0
 10
300.012241
 20
324.0115
 30
0.0
 11
300.012241
 21
325.9215
 31
0.0
  0
LINE
  5
8EEE
  8
0
 10
302.512241
 20
324.0115
 30
0.0
 11
300.012241
 21
324.0115
 31
0.0
  0
LINE
  5
8EEF
  8
0
 10
302.512241
 20
326.8115
 30
0.0
 11
302.512241
 21
324.0115
 31
0.0
  0
LINE
  5
8EF0
  8
0
 10
302.812241
 20
326.8115
 30
0.0
 11
302.512241
 21
326.8115
 31
0.0
  0
LINE
  5
8EF1
  8
0
 10
300.012241
 20
324.0115
 30
0.0
 11
300.012241
 21
319.1015
 31
0.0
  0
LINE
  5
8EF2
  8
5
 10
305.062241
 20
322.0205
 30
0.0
 11
306.312241
 21
319.8555
 31
0.0
  0
LINE
  5
8EF3
  8
5
 10
305.812241
 20
322.0205
 30
0.0
 11
305.062241
 21
322.0205
 31
0.0
  0
LINE
  5
8EF4
  8
5
 10
305.812241
 20
324.8555
 30
0.0
 11
305.812241
 21
322.0205
 31
0.0
  0
TEXT
  5
8EF5
  8
6-TEX1
 10
300.820241
 20
324.6325
 30
0.0
 40
1.6
  1
E
 41
0.969231
 72
     1
 11
301.300241
 21
325.4325
 31
0.0
 73
     2
  0
LINE
  5
8EF6
  8
0
 10
309.812241
 20
327.5115
 30
0.0
 11
302.812241
 21
327.5115
 31
0.0
  0
LINE
  5
8EF7
  8
0
 10
309.812241
 20
326.8115
 30
0.0
 11
302.812241
 21
326.8115
 31
0.0
  0
LINE
  5
8EF8
  8
5
 10
306.812241
 20
324.8555
 30
0.0
 11
305.812241
 21
324.8555
 31
0.0
  0
LINE
  5
8EF9
  8
5
 10
306.312241
 20
319.8555
 30
0.0
 11
307.562241
 21
322.0205
 31
0.0
  0
LINE
  5
8EFA
  8
0
 10
318.612241
 20
327.5115
 30
0.0
 11
317.312241
 21
326.2115
 31
0.0
  0
LINE
  5
8EFB
  8
0
 10
331.312241
 20
312.2115
 30
0.0
 11
330.012241
 21
313.5115
 31
0.0
  0
LINE
  5
8EFC
  8
0
 10
330.612241
 20
311.9215
 30
0.0
 11
329.722241
 21
312.8115
 31
0.0
  0
LINE
  5
8EFD
  8
0
 10
330.012241
 20
317.5115
 30
0.0
 11
331.312241
 21
318.8115
 31
0.0
  0
LINE
  5
8EFE
  8
0
 10
318.902241
 20
312.8115
 30
0.0
 11
320.512241
 21
312.8115
 31
0.0
  0
LINE
  5
8EFF
  8
0
 10
318.012241
 20
311.9215
 30
0.0
 11
318.902241
 21
312.8115
 31
0.0
  0
LINE
  5
8F00
  8
0
 10
318.012241
 20
310.0115
 30
0.0
 11
318.012241
 21
311.9215
 31
0.0
  0
LINE
  5
8F01
  8
0
 10
320.512241
 20
310.0115
 30
0.0
 11
318.012241
 21
310.0115
 31
0.0
  0
LINE
  5
8F02
  8
0
 10
320.512241
 20
312.8115
 30
0.0
 11
320.512241
 21
310.0115
 31
0.0
  0
TEXT
  5
8F03
  8
6-TEX1
 10
319.267241
 20
310.5185
 30
0.0
 40
1.6
  1
I
 41
0.8
 72
     1
 11
319.267241
 21
311.3185
 31
0.0
 73
     2
  0
LINE
  5
8F04
  8
0
 10
330.012241
 20
313.5115
 30
0.0
 11
318.612241
 21
313.5115
 31
0.0
  0
LINE
  5
8F05
  8
0
 10
329.722241
 20
312.8115
 30
0.0
 11
320.512241
 21
312.8115
 31
0.0
  0
LINE
  5
8F06
  8
0
 10
318.612241
 20
317.5115
 30
0.0
 11
330.012241
 21
317.5115
 31
0.0
  0
LINE
  5
8F07
  8
0
 10
318.902241
 20
318.2115
 30
0.0
 11
329.722241
 21
318.2115
 31
0.0
  0
TEXT
  5
8F08
  8
7-TEX2
 10
321.825441
 20
308.8405
 30
0.0
 40
1.6
  1
INFOR
 41
1.114313
 72
     1
 11
325.391241
 21
309.6405
 31
0.0
 73
     2
  0
LINE
  5
8F09
  8
0
 10
330.012241
 20
303.5115
 30
0.0
 11
331.312241
 21
304.8115
 31
0.0
  0
LINE
  5
8F0A
  8
0
 10
330.633241
 20
302.0115
 30
0.0
 11
332.812241
 21
304.1905
 31
0.0
  0
LINE
  5
8F0B
  8
0
 10
329.722241
 20
304.2115
 30
0.0
 11
330.612241
 21
305.1015
 31
0.0
  0
LINE
  5
8F0C
  8
0
 10
318.012241
 20
305.1015
 30
0.0
 11
318.902241
 21
304.2115
 31
0.0
  0
LINE
  5
8F0D
  8
0
 10
318.612241
 20
303.5115
 30
0.0
 11
330.012241
 21
303.5115
 31
0.0
  0
LINE
  5
8F0E
  8
0
 10
318.902241
 20
304.2115
 30
0.0
 11
329.722241
 21
304.2115
 31
0.0
  0
TEXT
  5
8F0F
  8
7-TEX2
 10
320.487341
 20
305.8875
 30
0.0
 40
1.6
  1
MATION
 41
1.052406
 72
     1
 11
324.817241
 21
306.6875
 31
0.0
 73
     2
  0
LINE
  5
8F10
  8
0
 10
331.312241
 20
304.8115
 30
0.0
 11
331.312241
 21
312.2115
 31
0.0
  0
LINE
  5
8F11
  8
0
 10
330.612241
 20
305.1015
 30
0.0
 11
330.612241
 21
311.9215
 31
0.0
  0
LINE
  5
8F12
  8
0
 10
318.012241
 20
310.0115
 30
0.0
 11
318.012241
 21
305.1015
 31
0.0
  0
LINE
  5
8F13
  8
0
 10
313.312241
 20
312.2115
 30
0.0
 11
312.012241
 21
313.5115
 31
0.0
  0
LINE
  5
8F14
  8
0
 10
312.612241
 20
311.9215
 30
0.0
 11
311.722241
 21
312.8115
 31
0.0
  0
LINE
  5
8F15
  8
0
 10
312.012241
 20
317.5115
 30
0.0
 11
313.312241
 21
318.8115
 31
0.0
  0
LINE
  5
8F16
  8
0
 10
300.612241
 20
313.5115
 30
0.0
 11
299.312241
 21
312.2115
 31
0.0
  0
LINE
  5
8F17
  8
0
 10
300.902241
 20
312.8115
 30
0.0
 11
302.512241
 21
312.8115
 31
0.0
  0
LINE
  5
8F18
  8
0
 10
300.012241
 20
311.9215
 30
0.0
 11
300.902241
 21
312.8115
 31
0.0
  0
LINE
  5
8F19
  8
0
 10
300.012241
 20
310.0115
 30
0.0
 11
300.012241
 21
311.9215
 31
0.0
  0
LINE
  5
8F1A
  8
0
 10
302.512241
 20
310.0115
 30
0.0
 11
300.012241
 21
310.0115
 31
0.0
  0
LINE
  5
8F1B
  8
0
 10
302.512241
 20
312.8115
 30
0.0
 11
302.512241
 21
310.0115
 31
0.0
  0
LINE
  5
8F1C
  8
0
 10
299.312241
 20
318.8115
 30
0.0
 11
300.612241
 21
317.5115
 31
0.0
  0
TEXT
  5
8F1D
  8
6-TEX1
 10
300.782241
 20
310.5765
 30
0.0
 40
1.6
  1
H
 41
0.9
 72
     1
 11
301.262241
 21
311.3765
 31
0.0
 73
     2
  0
LINE
  5
8F1E
  8
0
 10
312.012241
 20
313.5115
 30
0.0
 11
300.612241
 21
313.5115
 31
0.0
  0
LINE
  5
8F1F
  8
0
 10
311.722241
 20
312.8115
 30
0.0
 11
302.512241
 21
312.8115
 31
0.0
  0
LINE
  5
8F20
  8
0
 10
300.612241
 20
317.5115
 30
0.0
 11
312.012241
 21
317.5115
 31
0.0
  0
LINE
  5
8F21
  8
0
 10
300.902241
 20
318.2115
 30
0.0
 11
311.722241
 21
318.2115
 31
0.0
  0
LINE
  5
8F22
  8
0
 10
312.012241
 20
303.5115
 30
0.0
 11
313.312241
 21
304.8115
 31
0.0
  0
LINE
  5
8F23
  8
0
 10
311.722241
 20
304.2115
 30
0.0
 11
312.612241
 21
305.1015
 31
0.0
  0
LINE
  5
8F24
  8
0
 10
299.312241
 20
304.8115
 30
0.0
 11
300.612241
 21
303.5115
 31
0.0
  0
LINE
  5
8F25
  8
0
 10
300.012241
 20
305.1015
 30
0.0
 11
300.902241
 21
304.2115
 31
0.0
  0
LINE
  5
8F26
  8
0
 10
300.612241
 20
303.5115
 30
0.0
 11
312.012241
 21
303.5115
 31
0.0
  0
LINE
  5
8F27
  8
0
 10
300.902241
 20
304.2115
 30
0.0
 11
311.722241
 21
304.2115
 31
0.0
  0
TEXT
  5
8F28
  8
7-TEX2
 10
305.533241
 20
305.9335
 30
0.0
 40
2.0
  1
No.
 41
1.243884
 72
     1
 11
308.080241
 21
306.9335
 31
0.0
 73
     2
  0
LINE
  5
8F29
  8
0
 10
317.312241
 20
312.2115
 30
0.0
 11
317.312241
 21
304.8115
 31
0.0
  0
LINE
  5
8F2A
  8
0
 10
313.312241
 20
304.8115
 30
0.0
 11
313.312241
 21
312.2115
 31
0.0
  0
LINE
  5
8F2B
  8
0
 10
299.312241
 20
312.2115
 30
0.0
 11
299.312241
 21
304.8115
 31
0.0
  0
LINE
  5
8F2C
  8
0
 10
312.612241
 20
305.1015
 30
0.0
 11
312.612241
 21
311.9215
 31
0.0
  0
LINE
  5
8F2D
  8
0
 10
300.012241
 20
310.0115
 30
0.0
 11
300.012241
 21
305.1015
 31
0.0
  0
CIRCLE
  5
8F2E
  8
0
 10
297.312241
 20
308.5125
 30
0.0
 40
1.49997
  0
TEXT
  5
8F2F
  8
7-TEX2
 10
303.758141
 20
308.6405
 30
0.0
 40
2.0
  1
TRAP
 41
0.980588
 72
     1
 11
307.260241
 21
309.6405
 31
0.0
 73
     2
  0
LINE
  5
8F30
  8
0
 10
317.312241
 20
304.8115
 30
0.0
 11
318.612241
 21
303.5115
 31
0.0
  0
LINE
  5
8F31
  8
0
 10
318.612241
 20
313.5115
 30
0.0
 11
317.312241
 21
312.2115
 31
0.0
  0
LINE
  5
8F32
  8
0
 10
317.312241
 20
318.8115
 30
0.0
 11
318.612241
 21
317.5115
 31
0.0
  0
LINE
  5
8F33
  8
0
 10
313.312241
 20
318.8115
 30
0.0
 11
313.312241
 21
326.2115
 31
0.0
  0
LINE
  5
8F34
  8
0
 10
299.312241
 20
326.2115
 30
0.0
 11
299.312241
 21
318.8115
 31
0.0
  0
LINE
  5
8F35
  8
0
 10
311.722241
 20
318.2115
 30
0.0
 11
312.612241
 21
319.1015
 31
0.0
  0
LINE
  5
8F36
  8
0
 10
300.012241
 20
319.1015
 30
0.0
 11
300.902241
 21
318.2115
 31
0.0
  0
LINE
  5
8F37
  8
0
 10
331.312241
 20
318.8115
 30
0.0
 11
331.312241
 21
326.2115
 31
0.0
  0
LINE
  5
8F38
  8
0
 10
317.312241
 20
326.2115
 30
0.0
 11
317.312241
 21
318.8115
 31
0.0
  0
LINE
  5
8F39
  8
0
 10
329.722241
 20
318.2115
 30
0.0
 11
330.612241
 21
319.1015
 31
0.0
  0
LINE
  5
8F3A
  8
0
 10
318.012241
 20
319.1015
 30
0.0
 11
318.902241
 21
318.2115
 31
0.0
  0
TEXT
  5
8F3B
  8
7-TEX2
 10
321.274441
 20
318.7235
 30
0.0
 40
1.6
  1
JUDGE
 41
1.006476
 72
     1
 11
324.840241
 21
319.5235
 31
0.0
 73
     2
  0
LINE
  5
8F3C
  8
0
 10
291.312241
 20
328.0115
 30
0.0
 11
285.312241
 21
328.0115
 31
0.0
  0
LINE
  5
8F3D
  8
0
 10
291.812241
 20
327.5115
 30
0.0
 11
291.312241
 21
328.0115
 31
0.0
  0
LINE
  5
8F3E
  8
0
 10
294.012241
 20
327.5115
 30
0.0
 11
291.812241
 21
327.5115
 31
0.0
  0
LINE
  5
8F3F
  8
0
 10
295.312241
 20
326.2115
 30
0.0
 11
294.012241
 21
327.5115
 31
0.0
  0
LINE
  5
8F40
  8
0
 10
291.312241
 20
327.3115
 30
0.0
 11
285.312241
 21
327.3115
 31
0.0
  0
LINE
  5
8F41
  8
0
 10
291.812241
 20
326.8115
 30
0.0
 11
291.312241
 21
327.3115
 31
0.0
  0
LINE
  5
8F42
  8
0
 10
293.722241
 20
326.8115
 30
0.0
 11
291.812241
 21
326.8115
 31
0.0
  0
LINE
  5
8F43
  8
0
 10
294.612241
 20
325.9215
 30
0.0
 11
293.722241
 21
326.8115
 31
0.0
  0
LINE
  5
8F44
  8
0
 10
294.612241
 20
319.1015
 30
0.0
 11
294.612241
 21
325.9215
 31
0.0
  0
LINE
  5
8F45
  8
5
 10
290.908241
 20
326.3935
 30
0.0
 11
290.908241
 21
325.3935
 31
0.0
  0
LINE
  5
8F46
  8
5
 10
287.640241
 20
326.3935
 30
0.0
 11
290.908241
 21
326.3935
 31
0.0
  0
LINE
  5
8F47
  8
5
 10
287.640241
 20
326.8935
 30
0.0
 11
287.640241
 21
326.3935
 31
0.0
  0
LINE
  5
8F48
  8
5
 10
285.908241
 20
325.8935
 30
0.0
 11
287.640241
 21
326.8935
 31
0.0
  0
LINE
  5
8F49
  8
5
 10
287.640241
 20
324.8935
 30
0.0
 11
285.908241
 21
325.8935
 31
0.0
  0
LINE
  5
8F4A
  8
5
 10
287.640241
 20
325.3935
 30
0.0
 11
287.640241
 21
324.8935
 31
0.0
  0
LINE
  5
8F4B
  8
5
 10
290.908241
 20
325.3935
 30
0.0
 11
287.640241
 21
325.3935
 31
0.0
  0
TEXT
  5
8F4C
  8
7-TEX2
 10
286.101541
 20
321.4245
 30
0.0
 40
1.6
  1
CALL
 41
1.021453
 72
     1
 11
288.903241
 21
322.2245
 31
0.0
 73
     2
  0
LINE
  5
8F4D
  8
0
 10
284.812241
 20
327.5115
 30
0.0
 11
282.612241
 21
327.5115
 31
0.0
  0
LINE
  5
8F4E
  8
0
 10
282.612241
 20
327.5115
 30
0.0
 11
281.312241
 21
326.2115
 31
0.0
  0
LINE
  5
8F4F
  8
0
 10
282.902241
 20
326.8115
 30
0.0
 11
284.512241
 21
326.8115
 31
0.0
  0
LINE
  5
8F50
  8
0
 10
282.012241
 20
325.9215
 30
0.0
 11
282.902241
 21
326.8115
 31
0.0
  0
LINE
  5
8F51
  8
0
 10
282.012241
 20
324.0115
 30
0.0
 11
282.012241
 21
325.9215
 31
0.0
  0
LINE
  5
8F52
  8
0
 10
284.512241
 20
324.0115
 30
0.0
 11
282.012241
 21
324.0115
 31
0.0
  0
LINE
  5
8F53
  8
0
 10
284.512241
 20
326.8115
 30
0.0
 11
284.512241
 21
324.0115
 31
0.0
  0
LINE
  5
8F54
  8
0
 10
284.812241
 20
326.8115
 30
0.0
 11
284.512241
 21
326.8115
 31
0.0
  0
LINE
  5
8F55
  8
0
 10
282.012241
 20
324.0115
 30
0.0
 11
282.012241
 21
319.1015
 31
0.0
  0
TEXT
  5
8F56
  8
6-TEX1
 10
282.820241
 20
324.6325
 30
0.0
 40
1.6
  1
D
 41
0.9
 72
     1
 11
283.300241
 21
325.4325
 31
0.0
 73
     2
  0
LINE
  5
8F57
  8
0
 10
285.312241
 20
328.0115
 30
0.0
 11
284.812241
 21
327.5115
 31
0.0
  0
LINE
  5
8F58
  8
0
 10
285.312241
 20
327.3115
 30
0.0
 11
284.812241
 21
326.8115
 31
0.0
  0
LINE
  5
8F59
  8
0
 10
295.312241
 20
312.2115
 30
0.0
 11
294.012241
 21
313.5115
 31
0.0
  0
LINE
  5
8F5A
  8
0
 10
294.612241
 20
311.9215
 30
0.0
 11
293.722241
 21
312.8115
 31
0.0
  0
LINE
  5
8F5B
  8
0
 10
294.012241
 20
317.5115
 30
0.0
 11
295.312241
 21
318.8115
 31
0.0
  0
TEXT
  5
8F5C
  8
7-TEX2
 10
286.036141
 20
308.7225
 30
0.0
 40
2.0
  1
AREA
 41
0.942873
 72
     1
 11
289.538241
 21
309.7225
 31
0.0
 73
     2
  0
LINE
  5
8F5D
  8
0
 10
282.612241
 20
313.5115
 30
0.0
 11
281.312241
 21
312.2115
 31
0.0
  0
LINE
  5
8F5E
  8
0
 10
282.902241
 20
312.8115
 30
0.0
 11
284.512241
 21
312.8115
 31
0.0
  0
LINE
  5
8F5F
  8
0
 10
282.012241
 20
311.9215
 30
0.0
 11
282.902241
 21
312.8115
 31
0.0
  0
LINE
  5
8F60
  8
0
 10
282.012241
 20
310.0115
 30
0.0
 11
282.012241
 21
311.9215
 31
0.0
  0
LINE
  5
8F61
  8
0
 10
284.512241
 20
310.0115
 30
0.0
 11
282.012241
 21
310.0115
 31
0.0
  0
LINE
  5
8F62
  8
0
 10
284.512241
 20
312.8115
 30
0.0
 11
284.512241
 21
310.0115
 31
0.0
  0
LINE
  5
8F63
  8
0
 10
281.312241
 20
318.8115
 30
0.0
 11
282.612241
 21
317.5115
 31
0.0
  0
TEXT
  5
8F64
  8
6-TEX1
 10
282.910241
 20
310.5575
 30
0.0
 40
1.6
  1
G
 41
0.84
 72
     1
 11
283.390241
 21
311.3575
 31
0.0
 73
     2
  0
LINE
  5
8F65
  8
0
 10
294.012241
 20
313.5115
 30
0.0
 11
282.612241
 21
313.5115
 31
0.0
  0
LINE
  5
8F66
  8
0
 10
293.722241
 20
312.8115
 30
0.0
 11
284.512241
 21
312.8115
 31
0.0
  0
LINE
  5
8F67
  8
0
 10
282.612241
 20
317.5115
 30
0.0
 11
294.012241
 21
317.5115
 31
0.0
  0
LINE
  5
8F68
  8
0
 10
282.902241
 20
318.2115
 30
0.0
 11
293.722241
 21
318.2115
 31
0.0
  0
LINE
  5
8F69
  8
0
 10
294.012241
 20
303.5115
 30
0.0
 11
295.312241
 21
304.8115
 31
0.0
  0
LINE
  5
8F6A
  8
0
 10
293.722241
 20
304.2115
 30
0.0
 11
294.612241
 21
305.1015
 31
0.0
  0
TEXT
  5
8F6B
  8
7-TEX2
 10
287.483241
 20
305.6875
 30
0.0
 40
2.0
  1
No.
 41
1.243884
 72
     1
 11
290.030241
 21
306.6875
 31
0.0
 73
     2
  0
LINE
  5
8F6C
  8
0
 10
281.312241
 20
304.8115
 30
0.0
 11
282.612241
 21
303.5115
 31
0.0
  0
LINE
  5
8F6D
  8
0
 10
279.812241
 20
304.1905
 30
0.0
 11
281.991241
 21
302.0115
 31
0.0
  0
LINE
  5
8F6E
  8
0
 10
282.012241
 20
305.1015
 30
0.0
 11
282.902241
 21
304.2115
 31
0.0
  0
LINE
  5
8F6F
  8
0
 10
282.612241
 20
303.5115
 30
0.0
 11
294.012241
 21
303.5115
 31
0.0
  0
LINE
  5
8F70
  8
0
 10
282.902241
 20
304.2115
 30
0.0
 11
293.722241
 21
304.2115
 31
0.0
  0
LINE
  5
8F71
  8
0
 10
295.312241
 20
304.8115
 30
0.0
 11
295.312241
 21
312.2115
 31
0.0
  0
LINE
  5
8F72
  8
0
 10
281.312241
 20
312.2115
 30
0.0
 11
281.312241
 21
304.8115
 31
0.0
  0
LINE
  5
8F73
  8
0
 10
294.612241
 20
305.1015
 30
0.0
 11
294.612241
 21
311.9215
 31
0.0
  0
LINE
  5
8F74
  8
0
 10
282.012241
 20
310.0115
 30
0.0
 11
282.012241
 21
305.1015
 31
0.0
  0
LINE
  5
8F75
  8
0
 10
295.312241
 20
318.8115
 30
0.0
 11
295.312241
 21
326.2115
 31
0.0
  0
LINE
  5
8F76
  8
0
 10
281.312241
 20
326.2115
 30
0.0
 11
281.312241
 21
318.8115
 31
0.0
  0
LINE
  5
8F77
  8
0
 10
293.722241
 20
318.2115
 30
0.0
 11
294.612241
 21
319.1015
 31
0.0
  0
LINE
  5
8F78
  8
0
 10
282.012241
 20
319.1015
 30
0.0
 11
282.902241
 21
318.2115
 31
0.0
  0
TEXT
  5
8F79
  8
7-TEX2
 10
285.337441
 20
318.9315
 30
0.0
 40
1.6
  1
JUDGE
 41
1.006476
 72
     1
 11
288.903241
 21
319.7315
 31
0.0
 73
     2
  0
LINE
  5
8F7A
  8
0
 10
281.991241
 20
302.0115
 30
0.0
 11
330.633241
 21
302.0115
 31
0.0
  0
LINE
  5
8F7B
  8
0
 10
330.633241
 20
299.0115
 30
0.0
 11
281.991241
 21
299.0115
 31
0.0
  0
LINE
  5
8F94
  8
0
 10
331.312241
 20
296.2115
 30
0.0
 11
330.012241
 21
297.5115
 31
0.0
  0
LINE
  5
8F95
  8
0
 10
331.312241
 20
288.8115
 30
0.0
 11
331.312241
 21
296.2115
 31
0.0
  0
LINE
  5
8F96
  8
0
 10
330.612241
 20
295.9215
 30
0.0
 11
329.722241
 21
296.8115
 31
0.0
  0
LINE
  5
8F97
  8
0
 10
330.612241
 20
289.1015
 30
0.0
 11
330.612241
 21
295.9215
 31
0.0
  0
LINE
  5
8F98
  8
0
 10
329.722241
 20
288.2115
 30
0.0
 11
330.612241
 21
289.1015
 31
0.0
  0
LINE
  5
8F99
  8
0
 10
328.995241
 20
289.9455
 30
0.0
 11
328.680241
 21
288.7705
 31
0.0
  0
LINE
  5
8F9A
  8
0
 10
329.404241
 20
293.6115
 30
0.0
 11
329.404241
 21
290.8115
 31
0.0
  0
LINE
  5
8F9B
  8
0
 10
318.902241
 20
296.8115
 30
0.0
 11
320.512241
 21
296.8115
 31
0.0
  0
LINE
  5
8F9C
  8
0
 10
318.012241
 20
295.9215
 30
0.0
 11
318.902241
 21
296.8115
 31
0.0
  0
LINE
  5
8F9D
  8
0
 10
318.012241
 20
294.0115
 30
0.0
 11
318.012241
 21
295.9215
 31
0.0
  0
LINE
  5
8F9E
  8
0
 10
320.512241
 20
294.0115
 30
0.0
 11
318.012241
 21
294.0115
 31
0.0
  0
LINE
  5
8F9F
  8
0
 10
320.512241
 20
296.8115
 30
0.0
 11
320.512241
 21
294.0115
 31
0.0
  0
LINE
  5
8FA0
  8
0
 10
318.012241
 20
289.1015
 30
0.0
 11
318.902241
 21
288.2115
 31
0.0
  0
LINE
  5
8FA1
  8
0
 10
318.012241
 20
294.0115
 30
0.0
 11
318.012241
 21
289.1015
 31
0.0
  0
LINE
  5
8FA2
  8
0
 10
320.125241
 20
290.8115
 30
0.0
 11
320.125241
 21
293.6115
 31
0.0
  0
LINE
  5
8FA3
  8
0
 10
321.638241
 20
290.8115
 30
0.0
 11
320.125241
 21
290.8115
 31
0.0
  0
LINE
  5
8FA4
  8
0
 10
321.638241
 20
290.3025
 30
0.0
 11
321.638241
 21
290.8115
 31
0.0
  0
LINE
  5
8FA5
  8
0
 10
321.638241
 20
290.0225
 30
0.0
 11
321.638241
 21
290.3025
 31
0.0
  0
ARC
  5
8FA6
  8
0
 10
322.138553
 20
290.022753
 30
0.0
 40
0.500312
 50
180.028956
 51
229.291029
  0
ARC
  5
8FA7
  8
0
 10
324.976155
 20
293.317351
 30
0.0
 40
4.848456
 50
229.265028
 51
299.929864
  0
LINE
  5
8FA8
  8
0
 10
328.109241
 20
290.8115
 30
0.0
 11
328.109241
 21
290.1825
 31
0.0
  0
LINE
  5
8FA9
  8
0
 10
328.109241
 20
295.6115
 30
0.0
 11
328.109241
 21
293.6115
 31
0.0
  0
LINE
  5
8FAA
  8
0
 10
321.638241
 20
295.6115
 30
0.0
 11
328.109241
 21
295.6115
 31
0.0
  0
LINE
  5
8FAB
  8
0
 10
321.638241
 20
293.6115
 30
0.0
 11
321.638241
 21
295.6115
 31
0.0
  0
LINE
  5
8FAC
  8
0
 10
320.125241
 20
293.6115
 30
0.0
 11
321.638241
 21
293.6115
 31
0.0
  0
TEXT
  5
8FAD
  8
6-TEX1
 10
318.863241
 20
294.6065
 30
0.0
 40
1.6
  1
L
 41
1.05
 72
     1
 11
319.343241
 21
295.4065
 31
0.0
 73
     2
  0
TEXT
  5
8FAE
  8
7-TEX2
 10
321.690041
 20
291.4455
 30
0.0
 40
1.44
  1
FLOAT
 41
1.00647
 72
     1
 11
324.899241
 21
292.1655
 31
0.0
 73
     2
  0
LINE
  5
8FAF
  8
0
 10
330.012241
 20
297.5115
 30
0.0
 11
318.612241
 21
297.5115
 31
0.0
  0
LINE
  5
8FB0
  8
0
 10
329.722241
 20
296.8115
 30
0.0
 11
320.512241
 21
296.8115
 31
0.0
  0
LINE
  5
8FB1
  8
0
 10
318.902241
 20
288.2115
 30
0.0
 11
329.722241
 21
288.2115
 31
0.0
  0
LINE
  5
8FB2
  8
0
 10
328.680241
 20
288.7705
 30
0.0
 11
327.395241
 21
289.1155
 31
0.0
  0
LINE
  5
8FB3
  8
0
 10
328.109241
 20
290.1825
 30
0.0
 11
328.995241
 21
289.9455
 31
0.0
  0
LINE
  5
8FB4
  8
0
 10
329.404241
 20
290.8115
 30
0.0
 11
328.109241
 21
290.8115
 31
0.0
  0
LINE
  5
8FB5
  8
0
 10
328.109241
 20
293.6115
 30
0.0
 11
329.404241
 21
293.6115
 31
0.0
  0
LINE
  5
8FB6
  8
0
 10
318.612241
 20
287.5115
 30
0.0
 11
330.012241
 21
287.5115
 31
0.0
  0
LINE
  5
8FB7
  8
0
 10
330.012241
 20
287.5115
 30
0.0
 11
331.312241
 21
288.8115
 31
0.0
  0
LINE
  5
8FB8
  8
0
 10
313.312241
 20
296.2115
 30
0.0
 11
312.012241
 21
297.5115
 31
0.0
  0
LINE
  5
8FB9
  8
0
 10
313.312241
 20
288.8115
 30
0.0
 11
313.312241
 21
296.2115
 31
0.0
  0
LINE
  5
8FBA
  8
0
 10
317.312241
 20
296.2115
 30
0.0
 11
317.312241
 21
288.8115
 31
0.0
  0
LINE
  5
8FBB
  8
0
 10
312.612241
 20
295.9215
 30
0.0
 11
311.722241
 21
296.8115
 31
0.0
  0
LINE
  5
8FBC
  8
0
 10
312.612241
 20
289.1015
 30
0.0
 11
312.612241
 21
295.9215
 31
0.0
  0
LINE
  5
8FBD
  8
0
 10
311.722241
 20
288.2115
 30
0.0
 11
312.612241
 21
289.1015
 31
0.0
  0
LINE
  5
8FBE
  8
0
 10
311.539241
 20
292.3965
 30
0.0
 11
311.539241
 21
289.3765
 31
0.0
  0
LINE
  5
8FBF
  8
0
 10
309.721241
 20
292.3965
 30
0.0
 11
311.539241
 21
292.3965
 31
0.0
  0
LINE
  5
8FC0
  8
0
 10
309.721241
 20
294.5815
 30
0.0
 11
309.721241
 21
292.3965
 31
0.0
  0
LINE
  5
8FC1
  8
0
 10
308.101241
 20
294.5815
 30
0.0
 11
309.721241
 21
294.5815
 31
0.0
  0
LINE
  5
8FC2
  8
0
 10
308.101241
 20
295.9185
 30
0.0
 11
308.101241
 21
294.5815
 31
0.0
  0
LINE
  5
8FC3
  8
0
 10
299.312241
 20
296.2115
 30
0.0
 11
299.312241
 21
288.8115
 31
0.0
  0
LINE
  5
8FC4
  8
0
 10
300.612241
 20
297.5115
 30
0.0
 11
299.312241
 21
296.2115
 31
0.0
  0
LINE
  5
8FC5
  8
0
 10
300.902241
 20
296.8115
 30
0.0
 11
302.512241
 21
296.8115
 31
0.0
  0
LINE
  5
8FC6
  8
0
 10
300.012241
 20
295.9215
 30
0.0
 11
300.902241
 21
296.8115
 31
0.0
  0
LINE
  5
8FC7
  8
0
 10
300.012241
 20
294.0115
 30
0.0
 11
300.012241
 21
295.9215
 31
0.0
  0
LINE
  5
8FC8
  8
0
 10
302.512241
 20
294.0115
 30
0.0
 11
300.012241
 21
294.0115
 31
0.0
  0
LINE
  5
8FC9
  8
0
 10
302.512241
 20
296.8115
 30
0.0
 11
302.512241
 21
294.0115
 31
0.0
  0
LINE
  5
8FCA
  8
0
 10
300.012241
 20
289.1015
 30
0.0
 11
300.902241
 21
288.2115
 31
0.0
  0
LINE
  5
8FCB
  8
0
 10
300.012241
 20
294.0115
 30
0.0
 11
300.012241
 21
289.1015
 31
0.0
  0
LINE
  5
8FCC
  8
0
 10
301.856241
 20
289.3765
 30
0.0
 11
301.856241
 21
292.3965
 31
0.0
  0
LINE
  5
8FCD
  8
0
 10
305.386241
 20
294.5815
 30
0.0
 11
305.386241
 21
295.9185
 31
0.0
  0
LINE
  5
8FCE
  8
0
 10
303.893241
 20
294.5815
 30
0.0
 11
305.386241
 21
294.5815
 31
0.0
  0
LINE
  5
8FCF
  8
0
 10
303.893241
 20
292.3965
 30
0.0
 11
303.893241
 21
294.5815
 31
0.0
  0
LINE
  5
8FD0
  8
0
 10
301.856241
 20
292.3965
 30
0.0
 11
303.893241
 21
292.3965
 31
0.0
  0
TEXT
  5
8FD1
  8
6-TEX1
 10
300.896241
 20
294.6255
 30
0.0
 40
1.6
  1
K
 41
0.9
 72
     1
 11
301.376241
 21
295.4255
 31
0.0
 73
     2
  0
LINE
  5
8FD2
  8
0
 10
312.012241
 20
297.5115
 30
0.0
 11
300.612241
 21
297.5115
 31
0.0
  0
LINE
  5
8FD3
  8
0
 10
311.722241
 20
296.8115
 30
0.0
 11
302.512241
 21
296.8115
 31
0.0
  0
LINE
  5
8FD4
  8
0
 10
300.902241
 20
288.2115
 30
0.0
 11
311.722241
 21
288.2115
 31
0.0
  0
LINE
  5
8FD5
  8
0
 10
311.539241
 20
289.3765
 30
0.0
 11
301.856241
 21
289.3765
 31
0.0
  0
LINE
  5
8FD6
  8
0
 10
305.386241
 20
295.9185
 30
0.0
 11
308.101241
 21
295.9185
 31
0.0
  0
TEXT
  5
8FD7
  8
7-TEX2
 10
305.015391
 20
289.7225
 30
0.0
 40
1.44
  1
ADJ
 41
1.009194
 72
     1
 11
306.849241
 21
290.4425
 31
0.0
 73
     2
  0
TEXT
  5
8FD8
  8
7-TEX2
 10
304.133041
 20
291.8555
 30
0.0
 40
1.44
  1
TEMP.
 41
1.114306
 72
     1
 11
307.342241
 21
292.5755
 31
0.0
 73
     2
  0
CIRCLE
  5
8FD9
  8
0
 10
297.312241
 20
285.5025
 30
0.0
 40
0.499985
  0
LINE
  5
8FDA
  8
0
 10
300.612241
 20
287.5115
 30
0.0
 11
312.012241
 21
287.5115
 31
0.0
  0
LINE
  5
8FDB
  8
0
 10
312.012241
 20
287.5115
 30
0.0
 11
313.312241
 21
288.8115
 31
0.0
  0
LINE
  5
8FDC
  8
0
 10
299.312241
 20
288.8115
 30
0.0
 11
300.612241
 21
287.5115
 31
0.0
  0
LINE
  5
8FDD
  8
0
 10
317.312241
 20
288.8115
 30
0.0
 11
318.612241
 21
287.5115
 31
0.0
  0
LINE
  5
8FDE
  8
0
 10
318.612241
 20
297.5115
 30
0.0
 11
317.312241
 21
296.2115
 31
0.0
  0
LINE
  5
8FDF
  8
0
 10
295.312241
 20
296.2115
 30
0.0
 11
294.012241
 21
297.5115
 31
0.0
  0
LINE
  5
8FE0
  8
0
 10
295.312241
 20
288.8115
 30
0.0
 11
295.312241
 21
296.2115
 31
0.0
  0
LINE
  5
8FE1
  8
0
 10
294.612241
 20
295.9215
 30
0.0
 11
293.722241
 21
296.8115
 31
0.0
  0
LINE
  5
8FE2
  8
0
 10
294.612241
 20
289.1015
 30
0.0
 11
294.612241
 21
295.9215
 31
0.0
  0
LINE
  5
8FE3
  8
0
 10
293.722241
 20
288.2115
 30
0.0
 11
294.612241
 21
289.1015
 31
0.0
  0
LINE
  5
8FE4
  8
0
 10
291.693241
 20
289.3195
 30
0.0
 11
285.957241
 21
289.3195
 31
0.0
  0
ARC
  5
8FE5
  8
0
 10
290.792098
 20
291.675
 30
0.0
 40
2.521991
 50
290.935346
 51
69.064654
  0
LINE
  5
8FE6
  8
0
 10
285.957241
 20
294.0305
 30
0.0
 11
291.693241
 21
294.0305
 31
0.0
  0
TEXT
  5
8FE7
  8
7-TEX2
 10
284.985341
 20
290.7885
 30
0.0
 40
1.44
  1
OTHERS
 41
0.979824
 72
     1
 11
288.882241
 21
291.5085
 31
0.0
 73
     2
  0
LINE
  5
8FE8
  8
0
 10
281.312241
 20
296.2115
 30
0.0
 11
281.312241
 21
288.8115
 31
0.0
  0
LINE
  5
8FE9
  8
0
 10
282.612241
 20
297.5115
 30
0.0
 11
281.312241
 21
296.2115
 31
0.0
  0
LINE
  5
8FEA
  8
0
 10
282.902241
 20
296.8115
 30
0.0
 11
284.512241
 21
296.8115
 31
0.0
  0
LINE
  5
8FEB
  8
0
 10
282.012241
 20
295.9215
 30
0.0
 11
282.902241
 21
296.8115
 31
0.0
  0
LINE
  5
8FEC
  8
0
 10
282.012241
 20
294.0115
 30
0.0
 11
282.012241
 21
295.9215
 31
0.0
  0
LINE
  5
8FED
  8
0
 10
284.512241
 20
294.0115
 30
0.0
 11
282.012241
 21
294.0115
 31
0.0
  0
LINE
  5
8FEE
  8
0
 10
284.512241
 20
296.8115
 30
0.0
 11
284.512241
 21
294.0115
 31
0.0
  0
LINE
  5
8FEF
  8
0
 10
282.012241
 20
289.1015
 30
0.0
 11
282.902241
 21
288.2115
 31
0.0
  0
LINE
  5
8FF0
  8
0
 10
282.012241
 20
294.0115
 30
0.0
 11
282.012241
 21
289.1015
 31
0.0
  0
TEXT
  5
8FF1
  8
6-TEX1
 10
282.815241
 20
294.5685
 30
0.0
 40
1.6
  1
J
 41
1.26
 72
     1
 11
283.295241
 21
295.3685
 31
0.0
 73
     2
  0
LINE
  5
8FF2
  8
0
 10
294.012241
 20
297.5115
 30
0.0
 11
282.612241
 21
297.5115
 31
0.0
  0
LINE
  5
8FF3
  8
0
 10
293.722241
 20
296.8115
 30
0.0
 11
284.512241
 21
296.8115
 31
0.0
  0
LINE
  5
8FF4
  8
0
 10
282.902241
 20
288.2115
 30
0.0
 11
293.722241
 21
288.2115
 31
0.0
  0
ARC
  5
8FF5
  8
0
 10
286.961731
 20
291.675
 30
0.0
 40
2.560738
 50
113.095558
 51
246.904442
  0
LINE
  5
8FF6
  8
0
 10
282.612241
 20
287.5115
 30
0.0
 11
294.012241
 21
287.5115
 31
0.0
  0
LINE
  5
8FF7
  8
0
 10
294.012241
 20
287.5115
 30
0.0
 11
295.312241
 21
288.8115
 31
0.0
  0
LINE
  5
8FF8
  8
0
 10
281.312241
 20
288.8115
 30
0.0
 11
282.612241
 21
287.5115
 31
0.0
  0
LINE
  5
8FF9
  8
0
 10
332.812241
 20
296.8325
 30
0.0
 11
330.633241
 21
299.0115
 31
0.0
  0
LINE
  5
8FFA
  8
0
 10
281.991241
 20
299.0115
 30
0.0
 11
279.812241
 21
296.8325
 31
0.0
  0
LINE
  5
900A
  8
0
 10
350.061241
 20
362.6685
 30
0.0
 11
347.311241
 21
368.0105
 31
0.0
  0
LINE
  5
9016
  8
0
 10
350.061241
 20
341.2615
 30
0.0
 11
350.061241
 21
362.6685
 31
0.0
  0
LINE
  5
901A
  8
0
 10
344.811241
 20
334.5115
 30
0.0
 11
350.061241
 21
341.2615
 31
0.0
  0
LINE
  5
901F
  8
5
 10
328.612241
 20
376.2935
 30
0.0
 11
331.562241
 21
376.2935
 31
0.0
  0
LINE
  5
9020
  8
5
 10
332.262241
 20
376.2935
 30
0.0
 11
335.212241
 21
376.2935
 31
0.0
  0
LINE
  5
9021
  8
5
 10
317.662241
 20
376.2935
 30
0.0
 11
320.612241
 21
376.2935
 31
0.0
  0
LINE
  5
9022
  8
5
 10
321.312241
 20
376.2935
 30
0.0
 11
324.262241
 21
376.2935
 31
0.0
  0
LINE
  5
9023
  8
5
 10
324.962241
 20
376.2935
 30
0.0
 11
327.912241
 21
376.2935
 31
0.0
  0
LINE
  5
902F
  8
5
 10
310.362241
 20
376.2935
 30
0.0
 11
313.312241
 21
376.2935
 31
0.0
  0
LINE
  5
9030
  8
5
 10
314.012241
 20
376.2935
 30
0.0
 11
316.962241
 21
376.2935
 31
0.0
  0
LINE
  5
9031
  8
5
 10
306.712241
 20
376.2935
 30
0.0
 11
309.662241
 21
376.2935
 31
0.0
  0
LINE
  5
9032
  8
5
 10
295.762241
 20
376.2935
 30
0.0
 11
298.712241
 21
376.2935
 31
0.0
  0
LINE
  5
9033
  8
5
 10
299.412241
 20
376.2935
 30
0.0
 11
302.362241
 21
376.2935
 31
0.0
  0
LINE
  5
9034
  8
5
 10
303.062241
 20
376.2935
 30
0.0
 11
306.012241
 21
376.2935
 31
0.0
  0
LINE
  5
9038
  8
0
 10
333.312241
 20
364.5105
 30
0.0
 11
279.312199
 21
364.5105
 31
0.0
  0
LINE
  5
9039
  8
0
 10
335.612241
 20
356.9215
 30
0.0
 11
334.722241
 21
357.8115
 31
0.0
  0
LINE
  5
903A
  8
0
 10
335.612241
 20
350.1015
 30
0.0
 11
335.612241
 21
356.9215
 31
0.0
  0
LINE
  5
903B
  8
0
 10
336.312241
 20
357.2115
 30
0.0
 11
335.012241
 21
358.5115
 31
0.0
  0
LINE
  5
9046
  8
0
 10
323.012241
 20
356.9215
 30
0.0
 11
323.012241
 21
350.1015
 31
0.0
  0
LINE
  5
9047
  8
0
 10
323.902241
 20
357.8115
 30
0.0
 11
323.012241
 21
356.9215
 31
0.0
  0
LINE
  5
9048
  8
0
 10
323.612241
 20
358.5115
 30
0.0
 11
322.312241
 21
357.2115
 31
0.0
  0
LINE
  5
9049
  8
0
 10
334.722241
 20
357.8115
 30
0.0
 11
323.902241
 21
357.8115
 31
0.0
  0
LINE
  5
904A
  8
0
 10
335.012241
 20
358.5115
 30
0.0
 11
323.612241
 21
358.5115
 31
0.0
  0
TEXT
  5
904B
  8
7-TEX2
 10
326.601841
 20
352.2515
 30
0.0
 40
2.4
  1
OFF
 41
1.009189
 72
     1
 11
329.658241
 21
353.4515
 31
0.0
 73
     2
  0
LINE
  5
904C
  8
0
 10
335.012241
 20
348.5115
 30
0.0
 11
336.312241
 21
349.8115
 31
0.0
  0
LINE
  5
904D
  8
0
 10
331.312241
 20
340.2115
 30
0.0
 11
330.012241
 21
341.5115
 31
0.0
  0
LINE
  5
904E
  8
0
 10
332.812241
 20
340.8325
 30
0.0
 11
330.633241
 21
343.0115
 31
0.0
  0
LINE
  5
904F
  8
0
 10
330.612241
 20
339.9215
 30
0.0
 11
329.722241
 21
340.8115
 31
0.0
  0
LINE
  5
9050
  8
0
 10
322.312241
 20
349.8115
 30
0.0
 11
323.612241
 21
348.5115
 31
0.0
  0
LINE
  5
9051
  8
0
 10
318.902241
 20
340.8115
 30
0.0
 11
320.512241
 21
340.8115
 31
0.0
  0
LINE
  5
9052
  8
0
 10
318.012241
 20
339.9215
 30
0.0
 11
318.902241
 21
340.8115
 31
0.0
  0
LINE
  5
9053
  8
0
 10
323.902241
 20
349.2115
 30
0.0
 11
334.722241
 21
349.2115
 31
0.0
  0
LINE
  5
9054
  8
0
 10
323.612241
 20
348.5115
 30
0.0
 11
335.012241
 21
348.5115
 31
0.0
  0
LINE
  5
9055
  8
0
 10
330.012241
 20
341.5115
 30
0.0
 11
318.612241
 21
341.5115
 31
0.0
  0
LINE
  5
9056
  8
0
 10
329.722241
 20
340.8115
 30
0.0
 11
320.512241
 21
340.8115
 31
0.0
  0
LINE
  5
9057
  8
0
 10
334.722241
 20
349.2115
 30
0.0
 11
335.612241
 21
350.1015
 31
0.0
  0
LINE
  5
9058
  8
0
 10
323.012241
 20
350.1015
 30
0.0
 11
323.902241
 21
349.2115
 31
0.0
  0
LINE
  5
9059
  8
0
 10
336.312241
 20
349.8115
 30
0.0
 11
336.312241
 21
357.2115
 31
0.0
  0
LINE
  5
905A
  8
0
 10
322.312241
 20
357.2115
 30
0.0
 11
322.312241
 21
349.8115
 31
0.0
  0
LINE
  5
905C
  8
0
 10
312.612241
 20
356.9215
 30
0.0
 11
311.722241
 21
357.8115
 31
0.0
  0
LINE
  5
905D
  8
0
 10
312.612241
 20
350.1015
 30
0.0
 11
312.612241
 21
356.9215
 31
0.0
  0
LINE
  5
905E
  8
0
 10
313.312241
 20
357.2115
 30
0.0
 11
312.012241
 21
358.5115
 31
0.0
  0
LINE
  5
905F
  8
0
 10
300.012241
 20
356.9215
 30
0.0
 11
300.012241
 21
350.1015
 31
0.0
  0
LINE
  5
9060
  8
0
 10
300.902241
 20
357.8115
 30
0.0
 11
300.012241
 21
356.9215
 31
0.0
  0
LINE
  5
9061
  8
0
 10
300.612241
 20
358.5115
 30
0.0
 11
299.312241
 21
357.2115
 31
0.0
  0
LINE
  5
9062
  8
0
 10
311.722241
 20
357.8115
 30
0.0
 11
300.902241
 21
357.8115
 31
0.0
  0
LINE
  5
9063
  8
0
 10
312.012241
 20
358.5115
 30
0.0
 11
300.612241
 21
358.5115
 31
0.0
  0
TEXT
  5
9064
  8
7-TEX2
 10
302.063991
 20
352.2875
 30
0.0
 40
2.0
  1
LIGHT
 41
1.141491
 72
     1
 11
306.521241
 21
353.2875
 31
0.0
 73
     2
  0
LINE
  5
9065
  8
0
 10
313.312241
 20
340.2115
 30
0.0
 11
312.012241
 21
341.5115
 31
0.0
  0
LINE
  5
9066
  8
0
 10
311.722241
 20
340.8115
 30
0.0
 11
312.612241
 21
339.9215
 31
0.0
  0
LINE
  5
9067
  8
0
 10
312.012241
 20
348.5115
 30
0.0
 11
313.312241
 21
349.8115
 31
0.0
  0
CIRCLE
  5
9068
  8
0
 10
315.319241
 20
345.0185
 30
0.0
 40
1.49995
  0
CIRCLE
  5
9069
  8
0
 10
315.319241
 20
345.0185
 30
0.0
 40
0.499985
  0
LINE
  5
906A
  8
0
 10
300.612241
 20
341.5115
 30
0.0
 11
299.312241
 21
340.2115
 31
0.0
  0
LINE
  5
906B
  8
0
 10
302.512241
 20
340.8115
 30
0.0
 11
302.812241
 21
340.8115
 31
0.0
  0
LINE
  5
906C
  8
0
 10
300.902241
 20
340.8115
 30
0.0
 11
300.012241
 21
339.9215
 31
0.0
  0
LINE
  5
906D
  8
0
 10
302.512241
 20
340.8115
 30
0.0
 11
300.902241
 21
340.8115
 31
0.0
  0
LINE
  5
906E
  8
0
 10
299.312241
 20
349.8115
 30
0.0
 11
300.612241
 21
348.5115
 31
0.0
  0
LINE
  5
906F
  8
0
 10
312.012241
 20
341.5115
 30
0.0
 11
300.612241
 21
341.5115
 31
0.0
  0
LINE
  5
9070
  8
0
 10
302.812241
 20
340.8115
 30
0.0
 11
311.722241
 21
340.8115
 31
0.0
  0
LINE
  5
9071
  8
0
 10
300.902241
 20
349.2115
 30
0.0
 11
311.722241
 21
349.2115
 31
0.0
  0
LINE
  5
9072
  8
0
 10
300.612241
 20
348.5115
 30
0.0
 11
312.012241
 21
348.5115
 31
0.0
  0
LINE
  5
9073
  8
0
 10
311.722241
 20
349.2115
 30
0.0
 11
312.612241
 21
350.1015
 31
0.0
  0
LINE
  5
9074
  8
0
 10
300.012241
 20
350.1015
 30
0.0
 11
300.902241
 21
349.2115
 31
0.0
  0
LINE
  5
9075
  8
0
 10
313.312241
 20
349.8115
 30
0.0
 11
313.312241
 21
357.2115
 31
0.0
  0
LINE
  5
9076
  8
0
 10
299.312241
 20
357.2115
 30
0.0
 11
299.312241
 21
349.8115
 31
0.0
  0
LINE
  5
9077
  8
0
 10
318.612241
 20
341.5115
 30
0.0
 11
317.312241
 21
340.2115
 31
0.0
  0
LINE
  5
907B
  8
5
 10
288.462241
 20
376.2935
 30
0.0
 11
291.412241
 21
376.2935
 31
0.0
  0
LINE
  5
907C
  8
5
 10
292.112241
 20
376.2935
 30
0.0
 11
295.062241
 21
376.2935
 31
0.0
  0
LINE
  5
907D
  8
5
 10
281.162241
 20
376.2935
 30
0.0
 11
284.112241
 21
376.2935
 31
0.0
  0
LINE
  5
907E
  8
5
 10
277.512241
 20
376.2935
 30
0.0
 11
280.462241
 21
376.2935
 31
0.0
  0
LINE
  5
907F
  8
5
 10
284.812241
 20
376.2935
 30
0.0
 11
287.762241
 21
376.2935
 31
0.0
  0
LINE
  5
9082
  8
0
 10
289.612241
 20
356.9215
 30
0.0
 11
288.722241
 21
357.8115
 31
0.0
  0
LINE
  5
9083
  8
0
 10
289.612241
 20
350.1015
 30
0.0
 11
289.612241
 21
356.9215
 31
0.0
  0
LINE
  5
9084
  8
0
 10
290.312241
 20
357.2115
 30
0.0
 11
289.012241
 21
358.5115
 31
0.0
  0
LINE
  5
9085
  8
0
 10
288.722241
 20
357.8115
 30
0.0
 11
277.902241
 21
357.8115
 31
0.0
  0
LINE
  5
9086
  8
0
 10
289.012241
 20
358.5115
 30
0.0
 11
277.612241
 21
358.5115
 31
0.0
  0
TEXT
  5
9087
  8
7-TEX2
 10
281.310991
 20
352.2515
 30
0.0
 40
2.4
  1
ON
 41
0.928594
 72
     1
 11
283.221241
 21
353.4515
 31
0.0
 73
     2
  0
LINE
  5
9088
  8
0
 10
289.012241
 20
348.5115
 30
0.0
 11
290.312241
 21
349.8115
 31
0.0
  0
LINE
  5
9089
  8
0
 10
295.312241
 20
340.2115
 30
0.0
 11
294.012241
 21
341.5115
 31
0.0
  0
LINE
  5
908A
  8
0
 10
294.612241
 20
339.9215
 30
0.0
 11
293.722241
 21
340.8115
 31
0.0
  0
LINE
  5
908B
  8
0
 10
282.612241
 20
341.5115
 30
0.0
 11
281.312241
 21
340.2115
 31
0.0
  0
LINE
  5
908C
  8
0
 10
281.991241
 20
343.0115
 30
0.0
 11
279.812241
 21
340.8325
 31
0.0
  0
LINE
  5
908D
  8
0
 10
282.902241
 20
340.8115
 30
0.0
 11
284.512241
 21
340.8115
 31
0.0
  0
LINE
  5
908E
  8
0
 10
282.012241
 20
339.9215
 30
0.0
 11
282.902241
 21
340.8115
 31
0.0
  0
LINE
  5
908F
  8
0
 10
277.902241
 20
349.2115
 30
0.0
 11
288.722241
 21
349.2115
 31
0.0
  0
LINE
  5
9090
  8
0
 10
277.612241
 20
348.5115
 30
0.0
 11
289.012241
 21
348.5115
 31
0.0
  0
LINE
  5
9091
  8
0
 10
294.012241
 20
341.5115
 30
0.0
 11
282.612241
 21
341.5115
 31
0.0
  0
LINE
  5
9092
  8
0
 10
293.722241
 20
340.8115
 30
0.0
 11
284.512241
 21
340.8115
 31
0.0
  0
LINE
  5
9093
  8
0
 10
288.722241
 20
349.2115
 30
0.0
 11
289.612241
 21
350.1015
 31
0.0
  0
LINE
  5
9094
  8
0
 10
290.312241
 20
349.8115
 30
0.0
 11
290.312241
 21
357.2115
 31
0.0
  0
LINE
  5
9097
  8
0
 10
330.633241
 20
343.0115
 30
0.0
 11
281.991241
 21
343.0115
 31
0.0
  0
LINE
  5
909B
  8
0
 10
333.311241
 20
368.0105
 30
0.0
 11
279.313241
 21
368.0105
 31
0.0
  0
LINE
  5
909C
  8
0
 10
330.012241
 20
331.5115
 30
0.0
 11
331.312241
 21
332.8115
 31
0.0
  0
LINE
  5
909D
  8
0
 10
329.722241
 20
332.2115
 30
0.0
 11
330.612241
 21
333.1015
 31
0.0
  0
LINE
  5
909E
  8
0
 10
320.512241
 20
338.0115
 30
0.0
 11
318.012241
 21
338.0115
 31
0.0
  0
LINE
  5
909F
  8
0
 10
318.012241
 20
333.1015
 30
0.0
 11
318.902241
 21
332.2115
 31
0.0
  0
LINE
  5
90A0
  8
0
 10
318.012241
 20
338.0115
 30
0.0
 11
318.012241
 21
333.1015
 31
0.0
  0
LINE
  5
90A1
  8
0
 10
318.612241
 20
331.5115
 30
0.0
 11
330.012241
 21
331.5115
 31
0.0
  0
LINE
  5
90A2
  8
0
 10
318.902241
 20
332.2115
 30
0.0
 11
329.722241
 21
332.2115
 31
0.0
  0
TEXT
  5
90A3
  8
7-TEX2
 10
321.015991
 20
334.9765
 30
0.0
 40
2.0
  1
FUNC.
 41
1.101203
 72
     1
 11
325.473241
 21
335.9765
 31
0.0
 73
     2
  0
LINE
  5
90A4
  8
0
 10
312.012241
 20
331.5115
 30
0.0
 11
313.312241
 21
332.8115
 31
0.0
  0
LINE
  5
90A5
  8
0
 10
312.612241
 20
333.1015
 30
0.0
 11
311.722241
 21
332.2115
 31
0.0
  0
LINE
  5
90A6
  8
5
 10
306.812241
 20
337.0025
 30
0.0
 11
306.812241
 21
334.1675
 31
0.0
  0
LINE
  5
90A7
  8
5
 10
307.562241
 20
337.0025
 30
0.0
 11
306.812241
 21
337.0025
 31
0.0
  0
LINE
  5
90A8
  8
0
 10
299.312241
 20
332.8115
 30
0.0
 11
300.612241
 21
331.5115
 31
0.0
  0
LINE
  5
90A9
  8
0
 10
300.012241
 20
333.1015
 30
0.0
 11
300.012241
 21
338.0115
 31
0.0
  0
LINE
  5
90AA
  8
0
 10
300.902241
 20
332.2115
 30
0.0
 11
300.012241
 21
333.1015
 31
0.0
  0
LINE
  5
90AB
  8
0
 10
300.012241
 20
338.0115
 30
0.0
 11
302.512241
 21
338.0115
 31
0.0
  0
LINE
  5
90AC
  8
5
 10
305.062241
 20
337.0025
 30
0.0
 11
306.312241
 21
339.1675
 31
0.0
  0
LINE
  5
90AD
  8
5
 10
305.812241
 20
337.0025
 30
0.0
 11
305.062241
 21
337.0025
 31
0.0
  0
LINE
  5
90AE
  8
5
 10
305.812241
 20
334.1675
 30
0.0
 11
305.812241
 21
337.0025
 31
0.0
  0
LINE
  5
90AF
  8
0
 10
300.612241
 20
331.5115
 30
0.0
 11
312.012241
 21
331.5115
 31
0.0
  0
LINE
  5
90B0
  8
0
 10
311.722241
 20
332.2115
 30
0.0
 11
300.902241
 21
332.2115
 31
0.0
  0
LINE
  5
90B1
  8
5
 10
306.812241
 20
334.1675
 30
0.0
 11
305.812241
 21
334.1675
 31
0.0
  0
LINE
  5
90B2
  8
5
 10
306.312241
 20
339.1675
 30
0.0
 11
307.562241
 21
337.0025
 31
0.0
  0
LINE
  5
90B3
  8
0
 10
317.312241
 20
332.8115
 30
0.0
 11
318.612241
 21
331.5115
 31
0.0
  0
LINE
  5
90B4
  8
0
 10
294.012241
 20
331.5115
 30
0.0
 11
295.312241
 21
332.8115
 31
0.0
  0
LINE
  5
90B5
  8
0
 10
293.722241
 20
332.2115
 30
0.0
 11
294.612241
 21
333.1015
 31
0.0
  0
TEXT
  5
90B6
  8
7-TEX2
 10
285.790141
 20
336.4535
 30
0.0
 40
2.0
  1
DATA
 41
0.955118
 72
     1
 11
289.292241
 21
337.4535
 31
0.0
 73
     2
  0
LINE
  5
90B7
  8
0
 10
281.312241
 20
332.8115
 30
0.0
 11
282.612241
 21
331.5115
 31
0.0
  0
LINE
  5
90B8
  8
0
 10
284.512241
 20
338.0115
 30
0.0
 11
282.012241
 21
338.0115
 31
0.0
  0
LINE
  5
90B9
  8
0
 10
282.012241
 20
333.1015
 30
0.0
 11
282.902241
 21
332.2115
 31
0.0
  0
LINE
  5
90BA
  8
0
 10
282.012241
 20
338.0115
 30
0.0
 11
282.012241
 21
333.1015
 31
0.0
  0
LINE
  5
90BB
  8
0
 10
282.612241
 20
331.5115
 30
0.0
 11
294.012241
 21
331.5115
 31
0.0
  0
LINE
  5
90BC
  8
0
 10
282.902241
 20
332.2115
 30
0.0
 11
293.722241
 21
332.2115
 31
0.0
  0
TEXT
  5
90BD
  8
7-TEX2
 10
283.932991
 20
333.5815
 30
0.0
 40
2.0
  1
TRANS
 41
0.964972
 72
     1
 11
288.390241
 21
334.5815
 31
0.0
 73
     2
  0
LINE
  5
90BE
  8
0
 10
331.312241
 20
332.8115
 30
0.0
 11
331.312241
 21
340.2115
 31
0.0
  0
LINE
  5
90BF
  8
0
 10
317.312241
 20
340.2115
 30
0.0
 11
317.312241
 21
332.8115
 31
0.0
  0
LINE
  5
90C0
  8
0
 10
313.312241
 20
332.8115
 30
0.0
 11
313.312241
 21
340.2115
 31
0.0
  0
LINE
  5
90C1
  8
0
 10
299.312241
 20
340.2115
 30
0.0
 11
299.312241
 21
332.8115
 31
0.0
  0
LINE
  5
90C2
  8
0
 10
295.312241
 20
332.8115
 30
0.0
 11
295.312241
 21
340.2115
 31
0.0
  0
LINE
  5
90C3
  8
0
 10
281.312241
 20
340.2115
 30
0.0
 11
281.312241
 21
332.8115
 31
0.0
  0
LINE
  5
90C4
  8
0
 10
318.012241
 20
338.0115
 30
0.0
 11
318.012241
 21
339.9215
 31
0.0
  0
LINE
  5
90C5
  8
0
 10
320.512241
 20
340.8115
 30
0.0
 11
320.512241
 21
338.0115
 31
0.0
  0
LINE
  5
90C6
  8
0
 10
330.612241
 20
333.1015
 30
0.0
 11
330.612241
 21
339.9215
 31
0.0
  0
LINE
  5
90C7
  8
0
 10
312.612241
 20
339.9215
 30
0.0
 11
312.612241
 21
333.1015
 31
0.0
  0
LINE
  5
90C8
  8
0
 10
302.512241
 20
338.0115
 30
0.0
 11
302.512241
 21
340.8115
 31
0.0
  0
LINE
  5
90C9
  8
0
 10
300.012241
 20
339.9215
 30
0.0
 11
300.012241
 21
338.0115
 31
0.0
  0
LINE
  5
90CA
  8
0
 10
282.012241
 20
338.0115
 30
0.0
 11
282.012241
 21
339.9215
 31
0.0
  0
LINE
  5
90CB
  8
0
 10
284.512241
 20
340.8115
 30
0.0
 11
284.512241
 21
338.0115
 31
0.0
  0
LINE
  5
90CC
  8
0
 10
294.612241
 20
333.1015
 30
0.0
 11
294.612241
 21
339.9215
 31
0.0
  0
TEXT
  5
90CD
  8
6-TEX1
 10
318.787241
 20
338.5755
 30
0.0
 40
1.6
  1
C
 41
0.84
 72
     1
 11
319.267241
 21
339.3755
 31
0.0
 73
     2
  0
TEXT
  5
90CE
  8
6-TEX1
 10
300.820241
 20
338.6325
 30
0.0
 40
1.6
  1
B
 41
0.9
 72
     1
 11
301.300241
 21
339.4325
 31
0.0
 73
     2
  0
TEXT
  5
90CF
  8
6-TEX1
 10
282.872241
 20
338.6135
 30
0.0
 40
1.6
  1
A
 41
0.7875
 72
     1
 11
283.352241
 21
339.4135
 31
0.0
 73
     2
  0
ARC
  5
90D2
  8
0
 10
333.312283
 20
353.510638
 30
0.0
 40
10.999862
 50
309.521504
 51
90.000219
  0
ARC
  5
90D5
  8
0
 10
333.311473
 20
353.511007
 30
0.0
 40
14.499493
 50
316.397961
 51
90.000914
  0
LINE
  5
90D7
  8
0
 10
281.666241
 20
411.3635
 30
0.0
 11
264.564539
 21
419.0795
 31
0.0
  0
LINE
  5
90D8
  8
0
 10
263.857539
 20
418.3725
 30
0.0
 11
280.959241
 21
410.6565
 31
0.0
  0
LINE
  5
90D9
  8
0
 10
275.621441
 20
394.315859
 30
0.0
 11
278.613841
 21
394.315859
 31
0.0
  0
ARC
  5
90DA
  8
0
 10
277.116241
 20
390.822364
 30
0.0
 40
0.499383
 50
181.549637
 51
358.450363
  0
LINE
  5
90DB
  8
5
 10
337.562241
 20
388.0105
 30
0.0
 11
275.062241
 21
388.0105
 31
0.0
  0
LINE
  5
90DC
  8
0
 10
265.313241
 20
402.3095
 30
0.0
 11
306.312241
 21
402.3095
 31
0.0
  0
LINE
  5
90DE
  8
0
 10
346.482814
 20
407.5095
 30
0.0
 11
266.141668
 21
407.5095
 31
0.0
  0
LINE
  5
90E0
  8
0
 10
343.062241
 20
397.5105
 30
0.0
 11
269.562241
 21
397.5105
 31
0.0
  0
ARC
  5
90E3
  8
0
 10
264.209923
 20
418.727383
 30
0.0
 40
3.010616
 50
344.635692
 51
359.983197
  0
ARC
  5
90E4
  8
0
 10
264.211089
 20
418.726294
 30
0.0
 40
1.713854
 50
298.032
 51
319.87276
  0
ARC
  5
90E5
  8
0
 10
264.211039
 20
418.726
 30
0.0
 40
0.499924
 50
45.0
 51
225.0
  0
ARC
  5
90E6
  8
0
 10
264.209923
 20
418.727383
 30
0.0
 40
3.010616
 50
305.437897
 51
326.765235
  0
LINE
  5
90E7
  8
0
 10
267.220539
 20
420.7265
 30
0.0
 11
267.220539
 21
418.7265
 31
0.0
  0
LINE
  5
90E8
  8
0
 10
261.202539
 20
418.7265
 30
0.0
 11
261.202539
 21
420.7265
 31
0.0
  0
ARC
  5
90E9
  8
0
 10
264.211089
 20
418.726294
 30
0.0
 40
1.713854
 50
351.539037
 51
134.984468
  0
ARC
  5
90EA
  8
0
 10
264.211177
 20
418.726359
 30
0.0
 40
1.71387
 50
134.988121
 51
298.028346
  0
ARC
  5
90EB
  8
0
 10
264.211366
 20
418.726214
 30
0.0
 40
3.008827
 50
179.994555
 51
305.428411
  0
LINE
  5
9118
  8
0
 10
264.727455
 20
406.923714
 30
0.0
 11
260.899028
 21
403.095286
 31
0.0
  0
LINE
  5
911D
  8
0
 10
276.617041
 20
393.317859
 30
0.0
 11
275.621441
 21
393.317859
 31
0.0
  0
ARC
  5
911E
  8
0
 10
275.61886
 20
393.817271
 30
0.0
 40
0.499419
 50
180.047314
 51
270.296116
  0
ARC
  5
911F
  8
0
 10
275.61819
 20
393.817121
 30
0.0
 40
0.498749
 50
89.62651
 51
180.03006
  0
LINE
  5
9122
  8
0
 10
276.617041
 20
390.808859
 30
0.0
 11
276.617041
 21
393.317859
 31
0.0
  0
LINE
  5
9143
  8
0
 10
339.062241
 20
407.4875
 30
0.0
 11
339.062241
 21
407.8105
 31
0.0
  0
LINE
  5
915A
  8
0
 10
351.725455
 20
403.095286
 30
0.0
 11
347.897028
 21
406.923714
 31
0.0
  0
LINE
  5
9167
  8
0
 10
338.312241
 20
414.3105
 30
0.0
 11
337.312241
 21
415.3105
 31
0.0
  0
LINE
  5
9168
  8
0
 10
325.312241
 20
415.3105
 30
0.0
 11
324.312241
 21
414.3105
 31
0.0
  0
LINE
  5
9169
  8
0
 10
337.312241
 20
415.3105
 30
0.0
 11
325.312241
 21
415.3105
 31
0.0
  0
LINE
  5
916D
  8
0
 10
323.562241
 20
407.8105
 30
0.0
 11
323.562241
 21
407.4875
 31
0.0
  0
LINE
  5
916E
  8
0
 10
324.312241
 20
407.8105
 30
0.0
 11
338.312241
 21
407.8105
 31
0.0
  0
LINE
  5
916F
  8
0
 10
324.312241
 20
414.3105
 30
0.0
 11
324.312241
 21
407.8105
 31
0.0
  0
LINE
  5
9170
  8
0
 10
338.312241
 20
407.8105
 30
0.0
 11
338.312241
 21
414.3105
 31
0.0
  0
ARC
  5
9175
  8
0
 10
329.029741
 20
393.993859
 30
0.0
 40
0.304
 50
270.0
 51
90.0
  0
LINE
  5
9176
  8
0
 10
329.029741
 20
393.689859
 30
0.0
 11
328.381741
 21
393.689859
 31
0.0
  0
LINE
  5
9177
  8
0
 10
328.381741
 20
393.689859
 30
0.0
 11
328.381741
 21
393.689859
 31
0.0
  0
LINE
  5
9178
  8
0
 10
328.381741
 20
393.689859
 30
0.0
 11
328.359741
 21
393.688859
 31
0.0
  0
LINE
  5
9179
  8
0
 10
328.359741
 20
393.688859
 30
0.0
 11
328.337741
 21
393.683859
 31
0.0
  0
LINE
  5
917A
  8
0
 10
328.337741
 20
393.683859
 30
0.0
 11
328.314741
 21
393.674859
 31
0.0
  0
LINE
  5
917B
  8
0
 10
328.314741
 20
393.674859
 30
0.0
 11
328.293741
 21
393.661859
 31
0.0
  0
LINE
  5
917C
  8
0
 10
328.293741
 20
393.661859
 30
0.0
 11
328.274741
 21
393.645859
 31
0.0
  0
LINE
  5
917D
  8
0
 10
328.274741
 20
393.645859
 30
0.0
 11
328.258741
 21
393.626859
 31
0.0
  0
LINE
  5
917E
  8
0
 10
328.258741
 20
393.626859
 30
0.0
 11
328.245741
 21
393.604859
 31
0.0
  0
LINE
  5
917F
  8
0
 10
328.245741
 20
393.604859
 30
0.0
 11
328.236741
 21
393.582859
 31
0.0
  0
LINE
  5
9180
  8
0
 10
328.236741
 20
393.582859
 30
0.0
 11
328.229741
 21
393.537859
 31
0.0
  0
ARC
  5
9181
  8
0
 10
330.174619
 20
393.998077
 30
0.0
 40
0.303877
 50
22.80515
 51
180.041031
  0
LINE
  5
9182
  8
0
 10
330.454741
 20
394.115859
 30
0.0
 11
331.535741
 21
391.540859
 31
0.0
  0
LINE
  5
9183
  8
0
 10
331.535741
 20
391.540859
 30
0.0
 11
331.535741
 21
391.540859
 31
0.0
  0
LINE
  5
9184
  8
0
 10
331.535741
 20
391.540859
 30
0.0
 11
331.541741
 21
391.528859
 31
0.0
  0
LINE
  5
9185
  8
0
 10
331.541741
 20
391.528859
 30
0.0
 11
331.551741
 21
391.517859
 31
0.0
  0
LINE
  5
9186
  8
0
 10
331.551741
 20
391.517859
 30
0.0
 11
331.564741
 21
391.507859
 31
0.0
  0
LINE
  5
9187
  8
0
 10
331.564741
 20
391.507859
 30
0.0
 11
331.580741
 21
391.501859
 31
0.0
  0
LINE
  5
9188
  8
0
 10
331.580741
 20
391.501859
 30
0.0
 11
331.598741
 21
391.498859
 31
0.0
  0
LINE
  5
9189
  8
0
 10
331.598741
 20
391.498859
 30
0.0
 11
331.616741
 21
391.501859
 31
0.0
  0
LINE
  5
918A
  8
0
 10
331.616741
 20
391.501859
 30
0.0
 11
331.632741
 21
391.507859
 31
0.0
  0
LINE
  5
918B
  8
0
 10
331.632741
 20
391.507859
 30
0.0
 11
331.645741
 21
391.517859
 31
0.0
  0
LINE
  5
918C
  8
0
 10
331.645741
 20
391.517859
 30
0.0
 11
331.661741
 21
391.540859
 31
0.0
  0
LINE
  5
918D
  8
0
 10
331.661741
 20
391.540859
 30
0.0
 11
332.742741
 21
394.115859
 31
0.0
  0
ARC
  5
918E
  8
0
 10
333.022858
 20
393.998046
 30
0.0
 40
0.303883
 50
359.964663
 51
157.189156
  0
LINE
  5
918F
  8
0
 10
332.718741
 20
392.150859
 30
0.0
 11
332.718741
 21
392.150859
 31
0.0
  0
LINE
  5
9190
  8
0
 10
332.718741
 20
392.150859
 30
0.0
 11
332.716741
 21
392.164859
 31
0.0
  0
LINE
  5
9191
  8
0
 10
332.716741
 20
392.164859
 30
0.0
 11
332.711741
 21
392.180859
 31
0.0
  0
LINE
  5
9192
  8
0
 10
332.711741
 20
392.180859
 30
0.0
 11
332.700741
 21
392.196859
 31
0.0
  0
LINE
  5
9193
  8
0
 10
332.700741
 20
392.196859
 30
0.0
 11
332.684741
 21
392.209859
 31
0.0
  0
LINE
  5
9194
  8
0
 10
332.684741
 20
392.209859
 30
0.0
 11
332.663741
 21
392.217859
 31
0.0
  0
LINE
  5
9195
  8
0
 10
332.663741
 20
392.217859
 30
0.0
 11
332.641741
 21
392.218859
 31
0.0
  0
LINE
  5
9196
  8
0
 10
332.641741
 20
392.218859
 30
0.0
 11
332.621741
 21
392.212859
 31
0.0
  0
LINE
  5
9197
  8
0
 10
332.621741
 20
392.212859
 30
0.0
 11
332.605741
 21
392.201859
 31
0.0
  0
LINE
  5
9198
  8
0
 10
332.605741
 20
392.201859
 30
0.0
 11
332.587741
 21
392.176859
 31
0.0
  0
LINE
  5
9199
  8
0
 10
330.609741
 20
392.176859
 30
0.0
 11
330.609741
 21
392.176859
 31
0.0
  0
LINE
  5
919A
  8
0
 10
330.609741
 20
392.176859
 30
0.0
 11
330.602741
 21
392.189859
 31
0.0
  0
LINE
  5
919B
  8
0
 10
330.602741
 20
392.189859
 30
0.0
 11
330.590741
 21
392.201859
 31
0.0
  0
LINE
  5
919C
  8
0
 10
330.590741
 20
392.201859
 30
0.0
 11
330.574741
 21
392.212859
 31
0.0
  0
LINE
  5
919D
  8
0
 10
330.574741
 20
392.212859
 30
0.0
 11
330.554741
 21
392.218859
 31
0.0
  0
LINE
  5
919E
  8
0
 10
330.554741
 20
392.218859
 30
0.0
 11
330.532741
 21
392.217859
 31
0.0
  0
LINE
  5
919F
  8
0
 10
330.532741
 20
392.217859
 30
0.0
 11
330.512741
 21
392.209859
 31
0.0
  0
LINE
  5
91A0
  8
0
 10
330.512741
 20
392.209859
 30
0.0
 11
330.496741
 21
392.196859
 31
0.0
  0
LINE
  5
91A1
  8
0
 10
330.496741
 20
392.196859
 30
0.0
 11
330.485741
 21
392.180859
 31
0.0
  0
LINE
  5
91A2
  8
0
 10
330.485741
 20
392.180859
 30
0.0
 11
330.478741
 21
392.150859
 31
0.0
  0
LINE
  5
91A3
  8
0
 10
334.607741
 20
393.683859
 30
0.0
 11
334.607741
 21
394.139859
 31
0.0
  0
LINE
  5
91A4
  8
0
 10
334.607741
 20
394.139859
 30
0.0
 11
334.607741
 21
394.139859
 31
0.0
  0
LINE
  5
91A5
  8
0
 10
334.607741
 20
394.139859
 30
0.0
 11
334.609741
 21
394.161859
 31
0.0
  0
LINE
  5
91A6
  8
0
 10
334.609741
 20
394.161859
 30
0.0
 11
334.614741
 21
394.183859
 31
0.0
  0
LINE
  5
91A7
  8
0
 10
334.614741
 20
394.183859
 30
0.0
 11
334.623741
 21
394.206859
 31
0.0
  0
LINE
  5
91A8
  8
0
 10
334.623741
 20
394.206859
 30
0.0
 11
334.635741
 21
394.227859
 31
0.0
  0
LINE
  5
91A9
  8
0
 10
334.635741
 20
394.227859
 30
0.0
 11
334.651741
 21
394.246859
 31
0.0
  0
LINE
  5
91AA
  8
0
 10
334.651741
 20
394.246859
 30
0.0
 11
334.671741
 21
394.262859
 31
0.0
  0
LINE
  5
91AB
  8
0
 10
334.671741
 20
394.262859
 30
0.0
 11
334.692741
 21
394.275859
 31
0.0
  0
LINE
  5
91AC
  8
0
 10
334.692741
 20
394.275859
 30
0.0
 11
334.714741
 21
394.284859
 31
0.0
  0
LINE
  5
91AD
  8
0
 10
334.714741
 20
394.284859
 30
0.0
 11
334.759741
 21
394.291859
 31
0.0
  0
LINE
  5
91AE
  8
0
 10
334.759741
 20
394.291859
 30
0.0
 11
336.511741
 21
394.291859
 31
0.0
  0
ARC
  5
91AF
  8
0
 10
336.511741
 20
393.987859
 30
0.0
 40
0.304
 50
270.0
 51
90.0
  0
LINE
  5
91B0
  8
0
 10
336.511741
 20
393.683859
 30
0.0
 11
335.367741
 21
393.683859
 31
0.0
  0
LINE
  5
91B1
  8
0
 10
335.367741
 20
393.683859
 30
0.0
 11
335.367741
 21
393.683859
 31
0.0
  0
LINE
  5
91B2
  8
0
 10
335.367741
 20
393.683859
 30
0.0
 11
335.345741
 21
393.681859
 31
0.0
  0
LINE
  5
91B3
  8
0
 10
335.345741
 20
393.681859
 30
0.0
 11
335.322741
 21
393.676859
 31
0.0
  0
LINE
  5
91B4
  8
0
 10
335.322741
 20
393.676859
 30
0.0
 11
335.300741
 21
393.667859
 31
0.0
  0
LINE
  5
91B5
  8
0
 10
335.300741
 20
393.667859
 30
0.0
 11
335.279741
 21
393.654859
 31
0.0
  0
LINE
  5
91B6
  8
0
 10
335.279741
 20
393.654859
 30
0.0
 11
335.259741
 21
393.638859
 31
0.0
  0
LINE
  5
91B7
  8
0
 10
335.259741
 20
393.638859
 30
0.0
 11
335.243741
 21
393.619859
 31
0.0
  0
LINE
  5
91B8
  8
0
 10
335.243741
 20
393.619859
 30
0.0
 11
335.231741
 21
393.598859
 31
0.0
  0
LINE
  5
91B9
  8
0
 10
335.231741
 20
393.598859
 30
0.0
 11
335.222741
 21
393.575859
 31
0.0
  0
LINE
  5
91BA
  8
0
 10
335.222741
 20
393.575859
 30
0.0
 11
335.215741
 21
393.531859
 31
0.0
  0
LINE
  5
91BB
  8
0
 10
335.215741
 20
393.531859
 30
0.0
 11
335.215741
 21
393.220859
 31
0.0
  0
ARC
  5
91BC
  8
0
 10
335.367378
 20
393.22078
 30
0.0
 40
0.151637
 50
179.970108
 51
282.710275
  0
ARC
  5
91BD
  8
0
 10
335.711397
 20
391.699504
 30
0.0
 40
1.408052
 50
6.375462
 51
102.745933
  0
LINE
  5
91BE
  8
0
 10
334.321741
 20
391.281859
 30
0.0
 11
334.321741
 21
391.281859
 31
0.0
  0
ARC
  5
91BF
  8
0
 10
334.595214
 20
391.38346
 30
0.0
 40
0.291736
 50
177.564148
 51
200.381106
  0
LINE
  5
91C0
  8
0
 10
334.303741
 20
391.395859
 30
0.0
 11
334.303741
 21
391.395859
 31
0.0
  0
LINE
  5
91C1
  8
0
 10
334.303741
 20
391.395859
 30
0.0
 11
334.306741
 21
391.439859
 31
0.0
  0
LINE
  5
91C2
  8
0
 10
334.306741
 20
391.439859
 30
0.0
 11
334.316741
 21
391.484859
 31
0.0
  0
LINE
  5
91C3
  8
0
 10
334.316741
 20
391.484859
 30
0.0
 11
334.334741
 21
391.529859
 31
0.0
  0
LINE
  5
91C4
  8
0
 10
334.334741
 20
391.529859
 30
0.0
 11
334.359741
 21
391.571859
 31
0.0
  0
LINE
  5
91C5
  8
0
 10
334.359741
 20
391.571859
 30
0.0
 11
334.391741
 21
391.610859
 31
0.0
  0
LINE
  5
91C6
  8
0
 10
334.391741
 20
391.610859
 30
0.0
 11
334.429741
 21
391.642859
 31
0.0
  0
LINE
  5
91C7
  8
0
 10
334.429741
 20
391.642859
 30
0.0
 11
334.471741
 21
391.667859
 31
0.0
  0
LINE
  5
91C8
  8
0
 10
334.471741
 20
391.667859
 30
0.0
 11
334.516741
 21
391.685859
 31
0.0
  0
LINE
  5
91C9
  8
0
 10
334.516741
 20
391.685859
 30
0.0
 11
334.604741
 21
391.699859
 31
0.0
  0
LINE
  5
91CA
  8
0
 10
334.604741
 20
391.699859
 30
0.0
 11
334.604741
 21
391.699859
 31
0.0
  0
ARC
  5
91CB
  8
0
 10
334.604268
 20
391.39545
 30
0.0
 40
0.30441
 50
16.098464
 51
89.910994
  0
LINE
  5
91CC
  8
0
 10
334.896741
 20
391.479859
 30
0.0
 11
334.896741
 21
391.479859
 31
0.0
  0
LINE
  5
91CD
  8
0
 10
334.896741
 20
391.479859
 30
0.0
 11
334.917741
 21
391.416859
 31
0.0
  0
LINE
  5
91CE
  8
0
 10
334.917741
 20
391.416859
 30
0.0
 11
334.943741
 21
391.354859
 31
0.0
  0
LINE
  5
91CF
  8
0
 10
334.943741
 20
391.354859
 30
0.0
 11
334.975741
 21
391.294859
 31
0.0
  0
LINE
  5
91D0
  8
0
 10
334.975741
 20
391.294859
 30
0.0
 11
335.012741
 21
391.236859
 31
0.0
  0
LINE
  5
91D1
  8
0
 10
335.012741
 20
391.236859
 30
0.0
 11
335.055741
 21
391.182859
 31
0.0
  0
LINE
  5
91D2
  8
0
 10
335.055741
 20
391.182859
 30
0.0
 11
335.101741
 21
391.131859
 31
0.0
  0
LINE
  5
91D3
  8
0
 10
335.101741
 20
391.131859
 30
0.0
 11
335.152741
 21
391.085859
 31
0.0
  0
ARC
  5
91D4
  8
0
 10
335.711791
 20
391.699903
 30
0.0
 40
0.799956
 50
359.781954
 51
90.003589
  0
ARC
  5
91D5
  8
0
 10
335.67057
 20
391.903643
 30
0.0
 40
0.597635
 50
86.049724
 51
133.956839
  0
ARC
  5
91D6
  8
0
 10
335.151133
 20
392.44313
 30
0.0
 40
0.151272
 50
269.851689
 51
313.75113
  0
LINE
  5
91D7
  8
0
 10
335.150741
 20
392.291859
 30
0.0
 11
334.759741
 21
392.291859
 31
0.0
  0
LINE
  5
91D8
  8
0
 10
334.759741
 20
392.291859
 30
0.0
 11
334.759741
 21
392.291859
 31
0.0
  0
LINE
  5
91D9
  8
0
 10
334.759741
 20
392.291859
 30
0.0
 11
334.737741
 21
392.292859
 31
0.0
  0
LINE
  5
91DA
  8
0
 10
334.737741
 20
392.292859
 30
0.0
 11
334.714741
 21
392.297859
 31
0.0
  0
LINE
  5
91DB
  8
0
 10
334.714741
 20
392.297859
 30
0.0
 11
334.692741
 21
392.306859
 31
0.0
  0
LINE
  5
91DC
  8
0
 10
334.692741
 20
392.306859
 30
0.0
 11
334.671741
 21
392.319859
 31
0.0
  0
LINE
  5
91DD
  8
0
 10
334.671741
 20
392.319859
 30
0.0
 11
334.651741
 21
392.335859
 31
0.0
  0
LINE
  5
91DE
  8
0
 10
334.651741
 20
392.335859
 30
0.0
 11
334.635741
 21
392.354859
 31
0.0
  0
LINE
  5
91DF
  8
0
 10
334.635741
 20
392.354859
 30
0.0
 11
334.623741
 21
392.376859
 31
0.0
  0
LINE
  5
91E0
  8
0
 10
334.623741
 20
392.376859
 30
0.0
 11
334.614741
 21
392.398859
 31
0.0
  0
LINE
  5
91E1
  8
0
 10
334.614741
 20
392.398859
 30
0.0
 11
334.607741
 21
392.443859
 31
0.0
  0
LINE
  5
91E2
  8
0
 10
334.607741
 20
392.443859
 30
0.0
 11
334.607741
 21
393.683859
 31
0.0
  0
ARC
  5
91E7
  8
0
 10
326.821741
 20
393.993859
 30
0.0
 40
0.304
 50
90.0
 51
270.0
  0
LINE
  5
91E8
  8
0
 10
327.621741
 20
393.537859
 30
0.0
 11
327.621741
 21
393.537859
 31
0.0
  0
LINE
  5
91E9
  8
0
 10
327.621741
 20
393.537859
 30
0.0
 11
327.620741
 21
393.559859
 31
0.0
  0
LINE
  5
91EA
  8
0
 10
327.620741
 20
393.559859
 30
0.0
 11
327.615741
 21
393.582859
 31
0.0
  0
LINE
  5
91EB
  8
0
 10
327.615741
 20
393.582859
 30
0.0
 11
327.606741
 21
393.604859
 31
0.0
  0
LINE
  5
91EC
  8
0
 10
327.606741
 20
393.604859
 30
0.0
 11
327.593741
 21
393.626859
 31
0.0
  0
LINE
  5
91ED
  8
0
 10
327.593741
 20
393.626859
 30
0.0
 11
327.577741
 21
393.645859
 31
0.0
  0
LINE
  5
91EE
  8
0
 10
327.577741
 20
393.645859
 30
0.0
 11
327.558741
 21
393.661859
 31
0.0
  0
LINE
  5
91EF
  8
0
 10
327.558741
 20
393.661859
 30
0.0
 11
327.537741
 21
393.674859
 31
0.0
  0
LINE
  5
91F0
  8
0
 10
327.537741
 20
393.674859
 30
0.0
 11
327.514741
 21
393.683859
 31
0.0
  0
LINE
  5
91F1
  8
0
 10
327.514741
 20
393.683859
 30
0.0
 11
327.469741
 21
393.689859
 31
0.0
  0
LINE
  5
91F2
  8
0
 10
327.469741
 20
393.689859
 30
0.0
 11
326.821741
 21
393.689859
 31
0.0
  0
LINE
  5
91F3
  8
0
 10
326.821741
 20
394.297859
 30
0.0
 11
329.029741
 21
394.297859
 31
0.0
  0
ARC
  5
91F4
  8
0
 10
333.022741
 20
390.605859
 30
0.0
 40
0.304
 50
180.0
 51
0.0
  0
ARC
  5
91F5
  8
0
 10
331.598241
 20
390.606242
 30
0.0
 40
0.304071
 50
202.708181
 51
337.291819
  0
ARC
  5
91F6
  8
0
 10
330.174741
 20
390.608013
 30
0.0
 40
0.304008
 50
180.405882
 51
359.594118
  0
LINE
  5
91F7
  8
0
 10
335.711741
 20
390.291859
 30
0.0
 11
335.711741
 21
390.291859
 31
0.0
  0
LINE
  5
91F8
  8
0
 10
335.711741
 20
390.291859
 30
0.0
 11
335.706741
 21
390.291859
 31
0.0
  0
LINE
  5
91F9
  8
0
 10
335.706741
 20
390.291859
 30
0.0
 11
335.702741
 21
390.291859
 31
0.0
  0
LINE
  5
91FA
  8
0
 10
335.702741
 20
390.291859
 30
0.0
 11
335.697741
 21
390.291859
 31
0.0
  0
LINE
  5
91FB
  8
0
 10
335.697741
 20
390.291859
 30
0.0
 11
335.693741
 21
390.291859
 31
0.0
  0
LINE
  5
91FC
  8
0
 10
335.693741
 20
390.291859
 30
0.0
 11
335.688741
 21
390.291859
 31
0.0
  0
LINE
  5
91FD
  8
0
 10
335.688741
 20
390.291859
 30
0.0
 11
335.684741
 21
390.291859
 31
0.0
  0
LINE
  5
91FE
  8
0
 10
335.684741
 20
390.291859
 30
0.0
 11
335.679741
 21
390.291859
 31
0.0
  0
LINE
  5
91FF
  8
0
 10
335.679741
 20
390.291859
 30
0.0
 11
335.675741
 21
390.291859
 31
0.0
  0
LINE
  5
9200
  8
0
 10
335.675741
 20
390.291859
 30
0.0
 11
335.666741
 21
390.291859
 31
0.0
  0
LINE
  5
9201
  8
0
 10
335.666741
 20
390.291859
 30
0.0
 11
335.666741
 21
390.291859
 31
0.0
  0
LINE
  5
9202
  8
0
 10
335.666741
 20
390.291859
 30
0.0
 11
335.496741
 21
390.301859
 31
0.0
  0
LINE
  5
9203
  8
0
 10
335.496741
 20
390.301859
 30
0.0
 11
335.324741
 21
390.333859
 31
0.0
  0
LINE
  5
9204
  8
0
 10
335.324741
 20
390.333859
 30
0.0
 11
335.152741
 21
390.388859
 31
0.0
  0
LINE
  5
9205
  8
0
 10
335.152741
 20
390.388859
 30
0.0
 11
334.986741
 21
390.466859
 31
0.0
  0
LINE
  5
9206
  8
0
 10
334.986741
 20
390.466859
 30
0.0
 11
334.831741
 21
390.565859
 31
0.0
  0
LINE
  5
9207
  8
0
 10
334.831741
 20
390.565859
 30
0.0
 11
334.690741
 21
390.684859
 31
0.0
  0
LINE
  5
9208
  8
0
 10
334.690741
 20
390.684859
 30
0.0
 11
334.566741
 21
390.819859
 31
0.0
  0
LINE
  5
9209
  8
0
 10
334.566741
 20
390.819859
 30
0.0
 11
334.463741
 21
390.967859
 31
0.0
  0
LINE
  5
920A
  8
0
 10
335.206741
 20
391.043859
 30
0.0
 11
335.322741
 21
390.976859
 31
0.0
  0
LINE
  5
920B
  8
0
 10
335.322741
 20
390.976859
 30
0.0
 11
335.322741
 21
390.976859
 31
0.0
  0
ARC
  5
920C
  8
0
 10
335.670797
 20
391.715153
 30
0.0
 40
0.816224
 50
244.759277
 51
272.734766
  0
LINE
  5
920D
  8
5
 10
331.562241
 20
381.2035
 30
0.0
 11
328.612241
 21
381.2035
 31
0.0
  0
LINE
  5
920E
  8
5
 10
331.562241
 20
381.9035
 30
0.0
 11
331.562241
 21
386.8135
 31
0.0
  0
LINE
  5
920F
  8
5
 10
328.612241
 20
381.9035
 30
0.0
 11
331.562241
 21
381.9035
 31
0.0
  0
LINE
  5
9210
  8
5
 10
328.612241
 20
386.8135
 30
0.0
 11
328.612241
 21
381.9035
 31
0.0
  0
LINE
  5
9211
  8
5
 10
331.562241
 20
386.8135
 30
0.0
 11
328.612241
 21
386.8135
 31
0.0
  0
LINE
  5
9212
  8
5
 10
335.212241
 20
381.2035
 30
0.0
 11
332.262241
 21
381.2035
 31
0.0
  0
LINE
  5
9213
  8
5
 10
335.212241
 20
381.9035
 30
0.0
 11
335.212241
 21
386.8135
 31
0.0
  0
LINE
  5
9214
  8
5
 10
332.262241
 20
381.9035
 30
0.0
 11
335.212241
 21
381.9035
 31
0.0
  0
LINE
  5
9215
  8
5
 10
332.262241
 20
386.8135
 30
0.0
 11
332.262241
 21
381.9035
 31
0.0
  0
LINE
  5
9216
  8
5
 10
335.212241
 20
386.8135
 30
0.0
 11
332.262241
 21
386.8135
 31
0.0
  0
LINE
  5
9217
  8
5
 10
320.612241
 20
381.2035
 30
0.0
 11
317.662241
 21
381.2035
 31
0.0
  0
LINE
  5
9218
  8
5
 10
320.612241
 20
381.9035
 30
0.0
 11
320.612241
 21
386.8135
 31
0.0
  0
LINE
  5
9219
  8
5
 10
317.662241
 20
381.9035
 30
0.0
 11
320.612241
 21
381.9035
 31
0.0
  0
LINE
  5
921A
  8
5
 10
317.662241
 20
386.8135
 30
0.0
 11
317.662241
 21
381.9035
 31
0.0
  0
LINE
  5
921B
  8
5
 10
320.612241
 20
386.8135
 30
0.0
 11
317.662241
 21
386.8135
 31
0.0
  0
LINE
  5
921C
  8
5
 10
324.262241
 20
381.2035
 30
0.0
 11
321.312241
 21
381.2035
 31
0.0
  0
LINE
  5
921D
  8
5
 10
324.262241
 20
381.9035
 30
0.0
 11
324.262241
 21
386.8135
 31
0.0
  0
LINE
  5
921E
  8
5
 10
321.312241
 20
381.9035
 30
0.0
 11
324.262241
 21
381.9035
 31
0.0
  0
LINE
  5
921F
  8
5
 10
321.312241
 20
386.8135
 30
0.0
 11
321.312241
 21
381.9035
 31
0.0
  0
LINE
  5
9220
  8
5
 10
324.262241
 20
386.8135
 30
0.0
 11
321.312241
 21
386.8135
 31
0.0
  0
LINE
  5
9221
  8
5
 10
327.912241
 20
381.2035
 30
0.0
 11
324.962241
 21
381.2035
 31
0.0
  0
LINE
  5
9222
  8
5
 10
327.912241
 20
381.9035
 30
0.0
 11
327.912241
 21
386.8135
 31
0.0
  0
LINE
  5
9223
  8
5
 10
324.962241
 20
381.9035
 30
0.0
 11
327.912241
 21
381.9035
 31
0.0
  0
LINE
  5
9224
  8
5
 10
324.962241
 20
386.8135
 30
0.0
 11
324.962241
 21
381.9035
 31
0.0
  0
LINE
  5
9225
  8
5
 10
327.912241
 20
386.8135
 30
0.0
 11
324.962241
 21
386.8135
 31
0.0
  0
ARC
  5
9226
  8
0
 10
327.925741
 20
390.601859
 30
0.0
 40
0.304
 50
180.0
 51
0.0
  0
LINE
  5
9227
  8
0
 10
328.229741
 20
393.537859
 30
0.0
 11
328.229741
 21
390.601859
 31
0.0
  0
LINE
  5
9228
  8
0
 10
327.621741
 20
390.601859
 30
0.0
 11
327.621741
 21
393.537859
 31
0.0
  0
LINE
  5
9229
  8
0
 10
329.870741
 20
390.605859
 30
0.0
 11
329.870741
 21
393.997859
 31
0.0
  0
LINE
  5
922A
  8
0
 10
333.326741
 20
393.997859
 30
0.0
 11
333.326741
 21
390.605859
 31
0.0
  0
LINE
  5
922B
  8
0
 10
332.718741
 20
390.605859
 30
0.0
 11
332.718741
 21
392.150859
 31
0.0
  0
LINE
  5
922C
  8
0
 10
332.587741
 20
392.176859
 30
0.0
 11
331.878741
 21
390.488859
 31
0.0
  0
LINE
  5
922D
  8
0
 10
331.317741
 20
390.488859
 30
0.0
 11
330.609741
 21
392.176859
 31
0.0
  0
LINE
  5
922E
  8
0
 10
330.478741
 20
392.150859
 30
0.0
 11
330.478741
 21
390.605859
 31
0.0
  0
ARC
  5
922F
  8
0
 10
335.711662
 20
391.699634
 30
0.0
 40
1.407775
 50
270.003237
 51
6.371416
  0
LINE
  5
9230
  8
0
 10
334.463741
 20
390.967859
 30
0.0
 11
334.321741
 21
391.281859
 31
0.0
  0
LINE
  5
9231
  8
0
 10
335.152741
 20
391.085859
 30
0.0
 11
335.206741
 21
391.043859
 31
0.0
  0
ARC
  5
9232
  8
0
 10
335.711686
 20
391.699918
 30
0.0
 40
0.800061
 50
269.860709
 51
359.78097
  0
LINE
  5
9234
  8
5
 10
313.312241
 20
381.2035
 30
0.0
 11
310.362241
 21
381.2035
 31
0.0
  0
LINE
  5
9235
  8
5
 10
313.312241
 20
381.9035
 30
0.0
 11
313.312241
 21
386.8135
 31
0.0
  0
LINE
  5
9236
  8
5
 10
310.362241
 20
381.9035
 30
0.0
 11
313.312241
 21
381.9035
 31
0.0
  0
LINE
  5
9237
  8
5
 10
310.362241
 20
386.8135
 30
0.0
 11
310.362241
 21
381.9035
 31
0.0
  0
LINE
  5
9238
  8
5
 10
313.312241
 20
386.8135
 30
0.0
 11
310.362241
 21
386.8135
 31
0.0
  0
LINE
  5
9239
  8
5
 10
316.962241
 20
381.2035
 30
0.0
 11
314.012241
 21
381.2035
 31
0.0
  0
LINE
  5
923A
  8
5
 10
316.962241
 20
381.9035
 30
0.0
 11
316.962241
 21
386.8135
 31
0.0
  0
LINE
  5
923B
  8
5
 10
314.012241
 20
381.9035
 30
0.0
 11
316.962241
 21
381.9035
 31
0.0
  0
LINE
  5
923C
  8
5
 10
314.012241
 20
386.8135
 30
0.0
 11
314.012241
 21
381.9035
 31
0.0
  0
LINE
  5
923D
  8
5
 10
316.962241
 20
386.8135
 30
0.0
 11
314.012241
 21
386.8135
 31
0.0
  0
LINE
  5
923E
  8
5
 10
309.662241
 20
381.2035
 30
0.0
 11
306.712241
 21
381.2035
 31
0.0
  0
LINE
  5
923F
  8
5
 10
309.662241
 20
381.9035
 30
0.0
 11
309.662241
 21
386.8135
 31
0.0
  0
LINE
  5
9240
  8
5
 10
306.712241
 20
381.9035
 30
0.0
 11
309.662241
 21
381.9035
 31
0.0
  0
LINE
  5
9241
  8
5
 10
306.712241
 20
386.8135
 30
0.0
 11
306.712241
 21
381.9035
 31
0.0
  0
LINE
  5
9242
  8
5
 10
309.662241
 20
386.8135
 30
0.0
 11
306.712241
 21
386.8135
 31
0.0
  0
LINE
  5
9243
  8
5
 10
298.712241
 20
381.9035
 30
0.0
 11
298.712241
 21
386.8135
 31
0.0
  0
LINE
  5
9244
  8
5
 10
295.762241
 20
381.9035
 30
0.0
 11
298.712241
 21
381.9035
 31
0.0
  0
LINE
  5
9245
  8
5
 10
295.762241
 20
386.8135
 30
0.0
 11
295.762241
 21
381.9035
 31
0.0
  0
LINE
  5
9246
  8
5
 10
298.712241
 20
386.8135
 30
0.0
 11
295.762241
 21
386.8135
 31
0.0
  0
LINE
  5
9247
  8
5
 10
298.712241
 20
381.2035
 30
0.0
 11
295.762241
 21
381.2035
 31
0.0
  0
LINE
  5
9248
  8
5
 10
302.362241
 20
381.9035
 30
0.0
 11
302.362241
 21
386.8135
 31
0.0
  0
LINE
  5
9249
  8
5
 10
299.412241
 20
381.9035
 30
0.0
 11
302.362241
 21
381.9035
 31
0.0
  0
LINE
  5
924A
  8
5
 10
299.412241
 20
386.8135
 30
0.0
 11
299.412241
 21
381.9035
 31
0.0
  0
LINE
  5
924B
  8
5
 10
302.362241
 20
386.8135
 30
0.0
 11
299.412241
 21
386.8135
 31
0.0
  0
LINE
  5
924C
  8
5
 10
302.362241
 20
381.2035
 30
0.0
 11
299.412241
 21
381.2035
 31
0.0
  0
LINE
  5
924D
  8
5
 10
306.012241
 20
381.9035
 30
0.0
 11
306.012241
 21
386.8135
 31
0.0
  0
LINE
  5
924E
  8
5
 10
303.062241
 20
381.9035
 30
0.0
 11
306.012241
 21
381.9035
 31
0.0
  0
LINE
  5
924F
  8
5
 10
303.062241
 20
386.8135
 30
0.0
 11
303.062241
 21
381.9035
 31
0.0
  0
LINE
  5
9250
  8
5
 10
306.012241
 20
386.8135
 30
0.0
 11
303.062241
 21
386.8135
 31
0.0
  0
LINE
  5
9251
  8
5
 10
306.012241
 20
381.2035
 30
0.0
 11
303.062241
 21
381.2035
 31
0.0
  0
LINE
  5
9252
  8
0
 10
278.811068
 20
412.651706
 30
0.0
 11
278.810875
 21
413.500712
 31
0.0
  0
LINE
  5
9253
  8
0
 10
279.812241
 20
414.5105
 30
0.0
 11
278.810875
 21
413.500712
 31
0.0
  0
LINE
  5
9254
  8
0
 10
282.812241
 20
414.5105
 30
0.0
 11
283.812241
 21
413.5105
 31
0.0
  0
LINE
  5
9255
  8
0
 10
279.812241
 20
414.5105
 30
0.0
 11
282.812241
 21
414.5105
 31
0.0
  0
ARC
  5
9257
  8
0
 10
281.312664
 20
411.010071
 30
0.0
 40
1.499878
 50
115.530001
 51
137.551872
  0
ARC
  5
9258
  8
0
 10
281.312664
 20
411.010071
 30
0.0
 40
1.499878
 50
173.882558
 51
315.000178
  0
LINE
  5
9259
  8
0
 10
278.812241
 20
407.5105
 30
0.0
 11
278.811303
 21
411.625614
 31
0.0
  0
ARC
  5
925A
  8
0
 10
281.310419
 20
411.012322
 30
0.0
 40
0.499935
 50
225.376404
 51
44.623596
  0
LINE
  5
925B
  8
0
 10
283.812241
 20
407.5105
 30
0.0
 11
278.812241
 21
407.5105
 31
0.0
  0
LINE
  5
925D
  8
0
 10
283.812241
 20
413.5105
 30
0.0
 11
283.812241
 21
407.5105
 31
0.0
  0
ARC
  5
925E
  8
0
 10
281.312651
 20
411.010062
 30
0.0
 40
1.499881
 50
315.000767
 51
115.529412
  0
LINE
  5
9261
  8
0
 10
285.243341
 20
391.496859
 30
0.0
 11
285.243341
 21
391.496859
 31
0.0
  0
LINE
  5
9262
  8
0
 10
285.243341
 20
391.496859
 30
0.0
 11
285.253141
 21
391.480859
 31
0.0
  0
LINE
  5
9263
  8
0
 10
285.253141
 20
391.480859
 30
0.0
 11
285.267441
 21
391.464859
 31
0.0
  0
LINE
  5
9264
  8
0
 10
285.267441
 20
391.464859
 30
0.0
 11
285.286041
 21
391.451859
 31
0.0
  0
LINE
  5
9265
  8
0
 10
285.286041
 20
391.451859
 30
0.0
 11
285.308441
 21
391.443859
 31
0.0
  0
LINE
  5
9266
  8
0
 10
285.308441
 20
391.443859
 30
0.0
 11
285.333041
 21
391.440859
 31
0.0
  0
LINE
  5
9267
  8
0
 10
285.333041
 20
391.440859
 30
0.0
 11
285.357641
 21
391.443859
 31
0.0
  0
LINE
  5
9268
  8
0
 10
285.357641
 20
391.443859
 30
0.0
 11
285.380041
 21
391.451859
 31
0.0
  0
LINE
  5
9269
  8
0
 10
285.380041
 20
391.451859
 30
0.0
 11
285.398641
 21
391.464859
 31
0.0
  0
LINE
  5
926A
  8
0
 10
285.398641
 20
391.464859
 30
0.0
 11
285.422741
 21
391.496859
 31
0.0
  0
LINE
  5
926B
  8
0
 10
285.422741
 20
391.496859
 30
0.0
 11
286.669741
 21
394.069859
 31
0.0
  0
ARC
  5
926C
  8
0
 10
287.100422
 20
393.81724
 30
0.0
 40
0.499302
 50
59.366069
 51
149.605881
  0
ARC
  5
926D
  8
0
 10
287.09997
 20
393.817258
 30
0.0
 40
0.499516
 50
329.51662
 51
59.32043
  0
ARC
  5
9270
  8
0
 10
283.565856
 20
393.817095
 30
0.0
 40
0.499118
 50
120.565708
 51
210.621931
  0
ARC
  5
9271
  8
0
 10
283.565908
 20
393.817046
 30
0.0
 40
0.499187
 50
30.427649
 51
120.567958
  0
ARC
  5
9272
  8
0
 10
280.550741
 20
393.816859
 30
0.0
 40
0.4992
 50
0.0
 51
180.0
  0
LINE
  5
9273
  8
0
 10
281.049941
 20
393.816859
 30
0.0
 11
281.049941
 21
391.420859
 31
0.0
  0
LINE
  5
9274
  8
0
 10
281.049941
 20
391.420859
 30
0.0
 11
281.049941
 21
391.420859
 31
0.0
  0
LINE
  5
9275
  8
0
 10
281.049941
 20
391.420859
 30
0.0
 11
281.050941
 21
391.404859
 31
0.0
  0
LINE
  5
9276
  8
0
 10
281.050941
 20
391.404859
 30
0.0
 11
281.054341
 21
391.387859
 31
0.0
  0
LINE
  5
9277
  8
0
 10
281.054341
 20
391.387859
 30
0.0
 11
281.060141
 21
391.370859
 31
0.0
  0
LINE
  5
9278
  8
0
 10
281.060141
 20
391.370859
 30
0.0
 11
281.068541
 21
391.354859
 31
0.0
  0
LINE
  5
9279
  8
0
 10
281.068541
 20
391.354859
 30
0.0
 11
281.079141
 21
391.340859
 31
0.0
  0
LINE
  5
927A
  8
0
 10
281.079141
 20
391.340859
 30
0.0
 11
281.091741
 21
391.328859
 31
0.0
  0
LINE
  5
927B
  8
0
 10
281.091741
 20
391.328859
 30
0.0
 11
281.105741
 21
391.318859
 31
0.0
  0
LINE
  5
927C
  8
0
 10
281.105741
 20
391.318859
 30
0.0
 11
281.120441
 21
391.312859
 31
0.0
  0
LINE
  5
927D
  8
0
 10
281.120441
 20
391.312859
 30
0.0
 11
281.149741
 21
391.307859
 31
0.0
  0
LINE
  5
927E
  8
0
 10
281.149741
 20
391.307859
 30
0.0
 11
283.166541
 21
391.320859
 31
0.0
  0
LINE
  5
927F
  8
0
 10
280.051541
 20
391.307859
 30
0.0
 11
280.051541
 21
393.816859
 31
0.0
  0
ARC
  5
9280
  8
0
 10
278.611892
 20
393.816859
 30
0.0
 40
0.499004
 50
270.223832
 51
89.776168
  0
LINE
  5
9281
  8
0
 10
278.613841
 20
393.317859
 30
0.0
 11
277.615441
 21
393.317859
 31
0.0
  0
LINE
  5
9282
  8
0
 10
283.996341
 20
394.069859
 30
0.0
 11
285.243341
 21
391.496859
 31
0.0
  0
LINE
  5
9283
  8
5
 10
287.762241
 20
381.9035
 30
0.0
 11
287.762241
 21
386.8135
 31
0.0
  0
LINE
  5
9284
  8
5
 10
291.412241
 20
381.9035
 30
0.0
 11
291.412241
 21
386.8135
 31
0.0
  0
LINE
  5
9285
  8
5
 10
288.462241
 20
381.9035
 30
0.0
 11
291.412241
 21
381.9035
 31
0.0
  0
LINE
  5
9286
  8
5
 10
288.462241
 20
386.8135
 30
0.0
 11
288.462241
 21
381.9035
 31
0.0
  0
LINE
  5
9287
  8
5
 10
291.412241
 20
386.8135
 30
0.0
 11
288.462241
 21
386.8135
 31
0.0
  0
LINE
  5
9288
  8
5
 10
291.412241
 20
381.2035
 30
0.0
 11
288.462241
 21
381.2035
 31
0.0
  0
LINE
  5
9289
  8
5
 10
295.062241
 20
381.9035
 30
0.0
 11
295.062241
 21
386.8135
 31
0.0
  0
LINE
  5
928A
  8
5
 10
292.112241
 20
381.9035
 30
0.0
 11
295.062241
 21
381.9035
 31
0.0
  0
LINE
  5
928B
  8
5
 10
292.112241
 20
386.8135
 30
0.0
 11
292.112241
 21
381.9035
 31
0.0
  0
LINE
  5
928C
  8
5
 10
295.062241
 20
386.8135
 30
0.0
 11
292.112241
 21
386.8135
 31
0.0
  0
LINE
  5
928D
  8
5
 10
295.062241
 20
381.2035
 30
0.0
 11
292.112241
 21
381.2035
 31
0.0
  0
ARC
  5
9290
  8
0
 10
283.167013
 20
390.821689
 30
0.0
 40
0.49883
 50
269.968809
 51
4.734159
  0
LINE
  5
9291
  8
0
 10
283.166741
 20
390.322859
 30
0.0
 11
281.049941
 21
390.322859
 31
0.0
  0
LINE
  5
9292
  8
0
 10
281.049941
 20
390.322859
 30
0.0
 11
281.049941
 21
390.322859
 31
0.0
  0
LINE
  5
9293
  8
0
 10
281.049941
 20
390.322859
 30
0.0
 11
280.905241
 21
390.332859
 31
0.0
  0
LINE
  5
9294
  8
0
 10
280.905241
 20
390.332859
 30
0.0
 11
280.756541
 21
390.365859
 31
0.0
  0
LINE
  5
9295
  8
0
 10
280.756541
 20
390.365859
 30
0.0
 11
280.609341
 21
390.423859
 31
0.0
  0
LINE
  5
9296
  8
0
 10
280.609341
 20
390.423859
 30
0.0
 11
280.469741
 21
390.505859
 31
0.0
  0
LINE
  5
9297
  8
0
 10
280.469741
 20
390.505859
 30
0.0
 11
280.343941
 21
390.610859
 31
0.0
  0
LINE
  5
9298
  8
0
 10
280.343941
 20
390.610859
 30
0.0
 11
280.237341
 21
390.734859
 31
0.0
  0
LINE
  5
9299
  8
0
 10
280.237341
 20
390.734859
 30
0.0
 11
280.153941
 21
390.872859
 31
0.0
  0
LINE
  5
929A
  8
0
 10
280.153941
 20
390.872859
 30
0.0
 11
280.095541
 21
391.017859
 31
0.0
  0
LINE
  5
929B
  8
5
 10
284.112241
 20
381.9035
 30
0.0
 11
284.112241
 21
386.8135
 31
0.0
  0
LINE
  5
929C
  8
5
 10
281.162241
 20
381.9035
 30
0.0
 11
284.112241
 21
381.9035
 31
0.0
  0
LINE
  5
929D
  8
5
 10
281.162241
 20
386.8135
 30
0.0
 11
281.162241
 21
381.9035
 31
0.0
  0
LINE
  5
929E
  8
5
 10
284.112241
 20
386.8135
 30
0.0
 11
281.162241
 21
386.8135
 31
0.0
  0
LINE
  5
929F
  8
5
 10
284.112241
 20
381.2035
 30
0.0
 11
281.162241
 21
381.2035
 31
0.0
  0
LINE
  5
92A0
  8
5
 10
284.812241
 20
386.8135
 30
0.0
 11
284.812241
 21
381.9035
 31
0.0
  0
LINE
  5
92A1
  8
5
 10
280.462241
 20
381.9035
 30
0.0
 11
280.462241
 21
386.8135
 31
0.0
  0
LINE
  5
92A2
  8
5
 10
277.512241
 20
381.9035
 30
0.0
 11
280.462241
 21
381.9035
 31
0.0
  0
LINE
  5
92A3
  8
5
 10
277.512241
 20
386.8135
 30
0.0
 11
277.512241
 21
381.9035
 31
0.0
  0
LINE
  5
92A4
  8
5
 10
280.462241
 20
386.8135
 30
0.0
 11
277.512241
 21
386.8135
 31
0.0
  0
LINE
  5
92A5
  8
5
 10
280.462241
 20
381.2035
 30
0.0
 11
277.512241
 21
381.2035
 31
0.0
  0
ARC
  5
92A6
  8
0
 10
285.333041
 20
391.307796
 30
0.0
 40
0.99843
 50
205.761097
 51
334.238903
  0
LINE
  5
92A7
  8
5
 10
284.812241
 20
381.9035
 30
0.0
 11
287.762241
 21
381.9035
 31
0.0
  0
LINE
  5
92A8
  8
5
 10
287.762241
 20
386.8135
 30
0.0
 11
284.812241
 21
386.8135
 31
0.0
  0
LINE
  5
92A9
  8
5
 10
287.762241
 20
381.2035
 30
0.0
 11
284.812241
 21
381.2035
 31
0.0
  0
TEXT
  5
92AA
  8
6-TEX1
 10
288.193641
 20
390.545859
 30
0.0
 40
0.8
  1
R
 41
0.9
 72
     1
 11
288.433641
 21
390.945859
 31
0.0
 73
     2
  0
CIRCLE
  5
92AB
  8
6-TEX1
 10
288.433641
 20
390.945859
 30
0.0
 40
0.84
  0
LINE
  5
92AC
  8
0
 10
287.530441
 20
393.563859
 30
0.0
 11
286.232241
 21
390.873859
 31
0.0
  0
LINE
  5
92AD
  8
0
 10
284.433841
 20
390.873859
 30
0.0
 11
283.136341
 21
393.562859
 31
0.0
  0
ARC
  5
92AE
  8
0
 10
283.166556
 20
390.821564
 30
0.0
 40
0.499295
 50
4.744202
 51
90.001749
  0
LINE
  5
92AF
  8
0
 10
280.095541
 20
391.017859
 30
0.0
 11
280.051541
 21
391.307859
 31
0.0
  0
LINE
  5
92B0
  8
0
 10
277.615441
 20
393.317859
 30
0.0
 11
277.615441
 21
390.808859
 31
0.0
  0
LINE
  5
92B2
  8
0
 10
339.062241
 20
407.8105
 30
0.0
 11
323.562241
 21
407.8105
 31
0.0
  0
LINE
  5
92B3
  8
0
 10
347.311241
 20
402.3095
 30
0.0
 11
306.312241
 21
402.3095
 31
0.0
  0
LINE
  5
92B4
  8
0
 10
339.675241
 20
407.5105
 30
0.0
 11
322.701241
 21
407.5105
 31
0.0
  0
TEXT
  5
92B5
  8
6-TEX1
 10
297.336685
 20
390.107959
 30
103400.0068
 40
3.8038
  1
TrapMan
 41
1.054791
 51
0.00307
 72
     1
 11
309.086741
 21
392.009859
 31
103400.0068
 73
     2
  0
LINE
  5
92B6
  8
0
 10
262.979539
 20
469.5945
 30
0.0
 11
264.918539
 21
470.2405
 31
0.0
  0
LINE
  5
92B7
  8
0
 10
261.202539
 20
469.1095
 30
0.0
 11
259.756539
 21
493.1845
 31
0.0
  0
LINE
  5
92B8
  8
0
 10
268.211539
 20
430.0975
 30
0.0
 11
268.211539
 21
422.7265
 31
0.0
  0
LINE
  5
92B9
  8
0
 10
260.211539
 20
422.7265
 30
0.0
 11
260.211539
 21
430.0975
 31
0.0
  0
LINE
  5
92BB
  8
0
 10
260.211539
 20
422.7265
 30
0.0
 11
268.211539
 21
422.7265
 31
0.0
  0
LINE
  5
92BC
  8
0
 10
268.211539
 20
422.7265
 30
0.0
 11
267.220539
 21
420.7265
 31
0.0
  0
LINE
  5
92BD
  8
0
 10
261.202539
 20
420.7265
 30
0.0
 11
260.211539
 21
422.7265
 31
0.0
  0
LINE
  5
92BE
  8
0
 10
265.888539
 20
468.7865
 30
0.0
 11
267.988539
 21
469.5945
 31
0.0
  0
LINE
  5
92BF
  8
0
 10
260.717539
 20
468.9485
 30
0.0
 11
262.979539
 21
469.5945
 31
0.0
  0
LINE
  5
92C0
  8
0
 10
260.717539
 20
467.9785
 30
0.0
 11
263.141539
 21
467.9785
 31
0.0
  0
LINE
  5
92C1
  8
0
 10
263.141539
 20
467.9785
 30
0.0
 11
265.888539
 21
468.7865
 31
0.0
  0
LINE
  5
92C2
  8
0
 10
260.211539
 20
446.3295
 30
0.0
 11
268.211539
 21
446.3295
 31
0.0
  0
LINE
  5
92C3
  8
0
 10
268.211539
 20
432.9185
 30
0.0
 11
260.211539
 21
432.9185
 31
0.0
  0
LINE
  5
92C6
  8
0
 10
260.211539
 20
430.0975
 30
0.0
 11
268.211539
 21
430.0975
 31
0.0
  0
LINE
  5
92C7
  8
0
 10
261.202539
 20
430.0975
 30
0.0
 11
261.202539
 21
432.9185
 31
0.0
  0
LINE
  5
92C8
  8
0
 10
267.220539
 20
432.9185
 30
0.0
 11
267.220539
 21
430.0975
 31
0.0
  0
LINE
  5
92C9
  8
0
 10
264.211539
 20
430.0975
 30
0.0
 11
264.211539
 21
432.9185
 31
0.0
  0
LINE
  5
92CC
  8
0
 10
268.211539
 20
446.3295
 30
0.0
 11
268.211539
 21
432.9185
 31
0.0
  0
LINE
  5
92CD
  8
0
 10
260.211539
 20
432.9185
 30
0.0
 11
260.211539
 21
446.3295
 31
0.0
  0
LINE
  5
92CE
  8
0
 10
261.202539
 20
446.3295
 30
0.0
 11
261.202539
 21
467.8195
 31
0.0
  0
LINE
  5
92CF
  8
0
 10
267.220539
 20
468.9505
 30
0.0
 11
267.220539
 21
446.3295
 31
0.0
  0
LINE
  5
92D0
  8
0
 10
264.211539
 20
446.3295
 30
0.0
 11
264.211539
 21
468.3015
 31
0.0
  0
ARC
  5
92D1
  8
0
 10
264.211039
 20
493.176216
 30
0.0
 40
4.454508
 50
0.106555
 51
179.893445
  0
ARC
  5
92D2
  8
0
 10
264.211039
 20
493.179789
 30
0.0
 40
1.454508
 50
0.185594
 51
179.814406
  0
LINE
  5
92D3
  8
0
 10
266.857539
 20
471.2105
 30
0.0
 11
267.827539
 21
471.8565
 31
0.0
  0
LINE
  5
92D4
  8
0
 10
264.918539
 20
470.2405
 30
0.0
 11
266.857539
 21
471.2105
 31
0.0
  0
LINE
  5
92D5
  8
0
 10
268.665539
 20
493.1845
 30
0.0
 11
267.220539
 21
471.8565
 31
0.0
  0
LINE
  5
92D6
  8
0
 10
265.665539
 20
493.1845
 30
0.0
 11
264.211539
 21
470.2405
 31
0.0
  0
LINE
  5
92D7
  8
0
 10
264.211539
 20
470.2405
 30
0.0
 11
262.756539
 21
493.1845
 31
0.0
  0
ARC
  5
92DB
  8
0
 10
266.141668
 20
405.5095
 30
0.0
 40
2.0
 50
90.0
 51
135.0
  0
ARC
  5
92DC
  8
0
 10
262.313241
 20
401.681073
 30
0.0
 40
2.0
 50
135.0
 51
180.0
  0
ARC
  5
92DE
  8
0
 10
346.482814
 20
405.5095
 30
0.0
 40
2.0
 50
45.0
 51
90.0
  0
ARC
  5
92DF
  8
0
 10
350.311241
 20
401.681073
 30
0.0
 40
2.0
 50
0.0
 51
45.0
  0
ARC
  5
92E5
  8
0
 10
262.313241
 20
200.343527
 30
0.0
 40
2.0
 50
180.0
 51
224.997755
  0
ARC
  5
92E6
  8
0
 10
266.141468
 20
196.515
 30
0.0
 40
2.0
 50
224.997755
 51
270.0
  0
ARC
  5
92E7
  8
0
 10
346.483014
 20
196.515
 30
0.0
 40
2.0
 50
270.0
 51
315.002245
  0
ARC
  5
92E8
  8
0
 10
350.311241
 20
200.343527
 30
0.0
 40
2.0
 50
315.002245
 51
0.0
  0
ARC
  5
92EB
  8
0
 10
270.313241
 20
207.5147
 30
0.0
 40
1.5
 50
180.0
 51
270.0
  0
ARC
  5
92EC
  8
0
 10
342.311241
 20
207.5147
 30
0.0
 40
1.5
 50
270.0
 51
0.0
  0
ARC
  5
92F0
  8
0
 10
335.312241
 20
214.5108
 30
0.0
 40
5.0
 50
270.0
 51
0.0
  0
ARC
  5
92F1
  8
0
 10
277.312241
 20
214.5108
 30
0.0
 40
5.0
 50
180.0
 51
270.0
  0
VIEWPORT
  5
41
 67
     1
  8
0
 10
117.358407
 20
73.5
 30
0.0
 40
234.716814
 41
147.0
 68
    -1
 69
     1
1001
ACAD
1000
MVIEW
1002
{
1070
    16
1010
0.0
1020
0.0
1030
0.0
1010
0.0
1020
0.0
1030
1.0
1040
0.0
1040
147.0
1040
117.358407
1040
73.5
1040
50.0
1040
0.0
1040
0.0
1070
     0
1070
   100
1070
     1
1070
     1
1070
     0
1070
     0
1070
     0
1070
     0
1040
0.0
1040
0.0
1040
0.0
1040
1.0
1040
1.0
1040
0.0
1040
0.0
1070
     0
1002
{
1002
}
1002
}
  0
ENDSEC
  0
EOF
