  0
SECTION
  2
HEADER
  9
$ACADVER
  1
AC1012
  9
$DWGCODEPAGE
  3
dos932
  9
$INSBASE
 10
0.0
 20
0.0
 30
0.0
  9
$EXTMIN
 10
66.0
 20
30.0
 30
0.0
  9
$EXTMAX
 10
1716.0
 20
1146.0
 30
0.0
  9
$LIMMIN
 10
0.0
 20
0.0
  9
$LIMMAX
 10
1782.0
 20
1260.0
  9
$ORTHOMODE
 70
     0
  9
$REGENMODE
 70
     1
  9
$FILLMODE
 70
     1
  9
$QTEXTMODE
 70
     0
  9
$MIRRTEXT
 70
     1
  9
$DRAGMODE
 70
     2
  9
$LTSCALE
 40
24.0
  9
$OSMODE
 70
   163
  9
$ATTMODE
 70
     1
  9
$TEXTSIZE
 40
24.0
  9
$TRACEWID
 40
0.05
  9
$TEXTSTYLE
  7
STANDARD
  9
$CLAYER
  8
0
  9
$CELTYPE
  6
BYLAYER
  9
$CECOLOR
 62
   256
  9
$CELTSCALE
 40
1.0
  9
$DELOBJ
 70
     1
  9
$DISPSILH
 70
     0
  9
$DIMSCALE
 40
6.0
  9
$DIMASZ
 40
2.8
  9
$DIMEXO
 40
1.0
  9
$DIMDLI
 40
5.0
  9
$DIMRND
 40
0.1
  9
$DIMDLE
 40
0.0
  9
$DIMEXE
 40
1.0
  9
$DIMTP
 40
0.0
  9
$DIMTM
 40
0.0
  9
$DIMTXT
 40
2.5
  9
$DIMCEN
 40
0.0
  9
$DIMTSZ
 40
0.0
  9
$DIMTOL
 70
     0
  9
$DIMLIM
 70
     0
  9
$DIMTIH
 70
     0
  9
$DIMTOH
 70
     0
  9
$DIMSE1
 70
     0
  9
$DIMSE2
 70
     0
  9
$DIMTAD
 70
     3
  9
$DIMZIN
 70
     8
  9
$DIMBLK
  1

  9
$DIMASO
 70
     1
  9
$DIMSHO
 70
     1
  9
$DIMPOST
  1

  9
$DIMAPOST
  1

  9
$DIMALT
 70
     0
  9
$DIMALTD
 70
     2
  9
$DIMALTF
 40
1.0
  9
$DIMLFAC
 40
1.0
  9
$DIMTOFL
 70
     1
  9
$DIMTVP
 40
0.0
  9
$DIMTIX
 70
     0
  9
$DIMSOXD
 70
     0
  9
$DIMSAH
 70
     1
  9
$DIMBLK1
  1
_OPEN
  9
$DIMBLK2
  1
_OPEN
  9
$DIMSTYLE
  2
DIM1
  9
$DIMCLRD
 70
     2
  9
$DIMCLRE
 70
     2
  9
$DIMCLRT
 70
     2
  9
$DIMTFAC
 40
0.7
  9
$DIMGAP
 40
0.85
  9
$DIMJUST
 70
     0
  9
$DIMSD1
 70
     0
  9
$DIMSD2
 70
     0
  9
$DIMTOLJ
 70
     1
  9
$DIMTZIN
 70
     8
  9
$DIMALTZ
 70
     8
  9
$DIMALTTZ
 70
     8
  9
$DIMFIT
 70
     3
  9
$DIMUPT
 70
     0
  9
$DIMUNIT
 70
     2
  9
$DIMDEC
 70
     2
  9
$DIMTDEC
 70
     3
  9
$DIMALTU
 70
     2
  9
$DIMALTTD
 70
     3
  9
$DIMTXSTY
  7
DIM
  9
$DIMAUNIT
 70
     0
  9
$LUNITS
 70
     2
  9
$LUPREC
 70
     4
  9
$SKETCHINC
 40
0.1
  9
$FILLETRAD
 40
0.0
  9
$AUNITS
 70
     0
  9
$AUPREC
 70
     0
  9
$MENU
  1
C:\ACADR13\WIN\SUPPORT\ACAD.mnc
  9
$ELEVATION
 40
0.0
  9
$PELEVATION
 40
0.0
  9
$THICKNESS
 40
0.0
  9
$LIMCHECK
 70
     0
  9
$BLIPMODE
 70
     1
  9
$CHAMFERA
 40
0.0
  9
$CHAMFERB
 40
0.0
  9
$CHAMFERC
 40
0.0
  9
$CHAMFERD
 40
0.0
  9
$SKPOLY
 70
     0
  9
$TDCREATE
 40
2451565.384897164
  9
$TDUPDATE
 40
2451967.650937858
  9
$TDINDWG
 40
0.0027095370
  9
$TDUSRTIMER
 40
0.0027095370
  9
$USRTIMER
 70
     1
  9
$ANGBASE
 50
0.0
  9
$ANGDIR
 70
     0
  9
$PDMODE
 70
     0
  9
$PDSIZE
 40
0.0
  9
$PLINEWID
 40
0.0
  9
$COORDS
 70
     1
  9
$SPLFRAME
 70
     0
  9
$SPLINETYPE
 70
     6
  9
$SPLINESEGS
 70
     8
  9
$ATTDIA
 70
     0
  9
$ATTREQ
 70
     1
  9
$HANDLING
 70
     1
  9
$HANDSEED
  5
2DB9
  9
$SURFTAB1
 70
     6
  9
$SURFTAB2
 70
     6
  9
$SURFTYPE
 70
     6
  9
$SURFU
 70
     6
  9
$SURFV
 70
     6
  9
$UCSNAME
  2

  9
$UCSORG
 10
0.0
 20
0.0
 30
0.0
  9
$UCSXDIR
 10
1.0
 20
0.0
 30
0.0
  9
$UCSYDIR
 10
0.0
 20
1.0
 30
0.0
  9
$PUCSNAME
  2

  9
$PUCSORG
 10
0.0
 20
0.0
 30
0.0
  9
$PUCSXDIR
 10
1.0
 20
0.0
 30
0.0
  9
$PUCSYDIR
 10
0.0
 20
1.0
 30
0.0
  9
$USERI1
 70
     0
  9
$USERI2
 70
     0
  9
$USERI3
 70
     0
  9
$USERI4
 70
     0
  9
$USERI5
 70
     0
  9
$USERR1
 40
0.0
  9
$USERR2
 40
0.0
  9
$USERR3
 40
0.0
  9
$USERR4
 40
0.0
  9
$USERR5
 40
0.0
  9
$WORLDVIEW
 70
     1
  9
$SHADEDGE
 70
     3
  9
$SHADEDIF
 70
    70
  9
$TILEMODE
 70
     1
  9
$MAXACTVP
 70
    16
  9
$PINSBASE
 10
0.0
 20
0.0
 30
0.0
  9
$PLIMCHECK
 70
     0
  9
$PEXTMIN
 10
1.000000E+20
 20
1.000000E+20
 30
1.000000E+20
  9
$PEXTMAX
 10
-1.000000E+20
 20
-1.000000E+20
 30
-1.000000E+20
  9
$PLIMMIN
 10
0.0
 20
0.0
  9
$PLIMMAX
 10
20.0
 20
147.0
  9
$UNITMODE
 70
     0
  9
$VISRETAIN
 70
     0
  9
$PLINEGEN
 70
     0
  9
$PSLTSCALE
 70
     1
  9
$TREEDEPTH
 70
  3020
  9
$PICKSTYLE
 70
     1
  9
$CMLSTYLE
  2
STANDARD
  9
$CMLJUST
 70
     0
  9
$CMLSCALE
 40
1.0
  9
$SAVEIMAGES
 70
     1
  0
ENDSEC
  0
SECTION
  2
CLASSES
  0
CLASS
  1
LWPOLYLINE
  2
AcDbPolyline
  3
"AutoCAD"
 90
    32768
280
     0
281
     1
  0
ENDSEC
  0
SECTION
  2
TABLES
  0
TABLE
  2
VPORT
  5
8
100
AcDbSymbolTable
 70
     2
  0
VPORT
  5
2DB8
100
AcDbSymbolTableRecord
100
AcDbViewportTableRecord
  2
*ACTIVE
 70
     0
 10
0.0
 20
0.0
 11
1.0
 21
1.0
 12
921.082396
 22
653.267447
 13
0.0
 23
0.0
 14
1.0
 24
1.0
 15
0.0
 25
0.0
 16
0.0
 26
0.0
 36
1.0
 17
0.0
 27
0.0
 37
0.0
 40
1306.534893
 41
1.762063
 42
50.0
 43
0.0
 44
0.0
 50
0.0
 51
0.0
 71
     0
 72
   100
 73
     1
 74
     1
 75
     0
 76
     0
 77
     0
 78
     0
  0
ENDTAB
  0
TABLE
  2
LTYPE
  5
5
100
AcDbSymbolTable
 70
     5
  0
LTYPE
  5
12
100
AcDbSymbolTableRecord
100
AcDbLinetypeTableRecord
  2
BYBLOCK
 70
     0
  3

 72
    65
 73
     0
 40
0.0
  0
LTYPE
  5
13
100
AcDbSymbolTableRecord
100
AcDbLinetypeTableRecord
  2
BYLAYER
 70
     0
  3

 72
    65
 73
     0
 40
0.0
  0
LTYPE
  5
14
100
AcDbSymbolTableRecord
100
AcDbLinetypeTableRecord
  2
CONTINUOUS
 70
     0
  3
Solid line
 72
    65
 73
     0
 40
0.0
  0
ENDTAB
  0
TABLE
  2
LAYER
  5
2
100
AcDbSymbolTable
 70
     3
  0
LAYER
  5
F
100
AcDbSymbolTableRecord
100
AcDbLayerTableRecord
  2
0
 70
     0
 62
     7
  6
CONTINUOUS
  0
ENDTAB
  0
TABLE
  2
STYLE
  5
3
100
AcDbSymbolTable
 70
     3
  0
STYLE
  5
10
100
AcDbSymbolTableRecord
100
AcDbTextStyleTableRecord
  2
STANDARD
 70
     0
 40
0.0
 41
0.8
 50
0.0
 71
     0
 42
24.0
  3
simplex
  4
extfont
  0
STYLE
  5
237C
100
AcDbSymbolTableRecord
100
AcDbTextStyleTableRecord
  2
PTSH
 70
     0
 40
0.0
 41
0.9
 50
0.0
 71
     0
 42
4.0
  3
SIMPLEX
  4
EXTFONT
  0
STYLE
  5
2592
100
AcDbSymbolTableRecord
100
AcDbTextStyleTableRecord
  2
DIM
 70
     0
 40
0.0
 41
0.8
 50
0.0
 71
     0
 42
4.0
  3
simplex
  4
extfont
  0
ENDTAB
  0
TABLE
  2
VIEW
  5
6
100
AcDbSymbolTable
 70
     0
  0
ENDTAB
  0
TABLE
  2
UCS
  5
7
100
AcDbSymbolTable
 70
     0
  0
ENDTAB
  0
TABLE
  2
APPID
  5
9
100
AcDbSymbolTable
 70
     1
  0
APPID
  5
11
100
AcDbSymbolTableRecord
100
AcDbRegAppTableRecord
  2
ACAD
 70
     0
  0
ENDTAB
  0
TABLE
  2
DIMSTYLE
  5
A
100
AcDbSymbolTable
 70
     1
  0
DIMSTYLE
105
2237
100
AcDbSymbolTableRecord
100
AcDbDimStyleTableRecord
  2
DIM1
 70
     0
  3

  4

  5

  6
_OPEN
  7
_OPEN
 40
6.0
 41
2.8
 42
1.0
 43
5.0
 44
1.0
 45
0.1
 46
0.0
 47
0.0
 48
0.0
140
2.5
141
0.0
142
0.0
143
1.0
144
1.0
145
0.0
146
0.7
147
0.85
 71
     0
 72
     0
 73
     0
 74
     0
 75
     0
 76
     0
 77
     3
 78
     8
170
     0
171
     2
172
     1
173
     1
174
     0
175
     0
176
     2
177
     2
178
     2
270
     2
271
     2
272
     3
273
     2
274
     3
340
2592
275
     0
280
     0
281
     0
282
     0
283
     1
284
     8
285
     8
286
     8
287
     3
288
     0
  0
ENDTAB
  0
TABLE
  2
BLOCK_RECORD
  5
1
100
AcDbSymbolTable
 70
     1
  0
BLOCK_RECORD
  5
18
100
AcDbSymbolTableRecord
100
AcDbBlockTableRecord
  2
*MODEL_SPACE
  0
BLOCK_RECORD
  5
15
100
AcDbSymbolTableRecord
100
AcDbBlockTableRecord
  2
*PAPER_SPACE
  0
BLOCK_RECORD
  5
2448
100
AcDbSymbolTableRecord
100
AcDbBlockTableRecord
  2
_OPEN
  0
ENDTAB
  0
ENDSEC
  0
SECTION
  2
BLOCKS
  0
BLOCK
  5
3C
100
AcDbEntity
  8
0
100
AcDbBlockBegin
  2
*MODEL_SPACE
 70
     0
 10
0.0
 20
0.0
 30
0.0
  3
*MODEL_SPACE
  1

  0
ENDBLK
  5
3D
100
AcDbEntity
  8
0
100
AcDbBlockEnd
  0
BLOCK
  5
3A
100
AcDbEntity
 67
     1
  8
0
100
AcDbBlockBegin
  2
*PAPER_SPACE
 70
     0
 10
0.0
 20
0.0
 30
0.0
  3
*PAPER_SPACE
  1

  0
ENDBLK
  5
3B
100
AcDbEntity
 67
     1
  8
0
100
AcDbBlockEnd
  0
BLOCK
  5
2449
100
AcDbEntity
  8
0
 48
4.0
100
AcDbBlockBegin
  2
_OPEN
 70
     0
 10
0.0
 20
0.0
 30
0.0
  3
_OPEN
  1
H1111.DWG
  0
LINE
  5
244A
100
AcDbEntity
  8
0
  6
BYBLOCK
 62
     0
 48
4.0
100
AcDbLine
 10
-1.0
 20
0.166667
 30
0.0
 11
0.0
 21
0.0
 31
0.0
  0
LINE
  5
244B
100
AcDbEntity
  8
0
  6
BYBLOCK
 62
     0
 48
4.0
100
AcDbLine
 10
0.0
 20
0.0
 30
0.0
 11
-1.0
 21
-0.166667
 31
0.0
  0
LINE
  5
244C
100
AcDbEntity
  8
0
  6
BYBLOCK
 62
     0
 48
4.0
100
AcDbLine
 10
0.0
 20
0.0
 30
0.0
 11
-1.0
 21
0.0
 31
0.0
  0
ENDBLK
  5
244D
100
AcDbEntity
  8
0
 48
4.0
100
AcDbBlockEnd
  0
ENDSEC
  0
SECTION
  2
ENTITIES
  0
MTEXT
  5
ADA
100
AcDbEntity
  8
0
100
AcDbMText
 10
2280.835679
 20
299.077867
 30
0.0
 40
1.2
 41
283.358789
 71
     1
 72
     1
  1

  0
MTEXT
  5
ADB
100
AcDbEntity
  8
0
100
AcDbMText
 10
2334.299599
 20
347.104762
 30
0.0
 40
1.2
 41
272.666005
 71
     1
 72
     1
  1

  0
MTEXT
  5
ADC
100
AcDbEntity
  8
0
100
AcDbMText
 10
2302.221247
 20
-287.917478
 30
0.0
 40
1.2
 41
310.090749
 71
     1
 72
     1
  1

  0
TEXT
  5
2529
100
AcDbEntity
  8
0
  6
CONTINUOUS
100
AcDbText
 10
1672.490842
 20
42.387095
 30
0.0
 40
18.0
  1
VC
 41
0.9
  7
PTSH
 72
     1
 11
1685.990842
 21
51.387095
 31
0.0
100
AcDbText
 73
     2
  0
POLYLINE
  5
2563
100
AcDbEntity
  8
0
100
AcDb2dPolyline
 66
     1
 10
0.0
 20
0.0
 30
0.0
 70
     1
  0
VERTEX
  5
2DB3
100
AcDbEntity
  8
0
100
AcDbVertex
100
AcDb2dVertex
 10
66.0
 20
30.0
 30
0.0
  0
VERTEX
  5
2DB4
100
AcDbEntity
  8
0
100
AcDbVertex
100
AcDb2dVertex
 10
1716.0
 20
30.0
 30
0.0
  0
VERTEX
  5
2DB5
100
AcDbEntity
  8
0
100
AcDbVertex
100
AcDb2dVertex
 10
1716.0
 20
1146.0
 30
0.0
  0
VERTEX
  5
2DB6
100
AcDbEntity
  8
0
100
AcDbVertex
100
AcDb2dVertex
 10
66.0
 20
1146.0
 30
0.0
  0
SEQEND
  5
2DB7
100
AcDbEntity
  8
0
  0
LINE
  5
29F0
100
AcDbEntity
  8
0
100
AcDbLine
 10
759.944639
 20
614.33849
 30
0.0
 11
773.223695
 21
591.33849
 31
0.0
  0
LINE
  5
29F1
100
AcDbEntity
  8
0
100
AcDbLine
 10
720.10747
 20
591.33849
 30
0.0
 11
733.386526
 21
614.33849
 31
0.0
  0
CIRCLE
  5
29F2
100
AcDbEntity
  8
0
100
AcDbCircle
 10
746.665583
 20
591.33849
 30
0.0
 40
11.5
  0
CIRCLE
  5
29F3
100
AcDbEntity
  8
0
100
AcDbCircle
 10
746.665583
 20
591.33849
 30
0.0
 40
12.5
  0
CIRCLE
  5
29F4
100
AcDbEntity
  8
0
100
AcDbCircle
 10
746.665583
 20
591.33849
 30
0.0
 40
43.0
  0
CIRCLE
  5
29F5
100
AcDbEntity
  8
0
100
AcDbCircle
 10
746.665583
 20
591.33849
 30
0.0
 40
44.0
  0
CIRCLE
  5
29F6
100
AcDbEntity
  8
0
100
AcDbCircle
 10
746.665583
 20
591.33849
 30
0.0
 40
22.5
  0
CIRCLE
  5
29F7
100
AcDbEntity
  8
0
100
AcDbCircle
 10
302.345598
 20
579.112518
 30
0.0
 40
33.0
  0
LINE
  5
29F8
100
AcDbEntity
  8
0
100
AcDbLine
 10
352.547934
 20
367.954561
 30
0.0
 11
371.324391
 21
372.985697
 31
0.0
  0
LINE
  5
29F9
100
AcDbEntity
  8
0
100
AcDbLine
 10
352.547934
 20
367.954561
 30
0.0
 11
418.547934
 21
367.954561
 31
0.0
  0
LINE
  5
29FA
100
AcDbEntity
  8
0
100
AcDbLine
 10
352.547934
 20
364.954561
 30
0.0
 11
418.547934
 21
364.954561
 31
0.0
  0
ARC
  5
29FB
100
AcDbEntity
  8
0
100
AcDbCircle
 10
369.547934
 20
315.954561
 30
0.0
 40
13.0
100
AcDbArc
 50
180.0
 51
262.819244
  0
LINE
  5
29FC
100
AcDbEntity
  8
0
100
AcDbLine
 10
359.147934
 20
355.954561
 30
0.0
 11
411.947934
 21
355.954561
 31
0.0
  0
LINE
  5
29FD
100
AcDbEntity
  8
0
100
AcDbLine
 10
408.747934
 20
349.026358
 30
0.0
 11
362.347934
 21
349.026358
 31
0.0
  0
TEXT
  5
29FE
100
AcDbEntity
  8
0
100
AcDbText
 10
221.168385
 20
195.191872
 30
0.0
 40
25.0
  1
TLV-VC2
100
AcDbText
  0
LINE
  5
29FF
100
AcDbEntity
  8
0
100
AcDbLine
 10
301.313589
 20
270.02867
 30
0.0
 11
301.313589
 21
279.344795
 31
0.0
  0
LINE
  5
2A00
100
AcDbEntity
  8
0
100
AcDbLine
 10
298.162464
 20
285.784295
 30
0.0
 11
298.162464
 21
254.27192
 31
0.0
  0
LINE
  5
2A01
100
AcDbEntity
  8
0
100
AcDbLine
 10
298.162464
 20
254.27192
 30
0.0
 11
304.464714
 21
247.96967
 31
0.0
  0
LINE
  5
2A02
100
AcDbEntity
  8
0
100
AcDbLine
 10
304.464714
 20
247.96967
 30
0.0
 11
304.464714
 21
266.87642
 31
0.0
  0
LINE
  5
2A03
100
AcDbEntity
  8
0
100
AcDbLine
 10
304.464714
 20
266.87642
 30
0.0
 11
301.313589
 21
270.02867
 31
0.0
  0
TEXT
  5
2A04
100
AcDbEntity
  8
0
100
AcDbText
 10
108.160314
 20
568.435359
 30
0.0
 40
20.0
  1
平面
100
AcDbText
  0
TEXT
  5
2A05
100
AcDbEntity
  8
0
100
AcDbText
 10
108.160314
 20
329.051271
 30
0.0
 40
20.0
  1
正面
100
AcDbText
  0
LINE
  5
2A06
100
AcDbEntity
  8
0
100
AcDbLine
 10
252.143262
 20
367.954561
 30
0.0
 11
233.366805
 21
372.985697
 31
0.0
  0
LINE
  5
2A07
100
AcDbEntity
  8
0
100
AcDbLine
 10
248.143262
 20
349.026358
 30
0.0
 11
252.143262
 21
355.954561
 31
0.0
  0
ARC
  5
2A08
100
AcDbEntity
  8
0
100
AcDbCircle
 10
235.143262
 20
315.954561
 30
0.0
 40
13.0
100
AcDbArc
 50
277.180756
 51
0.0
  0
LINE
  5
2A09
100
AcDbEntity
  8
0
100
AcDbLine
 10
252.143262
 20
367.954561
 30
0.0
 11
186.143262
 21
367.954561
 31
0.0
  0
LINE
  5
2A0A
100
AcDbEntity
  8
0
100
AcDbLine
 10
252.143262
 20
364.954561
 30
0.0
 11
186.143262
 21
364.954561
 31
0.0
  0
LINE
  5
2A0B
100
AcDbEntity
  8
0
100
AcDbLine
 10
190.143262
 20
349.026358
 30
0.0
 11
186.143262
 21
355.954561
 31
0.0
  0
ARC
  5
2A0C
100
AcDbEntity
  8
0
100
AcDbCircle
 10
203.143262
 20
315.954561
 30
0.0
 40
13.0
100
AcDbArc
 50
180.0
 51
262.819244
  0
LINE
  5
2A0D
100
AcDbEntity
  8
0
100
AcDbLine
 10
190.143262
 20
349.026358
 30
0.0
 11
190.143262
 21
315.954561
 31
0.0
  0
LINE
  5
2A0E
100
AcDbEntity
  8
0
100
AcDbLine
 10
233.643262
 20
289.954561
 30
0.0
 11
219.143262
 21
289.954561
 31
0.0
  0
ARC
  5
2A0F
100
AcDbEntity
  8
0
100
AcDbCircle
 10
226.643262
 20
308.040102
 30
0.0
 40
18.085542
100
AcDbArc
 50
245.499833
 51
294.500167
  0
ARC
  5
2A10
100
AcDbEntity
  8
0
100
AcDbCircle
 10
226.721374
 20
312.218441
 30
0.0
 40
11.639995
100
AcDbArc
 50
237.223497
 51
306.02409
  0
LINE
  5
2A11
100
AcDbEntity
  8
0
100
AcDbLine
 10
219.143262
 20
291.582982
 30
0.0
 11
219.143262
 21
300.548938
 31
0.0
  0
LINE
  5
2A12
100
AcDbEntity
  8
0
100
AcDbLine
 10
204.143262
 20
291.582982
 30
0.0
 11
204.143262
 21
300.080053
 31
0.0
  0
LINE
  5
2A13
100
AcDbEntity
  8
0
100
AcDbLine
 10
219.143262
 20
289.954561
 30
0.0
 11
204.643262
 21
289.954561
 31
0.0
  0
ARC
  5
2A14
100
AcDbEntity
  8
0
100
AcDbCircle
 10
211.643262
 20
308.040102
 30
0.0
 40
18.085542
100
AcDbArc
 50
245.499833
 51
294.500167
  0
LINE
  5
2A15
100
AcDbEntity
  8
0
100
AcDbLine
 10
204.643262
 20
289.954561
 30
0.0
 11
204.143262
 21
291.582982
 31
0.0
  0
ARC
  5
2A16
100
AcDbEntity
  8
0
100
AcDbCircle
 10
211.661797
 20
312.263373
 30
0.0
 40
11.681535
100
AcDbArc
 50
238.170521
 51
303.106455
  0
ARC
  5
2A17
100
AcDbEntity
  8
0
100
AcDbCircle
 10
201.143262
 20
300.080053
 30
0.0
 40
3.0
100
AcDbArc
 50
0.0
 51
82.819244
  0
LINE
  5
2A18
100
AcDbEntity
  8
0
100
AcDbLine
 10
234.143262
 20
291.582982
 30
0.0
 11
234.143262
 21
300.080053
 31
0.0
  0
LINE
  5
2A19
100
AcDbEntity
  8
0
100
AcDbLine
 10
233.643262
 20
289.954561
 30
0.0
 11
234.143262
 21
291.582982
 31
0.0
  0
ARC
  5
2A1A
100
AcDbEntity
  8
0
100
AcDbCircle
 10
237.143262
 20
300.080053
 30
0.0
 40
3.0
100
AcDbArc
 50
97.180756
 51
180.0
  0
LINE
  5
2A1B
100
AcDbEntity
  8
0
100
AcDbLine
 10
195.943262
 20
349.026358
 30
0.0
 11
242.343262
 21
349.026358
 31
0.0
  0
LINE
  5
2A1C
100
AcDbEntity
  8
0
100
AcDbLine
 10
248.143262
 20
349.026358
 30
0.0
 11
248.143262
 21
315.954561
 31
0.0
  0
LINE
  5
2A1D
100
AcDbEntity
  8
0
100
AcDbLine
 10
186.143262
 20
367.954561
 30
0.0
 11
204.919719
 21
372.985697
 31
0.0
  0
LINE
  5
2A1E
100
AcDbEntity
  8
0
100
AcDbLine
 10
186.143262
 20
364.954561
 30
0.0
 11
186.143262
 21
367.954561
 31
0.0
  0
LINE
  5
2A1F
100
AcDbEntity
  8
0
100
AcDbLine
 10
186.143262
 20
364.954561
 30
0.0
 11
186.143262
 21
355.954561
 31
0.0
  0
LINE
  5
2A20
100
AcDbEntity
  8
0
100
AcDbLine
 10
230.143262
 20
387.954561
 30
0.0
 11
219.143262
 21
387.954561
 31
0.0
  0
ARC
  5
2A21
100
AcDbEntity
  8
0
100
AcDbCircle
 10
225.143262
 20
366.624434
 30
0.0
 40
17.330127
100
AcDbArc
 50
69.743842
 51
110.256158
  0
LINE
  5
2A22
100
AcDbEntity
  8
0
100
AcDbLine
 10
231.143262
 20
383.954561
 30
0.0
 11
207.143262
 21
383.954561
 31
0.0
  0
LINE
  5
2A23
100
AcDbEntity
  8
0
100
AcDbLine
 10
245.543262
 20
355.954561
 30
0.0
 11
192.743262
 21
355.954561
 31
0.0
  0
ARC
  5
2A24
100
AcDbEntity
  8
0
100
AcDbCircle
 10
204.143262
 20
375.883475
 30
0.0
 40
3.0
100
AcDbArc
 50
285.0
 51
0.0
  0
LINE
  5
2A25
100
AcDbEntity
  8
0
100
AcDbLine
 10
219.143262
 20
382.882764
 30
0.0
 11
219.143262
 21
375.386052
 31
0.0
  0
LINE
  5
2A26
100
AcDbEntity
  8
0
100
AcDbLine
 10
207.143262
 20
383.954561
 30
0.0
 11
207.143262
 21
386.954561
 31
0.0
  0
LINE
  5
2A27
100
AcDbEntity
  8
0
100
AcDbLine
 10
208.143262
 20
387.954561
 30
0.0
 11
207.143262
 21
386.954561
 31
0.0
  0
LINE
  5
2A28
100
AcDbEntity
  8
0
100
AcDbLine
 10
207.143262
 20
383.954561
 30
0.0
 11
207.143262
 21
382.882764
 31
0.0
  0
LINE
  5
2A29
100
AcDbEntity
  8
0
100
AcDbLine
 10
207.143262
 20
382.882764
 30
0.0
 11
207.143262
 21
375.883475
 31
0.0
  0
LINE
  5
2A2A
100
AcDbEntity
  8
0
100
AcDbLine
 10
219.143262
 20
387.954561
 30
0.0
 11
208.143262
 21
387.954561
 31
0.0
  0
ARC
  5
2A2B
100
AcDbEntity
  8
0
100
AcDbCircle
 10
213.143262
 20
366.624434
 30
0.0
 40
17.330127
100
AcDbArc
 50
69.743842
 51
110.256158
  0
ARC
  5
2A2C
100
AcDbEntity
  8
0
100
AcDbCircle
 10
234.143262
 20
375.883475
 30
0.0
 40
3.0
100
AcDbArc
 50
180.0
 51
255.0
  0
LINE
  5
2A2D
100
AcDbEntity
  8
0
100
AcDbLine
 10
231.143262
 20
383.954561
 30
0.0
 11
231.143262
 21
386.954561
 31
0.0
  0
LINE
  5
2A2E
100
AcDbEntity
  8
0
100
AcDbLine
 10
230.143262
 20
387.954561
 30
0.0
 11
231.143262
 21
386.954561
 31
0.0
  0
LINE
  5
2A2F
100
AcDbEntity
  8
0
100
AcDbLine
 10
231.143262
 20
383.954561
 30
0.0
 11
231.143262
 21
382.882764
 31
0.0
  0
LINE
  5
2A30
100
AcDbEntity
  8
0
100
AcDbLine
 10
231.143262
 20
382.882764
 30
0.0
 11
231.143262
 21
375.883475
 31
0.0
  0
LINE
  5
2A31
100
AcDbEntity
  8
0
100
AcDbLine
 10
356.547934
 20
349.026358
 30
0.0
 11
352.547934
 21
355.954561
 31
0.0
  0
LINE
  5
2A32
100
AcDbEntity
  8
0
100
AcDbLine
 10
331.345598
 20
349.026358
 30
0.0
 11
335.345598
 21
355.954561
 31
0.0
  0
LINE
  5
2A33
100
AcDbEntity
  8
0
100
AcDbLine
 10
273.345598
 20
349.026358
 30
0.0
 11
269.345598
 21
355.954561
 31
0.0
  0
ARC
  5
2A34
100
AcDbEntity
  8
0
100
AcDbCircle
 10
302.345598
 20
325.274681
 30
0.0
 40
23.842652
100
AcDbArc
 50
251.705223
 51
288.294777
  0
ARC
  5
2A35
100
AcDbEntity
  8
0
100
AcDbCircle
 10
302.345598
 20
313.797213
 30
0.0
 40
23.842652
100
AcDbArc
 50
248.701596
 51
291.298404
  0
LINE
  5
2A36
100
AcDbEntity
  8
0
100
AcDbLine
 10
325.545598
 20
349.026358
 30
0.0
 11
279.145598
 21
349.026358
 31
0.0
  0
LINE
  5
2A37
100
AcDbEntity
  8
0
100
AcDbLine
 10
302.345598
 20
289.954561
 30
0.0
 11
316.845598
 21
289.954561
 31
0.0
  0
ARC
  5
2A38
100
AcDbEntity
  8
0
100
AcDbCircle
 10
286.345598
 20
315.954561
 30
0.0
 40
13.0
100
AcDbArc
 50
180.0
 51
254.333844
  0
LINE
  5
2A39
100
AcDbEntity
  8
0
100
AcDbLine
 10
285.02509
 20
291.582982
 30
0.0
 11
285.02509
 21
300.548938
 31
0.0
  0
LINE
  5
2A3A
100
AcDbEntity
  8
0
100
AcDbLine
 10
293.685344
 20
291.582982
 30
0.0
 11
293.685344
 21
300.548938
 31
0.0
  0
ARC
  5
2A3B
100
AcDbEntity
  8
0
100
AcDbCircle
 10
289.355217
 20
296.525882
 30
0.0
 40
6.571321
100
AcDbArc
 50
251.219322
 51
311.219322
  0
LINE
  5
2A3C
100
AcDbEntity
  8
0
100
AcDbLine
 10
287.845598
 20
289.954561
 30
0.0
 11
302.345598
 21
289.954561
 31
0.0
  0
LINE
  5
2A3D
100
AcDbEntity
  8
0
100
AcDbLine
 10
287.845598
 20
289.954561
 30
0.0
 11
285.02509
 21
291.582982
 31
0.0
  0
LINE
  5
2A3E
100
AcDbEntity
  8
0
100
AcDbLine
 10
301.313589
 20
279.344795
 30
0.0
 11
304.464714
 21
279.344795
 31
0.0
  0
LINE
  5
2A3F
100
AcDbEntity
  8
0
100
AcDbLine
 10
304.464714
 20
279.344795
 30
0.0
 11
298.162464
 21
285.784295
 31
0.0
  0
ARC
  5
2A40
100
AcDbEntity
  8
0
100
AcDbCircle
 10
289.355217
 20
308.00335
 30
0.0
 40
6.571321
100
AcDbArc
 50
240.711313
 51
298.881291
  0
ARC
  5
2A41
100
AcDbEntity
  8
0
100
AcDbCircle
 10
282.02509
 20
300.548938
 30
0.0
 40
3.0
100
AcDbArc
 50
0.0
 51
74.333844
  0
LINE
  5
2A42
100
AcDbEntity
  8
0
100
AcDbLine
 10
273.345598
 20
349.026358
 30
0.0
 11
273.345598
 21
315.954561
 31
0.0
  0
ARC
  5
2A43
100
AcDbEntity
  8
0
100
AcDbCircle
 10
318.345598
 20
315.954561
 30
0.0
 40
13.0
100
AcDbArc
 50
285.666156
 51
0.0
  0
LINE
  5
2A44
100
AcDbEntity
  8
0
100
AcDbLine
 10
319.666106
 20
291.582982
 30
0.0
 11
319.666106
 21
300.548938
 31
0.0
  0
LINE
  5
2A45
100
AcDbEntity
  8
0
100
AcDbLine
 10
311.005852
 20
291.582982
 30
0.0
 11
311.005852
 21
300.548938
 31
0.0
  0
LINE
  5
2A46
100
AcDbEntity
  8
0
100
AcDbLine
 10
316.845598
 20
289.954561
 30
0.0
 11
319.666106
 21
291.582982
 31
0.0
  0
ARC
  5
2A47
100
AcDbEntity
  8
0
100
AcDbCircle
 10
315.335979
 20
296.525882
 30
0.0
 40
6.571321
100
AcDbArc
 50
228.780678
 51
311.219322
  0
ARC
  5
2A48
100
AcDbEntity
  8
0
100
AcDbCircle
 10
315.335979
 20
296.525882
 30
0.0
 40
6.571321
100
AcDbArc
 50
228.780678
 51
288.780678
  0
ARC
  5
2A49
100
AcDbEntity
  8
0
100
AcDbCircle
 10
322.666106
 20
300.548938
 30
0.0
 40
3.0
100
AcDbArc
 50
105.666156
 51
180.0
  0
ARC
  5
2A4A
100
AcDbEntity
  8
0
100
AcDbCircle
 10
315.335979
 20
308.00335
 30
0.0
 40
6.571321
100
AcDbArc
 50
241.118709
 51
299.288687
  0
LINE
  5
2A4B
100
AcDbEntity
  8
0
100
AcDbLine
 10
331.345598
 20
349.026358
 30
0.0
 11
331.345598
 21
315.954561
 31
0.0
  0
LINE
  5
2A4C
100
AcDbEntity
  8
0
100
AcDbLine
 10
356.547934
 20
349.026358
 30
0.0
 11
356.547934
 21
315.954561
 31
0.0
  0
LINE
  5
2A4D
100
AcDbEntity
  8
0
100
AcDbLine
 10
302.345598
 20
387.954561
 30
0.0
 11
313.345598
 21
387.954561
 31
0.0
  0
ARC
  5
2A4E
100
AcDbEntity
  8
0
100
AcDbCircle
 10
302.345598
 20
361.026358
 30
0.0
 40
22.928203
100
AcDbArc
 50
72.412046
 51
107.587954
  0
LINE
  5
2A4F
100
AcDbEntity
  8
0
100
AcDbLine
 10
290.345598
 20
383.954561
 30
0.0
 11
314.345598
 21
383.954561
 31
0.0
  0
LINE
  5
2A50
100
AcDbEntity
  8
0
100
AcDbLine
 10
269.345598
 20
367.954561
 30
0.0
 11
335.345598
 21
367.954561
 31
0.0
  0
LINE
  5
2A51
100
AcDbEntity
  8
0
100
AcDbLine
 10
275.945598
 20
355.954561
 30
0.0
 11
328.745598
 21
355.954561
 31
0.0
  0
LINE
  5
2A52
100
AcDbEntity
  8
0
100
AcDbLine
 10
269.345598
 20
364.954561
 30
0.0
 11
335.345598
 21
364.954561
 31
0.0
  0
LINE
  5
2A53
100
AcDbEntity
  8
0
100
AcDbLine
 10
269.345598
 20
367.954561
 30
0.0
 11
286.265649
 21
372.488275
 31
0.0
  0
LINE
  5
2A54
100
AcDbEntity
  8
0
100
AcDbLine
 10
252.143262
 20
364.954561
 30
0.0
 11
252.143262
 21
367.954561
 31
0.0
  0
LINE
  5
2A55
100
AcDbEntity
  8
0
100
AcDbLine
 10
252.143262
 20
364.954561
 30
0.0
 11
252.143262
 21
355.954561
 31
0.0
  0
LINE
  5
2A56
100
AcDbEntity
  8
0
100
AcDbLine
 10
269.345598
 20
364.954561
 30
0.0
 11
269.345598
 21
367.954561
 31
0.0
  0
LINE
  5
2A57
100
AcDbEntity
  8
0
100
AcDbLine
 10
269.345598
 20
364.954561
 30
0.0
 11
269.345598
 21
355.954561
 31
0.0
  0
ARC
  5
2A58
100
AcDbEntity
  8
0
100
AcDbCircle
 10
285.489192
 20
375.386052
 30
0.0
 40
3.0
100
AcDbArc
 50
285.0
 51
0.0
  0
ARC
  5
2A59
100
AcDbEntity
  8
0
100
AcDbCircle
 10
291.953293
 20
377.820586
 30
0.0
 40
6.133975
100
AcDbArc
 50
55.615753
 51
115.615753
  0
LINE
  5
2A5A
100
AcDbEntity
  8
0
100
AcDbLine
 10
291.345598
 20
387.954561
 30
0.0
 11
302.345598
 21
387.954561
 31
0.0
  0
LINE
  5
2A5B
100
AcDbEntity
  8
0
100
AcDbLine
 10
290.345598
 20
383.954561
 30
0.0
 11
288.489192
 21
382.882764
 31
0.0
  0
LINE
  5
2A5C
100
AcDbEntity
  8
0
100
AcDbLine
 10
290.345598
 20
383.954561
 30
0.0
 11
290.345598
 21
386.954561
 31
0.0
  0
LINE
  5
2A5D
100
AcDbEntity
  8
0
100
AcDbLine
 10
291.345598
 20
387.954561
 30
0.0
 11
290.345598
 21
386.954561
 31
0.0
  0
LINE
  5
2A5E
100
AcDbEntity
  8
0
100
AcDbLine
 10
288.489192
 20
382.882764
 30
0.0
 11
288.489192
 21
375.386052
 31
0.0
  0
LINE
  5
2A5F
100
AcDbEntity
  8
0
100
AcDbLine
 10
295.417395
 20
382.882764
 30
0.0
 11
295.417395
 21
375.386052
 31
0.0
  0
ARC
  5
2A60
100
AcDbEntity
  8
0
100
AcDbCircle
 10
319.202005
 20
375.386052
 30
0.0
 40
3.0
100
AcDbArc
 50
180.0
 51
255.0
  0
LINE
  5
2A61
100
AcDbEntity
  8
0
100
AcDbLine
 10
335.345598
 20
367.954561
 30
0.0
 11
318.425548
 21
372.488275
 31
0.0
  0
LINE
  5
2A62
100
AcDbEntity
  8
0
100
AcDbLine
 10
335.345598
 20
364.954561
 30
0.0
 11
335.345598
 21
367.954561
 31
0.0
  0
LINE
  5
2A63
100
AcDbEntity
  8
0
100
AcDbLine
 10
335.345598
 20
364.954561
 30
0.0
 11
335.345598
 21
355.954561
 31
0.0
  0
LINE
  5
2A64
100
AcDbEntity
  8
0
100
AcDbLine
 10
314.345598
 20
383.954561
 30
0.0
 11
316.202005
 21
382.882764
 31
0.0
  0
LINE
  5
2A65
100
AcDbEntity
  8
0
100
AcDbLine
 10
314.345598
 20
383.954561
 30
0.0
 11
314.345598
 21
386.954561
 31
0.0
  0
LINE
  5
2A66
100
AcDbEntity
  8
0
100
AcDbLine
 10
316.202005
 20
382.882764
 30
0.0
 11
316.202005
 21
375.386052
 31
0.0
  0
LINE
  5
2A67
100
AcDbEntity
  8
0
100
AcDbLine
 10
309.273801
 20
382.882764
 30
0.0
 11
309.273801
 21
375.386052
 31
0.0
  0
ARC
  5
2A68
100
AcDbEntity
  8
0
100
AcDbCircle
 10
312.737903
 20
377.820586
 30
0.0
 40
6.133975
100
AcDbArc
 50
64.384247
 51
124.384247
  0
LINE
  5
2A69
100
AcDbEntity
  8
0
100
AcDbLine
 10
313.345598
 20
387.954561
 30
0.0
 11
314.345598
 21
386.954561
 31
0.0
  0
LINE
  5
2A6A
100
AcDbEntity
  8
0
100
AcDbLine
 10
352.547934
 20
364.954561
 30
0.0
 11
352.547934
 21
367.954561
 31
0.0
  0
LINE
  5
2A6B
100
AcDbEntity
  8
0
100
AcDbLine
 10
352.547934
 20
364.954561
 30
0.0
 11
352.547934
 21
355.954561
 31
0.0
  0
LINE
  5
2A6C
100
AcDbEntity
  8
0
100
AcDbLine
 10
295.417395
 20
591.112518
 30
0.0
 11
309.273801
 21
591.112518
 31
0.0
  0
LINE
  5
2A6D
100
AcDbEntity
  8
0
100
AcDbLine
 10
295.417395
 20
567.112518
 30
0.0
 11
309.273801
 21
567.112518
 31
0.0
  0
CIRCLE
  5
2A6E
100
AcDbEntity
  8
0
100
AcDbCircle
 10
302.345598
 20
579.112518
 30
0.0
 40
8.331
  0
CIRCLE
  5
2A6F
100
AcDbEntity
  8
0
100
AcDbCircle
 10
302.345598
 20
579.112518
 30
0.0
 40
12.0
  0
LINE
  5
2A70
100
AcDbEntity
  8
0
100
AcDbLine
 10
288.489192
 20
579.112518
 30
0.0
 11
295.417395
 21
591.112518
 31
0.0
  0
LINE
  5
2A71
100
AcDbEntity
  8
0
100
AcDbLine
 10
295.417395
 20
567.112518
 30
0.0
 11
288.489192
 21
579.112518
 31
0.0
  0
LINE
  5
2A72
100
AcDbEntity
  8
0
100
AcDbLine
 10
316.202005
 20
579.112518
 30
0.0
 11
309.273801
 21
591.112518
 31
0.0
  0
LINE
  5
2A73
100
AcDbEntity
  8
0
100
AcDbLine
 10
309.273801
 20
567.112518
 30
0.0
 11
316.202005
 21
579.112518
 31
0.0
  0
LINE
  5
2A74
100
AcDbEntity
  8
0
100
AcDbLine
 10
752.326288
 20
267.610826
 30
0.0
 11
746.024038
 21
274.050326
 31
0.0
  0
LINE
  5
2A75
100
AcDbEntity
  8
0
100
AcDbLine
 10
746.024038
 20
274.050326
 30
0.0
 11
746.024038
 21
242.537951
 31
0.0
  0
TEXT
  5
2A76
100
AcDbEntity
  8
0
100
AcDbText
 10
691.451148
 20
195.114939
 30
0.0
 40
25.0
  1
TLV-VC3
100
AcDbText
  0
LINE
  5
2A77
100
AcDbEntity
  8
0
100
AcDbLine
 10
746.024038
 20
242.537951
 30
0.0
 11
752.326288
 21
236.235701
 31
0.0
  0
LINE
  5
2A78
100
AcDbEntity
  8
0
100
AcDbLine
 10
752.326288
 20
255.142451
 30
0.0
 11
749.175163
 21
258.294701
 31
0.0
  0
LINE
  5
2A79
100
AcDbEntity
  8
0
100
AcDbLine
 10
749.175163
 20
267.610826
 30
0.0
 11
752.326288
 21
267.610826
 31
0.0
  0
LINE
  5
2A7A
100
AcDbEntity
  8
0
100
AcDbLine
 10
749.175163
 20
258.294701
 30
0.0
 11
749.175163
 21
267.610826
 31
0.0
  0
LINE
  5
2A7B
100
AcDbEntity
  8
0
100
AcDbLine
 10
752.326288
 20
236.235701
 30
0.0
 11
752.326288
 21
255.142451
 31
0.0
  0
ARC
  5
2A7C
100
AcDbEntity
  8
0
100
AcDbCircle
 10
599.710632
 20
315.347698
 30
0.0
 40
18.999263
100
AcDbArc
 50
179.818425
 51
255.025134
  0
LINE
  5
2A7D
100
AcDbEntity
  8
0
100
AcDbLine
 10
414.547934
 20
349.026358
 30
0.0
 11
418.547934
 21
355.954561
 31
0.0
  0
ARC
  5
2A7E
100
AcDbEntity
  8
0
100
AcDbCircle
 10
401.547934
 20
315.954561
 30
0.0
 40
13.0
100
AcDbArc
 50
277.180756
 51
0.0
  0
LINE
  5
2A7F
100
AcDbEntity
  8
0
100
AcDbLine
 10
385.547934
 20
289.954561
 30
0.0
 11
400.047934
 21
289.954561
 31
0.0
  0
ARC
  5
2A80
100
AcDbEntity
  8
0
100
AcDbCircle
 10
393.047934
 20
308.040102
 30
0.0
 40
18.085542
100
AcDbArc
 50
245.499833
 51
294.500167
  0
ARC
  5
2A81
100
AcDbEntity
  8
0
100
AcDbCircle
 10
393.029399
 20
312.263373
 30
0.0
 40
11.681535
100
AcDbArc
 50
236.893545
 51
301.829479
  0
LINE
  5
2A82
100
AcDbEntity
  8
0
100
AcDbLine
 10
385.547934
 20
291.582982
 30
0.0
 11
385.547934
 21
300.548938
 31
0.0
  0
LINE
  5
2A83
100
AcDbEntity
  8
0
100
AcDbLine
 10
370.547934
 20
291.582982
 30
0.0
 11
370.547934
 21
300.080053
 31
0.0
  0
LINE
  5
2A84
100
AcDbEntity
  8
0
100
AcDbLine
 10
371.047934
 20
289.954561
 30
0.0
 11
385.547934
 21
289.954561
 31
0.0
  0
ARC
  5
2A85
100
AcDbEntity
  8
0
100
AcDbCircle
 10
378.047934
 20
308.040102
 30
0.0
 40
18.085542
100
AcDbArc
 50
245.499833
 51
294.500167
  0
LINE
  5
2A86
100
AcDbEntity
  8
0
100
AcDbLine
 10
371.047934
 20
289.954561
 30
0.0
 11
370.547934
 21
291.582982
 31
0.0
  0
ARC
  5
2A87
100
AcDbEntity
  8
0
100
AcDbCircle
 10
377.969823
 20
312.218441
 30
0.0
 40
11.639995
100
AcDbArc
 50
233.97591
 51
302.776503
  0
ARC
  5
2A88
100
AcDbEntity
  8
0
100
AcDbCircle
 10
367.547934
 20
300.080053
 30
0.0
 40
3.0
100
AcDbArc
 50
0.0
 51
82.819244
  0
LINE
  5
2A89
100
AcDbEntity
  8
0
100
AcDbLine
 10
400.547934
 20
291.582982
 30
0.0
 11
400.547934
 21
300.080053
 31
0.0
  0
LINE
  5
2A8A
100
AcDbEntity
  8
0
100
AcDbLine
 10
400.047934
 20
289.954561
 30
0.0
 11
400.547934
 21
291.582982
 31
0.0
  0
ARC
  5
2A8B
100
AcDbEntity
  8
0
100
AcDbCircle
 10
403.547934
 20
300.080053
 30
0.0
 40
3.0
100
AcDbArc
 50
97.180756
 51
180.0
  0
LINE
  5
2A8C
100
AcDbEntity
  8
0
100
AcDbLine
 10
414.547934
 20
349.026358
 30
0.0
 11
414.547934
 21
315.954561
 31
0.0
  0
LINE
  5
2A8D
100
AcDbEntity
  8
0
100
AcDbLine
 10
385.547934
 20
387.954561
 30
0.0
 11
396.547934
 21
387.954561
 31
0.0
  0
LINE
  5
2A8E
100
AcDbEntity
  8
0
100
AcDbLine
 10
373.547934
 20
383.954561
 30
0.0
 11
397.547934
 21
383.954561
 31
0.0
  0
ARC
  5
2A8F
100
AcDbEntity
  8
0
100
AcDbCircle
 10
391.547934
 20
366.624434
 30
0.0
 40
17.330127
100
AcDbArc
 50
69.743842
 51
110.256158
  0
ARC
  5
2A90
100
AcDbEntity
  8
0
100
AcDbCircle
 10
370.547934
 20
375.883475
 30
0.0
 40
3.0
100
AcDbArc
 50
285.0
 51
0.0
  0
LINE
  5
2A91
100
AcDbEntity
  8
0
100
AcDbLine
 10
374.547934
 20
387.954561
 30
0.0
 11
385.547934
 21
387.954561
 31
0.0
  0
ARC
  5
2A92
100
AcDbEntity
  8
0
100
AcDbCircle
 10
379.547934
 20
366.624434
 30
0.0
 40
17.330127
100
AcDbArc
 50
69.743842
 51
110.256158
  0
LINE
  5
2A93
100
AcDbEntity
  8
0
100
AcDbLine
 10
373.547934
 20
383.954561
 30
0.0
 11
373.547934
 21
382.882764
 31
0.0
  0
LINE
  5
2A94
100
AcDbEntity
  8
0
100
AcDbLine
 10
373.547934
 20
383.954561
 30
0.0
 11
373.547934
 21
386.954561
 31
0.0
  0
LINE
  5
2A95
100
AcDbEntity
  8
0
100
AcDbLine
 10
374.547934
 20
387.954561
 30
0.0
 11
373.547934
 21
386.954561
 31
0.0
  0
LINE
  5
2A96
100
AcDbEntity
  8
0
100
AcDbLine
 10
373.547934
 20
382.882764
 30
0.0
 11
373.547934
 21
375.883475
 31
0.0
  0
LINE
  5
2A97
100
AcDbEntity
  8
0
100
AcDbLine
 10
385.547934
 20
382.882764
 30
0.0
 11
385.547934
 21
375.386052
 31
0.0
  0
ARC
  5
2A98
100
AcDbEntity
  8
0
100
AcDbCircle
 10
400.547934
 20
375.883475
 30
0.0
 40
3.0
100
AcDbArc
 50
180.0
 51
255.0
  0
LINE
  5
2A99
100
AcDbEntity
  8
0
100
AcDbLine
 10
418.547934
 20
367.954561
 30
0.0
 11
399.771477
 21
372.985697
 31
0.0
  0
LINE
  5
2A9A
100
AcDbEntity
  8
0
100
AcDbLine
 10
418.547934
 20
364.954561
 30
0.0
 11
418.547934
 21
367.954561
 31
0.0
  0
LINE
  5
2A9B
100
AcDbEntity
  8
0
100
AcDbLine
 10
418.547934
 20
364.954561
 30
0.0
 11
418.547934
 21
355.954561
 31
0.0
  0
LINE
  5
2A9C
100
AcDbEntity
  8
0
100
AcDbLine
 10
397.547934
 20
383.954561
 30
0.0
 11
397.547934
 21
382.882764
 31
0.0
  0
LINE
  5
2A9D
100
AcDbEntity
  8
0
100
AcDbLine
 10
397.547934
 20
383.954561
 30
0.0
 11
397.547934
 21
386.954561
 31
0.0
  0
LINE
  5
2A9E
100
AcDbEntity
  8
0
100
AcDbLine
 10
397.547934
 20
382.882764
 30
0.0
 11
397.547934
 21
375.883475
 31
0.0
  0
LINE
  5
2A9F
100
AcDbEntity
  8
0
100
AcDbLine
 10
396.547934
 20
387.954561
 30
0.0
 11
397.547934
 21
386.954561
 31
0.0
  0
LINE
  5
2AA0
100
AcDbEntity
  8
0
100
AcDbLine
 10
662.710933
 20
315.112764
 30
0.0
 11
662.893814
 21
365.922435
 31
0.0
  0
LINE
  5
2AA1
100
AcDbEntity
  8
0
100
AcDbLine
 10
580.894345
 20
366.217579
 30
0.0
 11
580.711464
 21
315.407908
 31
0.0
  0
LINE
  5
2AA2
100
AcDbEntity
  8
0
100
AcDbLine
 10
621.58166
 20
279.270569
 30
0.0
 11
644.081514
 21
279.189585
 31
0.0
  0
ARC
  5
2AA3
100
AcDbEntity
  8
0
100
AcDbCircle
 10
633.244579
 20
308.045557
 30
0.0
 40
28.81678
100
AcDbArc
 50
246.144937
 51
293.442611
  0
ARC
  5
2AA4
100
AcDbEntity
  8
0
100
AcDbCircle
 10
634.492574
 20
316.673957
 30
0.0
 40
23.258248
100
AcDbArc
 50
243.261782
 51
296.325767
  0
ARC
  5
2AA5
100
AcDbEntity
  8
0
100
AcDbCircle
 10
608.88903
 20
316.101614
 30
0.0
 40
22.602245
100
AcDbArc
 50
242.824841
 51
296.762707
  0
LINE
  5
2AA6
100
AcDbEntity
  8
0
100
AcDbLine
 10
621.58166
 20
279.270569
 30
0.0
 11
599.081805
 21
279.351554
 31
0.0
  0
ARC
  5
2AA7
100
AcDbEntity
  8
0
100
AcDbCircle
 10
610.126181
 20
308.128768
 30
0.0
 40
28.81678
100
AcDbArc
 50
246.144937
 51
293.442611
  0
ARC
  5
2AA8
100
AcDbEntity
  8
0
100
AcDbCircle
 10
593.509335
 20
292.163467
 30
0.0
 40
5.0
100
AcDbArc
 50
359.793774
 51
75.025134
  0
LINE
  5
2AA9
100
AcDbEntity
  8
0
100
AcDbLine
 10
598.471972
 20
281.773764
 30
0.0
 11
599.081805
 21
279.351554
 31
0.0
  0
LINE
  5
2AAA
100
AcDbEntity
  8
0
100
AcDbLine
 10
598.509303
 20
292.145471
 30
0.0
 11
598.471972
 21
281.773764
 31
0.0
  0
LINE
  5
2AAB
100
AcDbEntity
  8
0
100
AcDbLine
 10
621.59037
 20
281.690553
 30
0.0
 11
621.63223
 21
293.320478
 31
0.0
  0
ARC
  5
2AAC
100
AcDbEntity
  8
0
100
AcDbCircle
 10
643.711825
 20
315.189323
 30
0.0
 40
18.999263
100
AcDbArc
 50
284.562414
 51
359.769124
  0
ARC
  5
2AAD
100
AcDbEntity
  8
0
100
AcDbCircle
 10
649.746067
 20
291.961052
 30
0.0
 40
5.0
100
AcDbArc
 50
104.562414
 51
179.793774
  0
LINE
  5
2AAE
100
AcDbEntity
  8
0
100
AcDbLine
 10
644.081514
 20
279.189585
 30
0.0
 11
644.708768
 21
281.607343
 31
0.0
  0
LINE
  5
2AAF
100
AcDbEntity
  8
0
100
AcDbLine
 10
644.708768
 20
281.607343
 30
0.0
 11
644.7461
 21
291.979049
 31
0.0
  0
LINE
  5
2AB0
100
AcDbEntity
  8
0
100
AcDbLine
 10
577.967071
 20
386.428246
 30
0.0
 11
665.966501
 21
386.111506
 31
0.0
  0
LINE
  5
2AB1
100
AcDbEntity
  8
0
100
AcDbLine
 10
658.793841
 20
365.937192
 30
0.0
 11
584.994319
 21
366.202821
 31
0.0
  0
LINE
  5
2AB2
100
AcDbEntity
  8
0
100
AcDbLine
 10
661.51254
 20
371.12744
 30
0.0
 11
582.313053
 21
371.412506
 31
0.0
  0
LINE
  5
2AB3
100
AcDbEntity
  8
0
100
AcDbLine
 10
644.531428
 20
404.188775
 30
0.0
 11
599.531719
 21
404.350744
 31
0.0
  0
LINE
  5
2AB4
100
AcDbEntity
  8
0
100
AcDbLine
 10
664.988103
 20
392.115067
 30
0.0
 11
578.98866
 21
392.424607
 31
0.0
  0
ARC
  5
2AB5
100
AcDbEntity
  8
0
100
AcDbCircle
 10
633.425577
 20
374.800016
 30
0.0
 40
29.428542
100
AcDbArc
 50
66.790913
 51
112.796635
  0
LINE
  5
2AB6
100
AcDbEntity
  8
0
100
AcDbLine
 10
622.013151
 20
401.929811
 30
0.0
 11
621.98918
 21
395.269854
 31
0.0
  0
LINE
  5
2AB7
100
AcDbEntity
  8
0
100
AcDbLine
 10
599.0233
 20
402.012559
 30
0.0
 11
598.999329
 21
395.352602
 31
0.0
  0
LINE
  5
2AB8
100
AcDbEntity
  8
0
100
AcDbLine
 10
577.967071
 20
386.428246
 30
0.0
 11
577.913081
 21
371.428343
 31
0.0
  0
LINE
  5
2AB9
100
AcDbEntity
  8
0
100
AcDbLine
 10
577.913081
 20
371.428343
 30
0.0
 11
580.894345
 21
366.217579
 31
0.0
  0
LINE
  5
2ABA
100
AcDbEntity
  8
0
100
AcDbLine
 10
577.985068
 20
391.428213
 30
0.0
 11
577.967071
 21
386.428246
 31
0.0
  0
LINE
  5
2ABB
100
AcDbEntity
  8
0
100
AcDbLine
 10
578.98866
 20
392.424607
 30
0.0
 11
577.985068
 21
391.428213
 31
0.0
  0
ARC
  5
2ABC
100
AcDbEntity
  8
0
100
AcDbCircle
 10
595.999348
 20
395.3634
 30
0.0
 40
3.0
100
AcDbArc
 50
269.793774
 51
359.793774
  0
ARC
  5
2ABD
100
AcDbEntity
  8
0
100
AcDbCircle
 10
610.420814
 20
374.90738
 30
0.0
 40
29.40398
100
AcDbArc
 50
66.781179
 51
112.80637
  0
LINE
  5
2ABE
100
AcDbEntity
  8
0
100
AcDbLine
 10
599.531719
 20
404.350744
 30
0.0
 11
599.0233
 21
402.012559
 31
0.0
  0
LINE
  5
2ABF
100
AcDbEntity
  8
0
100
AcDbLine
 10
622.053169
 20
410.26972
 30
0.0
 11
610.553244
 21
410.311113
 31
0.0
  0
LINE
  5
2AC0
100
AcDbEntity
  8
0
100
AcDbLine
 10
609.549651
 20
409.314718
 30
0.0
 11
609.531655
 21
404.314751
 31
0.0
  0
LINE
  5
2AC1
100
AcDbEntity
  8
0
100
AcDbLine
 10
610.553244
 20
410.311113
 30
0.0
 11
609.549651
 21
409.314718
 31
0.0
  0
LINE
  5
2AC2
100
AcDbEntity
  8
0
100
AcDbLine
 10
634.549489
 20
409.224736
 30
0.0
 11
633.553095
 21
410.228328
 31
0.0
  0
LINE
  5
2AC3
100
AcDbEntity
  8
0
100
AcDbLine
 10
634.531493
 20
404.224768
 30
0.0
 11
634.549489
 21
409.224736
 31
0.0
  0
LINE
  5
2AC4
100
AcDbEntity
  8
0
100
AcDbLine
 10
622.053169
 20
410.26972
 30
0.0
 11
633.553095
 21
410.228328
 31
0.0
  0
LINE
  5
2AC5
100
AcDbEntity
  8
0
100
AcDbLine
 10
644.999031
 20
395.187033
 30
0.0
 11
645.023002
 21
401.84699
 31
0.0
  0
LINE
  5
2AC6
100
AcDbEntity
  8
0
100
AcDbLine
 10
662.893814
 20
365.922435
 30
0.0
 11
665.912511
 21
371.111603
 31
0.0
  0
ARC
  5
2AC7
100
AcDbEntity
  8
0
100
AcDbCircle
 10
647.999011
 20
395.176236
 30
0.0
 40
3.0
100
AcDbArc
 50
179.793774
 51
269.793774
  0
LINE
  5
2AC8
100
AcDbEntity
  8
0
100
AcDbLine
 10
665.912511
 20
371.111603
 30
0.0
 11
665.966501
 21
386.111506
 31
0.0
  0
LINE
  5
2AC9
100
AcDbEntity
  8
0
100
AcDbLine
 10
665.984498
 20
391.111474
 30
0.0
 11
665.966501
 21
386.111506
 31
0.0
  0
LINE
  5
2ACA
100
AcDbEntity
  8
0
100
AcDbLine
 10
664.988103
 20
392.115067
 30
0.0
 11
665.984498
 21
391.111474
 31
0.0
  0
LINE
  5
2ACB
100
AcDbEntity
  8
0
100
AcDbLine
 10
645.023002
 20
401.84699
 30
0.0
 11
644.531428
 21
404.188775
 31
0.0
  0
LINE
  5
2ACC
100
AcDbEntity
  8
0
100
AcDbLine
 10
787.665583
 20
365.587839
 30
0.0
 11
787.665583
 21
314.777839
 31
0.0
  0
LINE
  5
2ACD
100
AcDbEntity
  8
0
100
AcDbLine
 10
705.665583
 20
314.777839
 30
0.0
 11
705.665583
 21
365.587839
 31
0.0
  0
ARC
  5
2ACE
100
AcDbEntity
  8
0
100
AcDbCircle
 10
746.525583
 20
331.898515
 30
0.0
 40
37.643897
100
AcDbArc
 50
249.342576
 51
290.657424
  0
ARC
  5
2ACF
100
AcDbEntity
  8
0
100
AcDbCircle
 10
746.525583
 20
316.431476
 30
0.0
 40
37.643897
100
AcDbArc
 50
249.342576
 51
290.657424
  0
LINE
  5
2AD0
100
AcDbEntity
  8
0
100
AcDbLine
 10
746.385583
 20
278.787839
 30
0.0
 11
769.165583
 21
278.787839
 31
0.0
  0
ARC
  5
2AD1
100
AcDbEntity
  8
0
100
AcDbCircle
 10
724.664844
 20
314.786014
 30
0.0
 40
18.999263
100
AcDbArc
 50
180.024651
 51
288.935335
  0
LINE
  5
2AD2
100
AcDbEntity
  8
0
100
AcDbLine
 10
724.165583
 20
278.787839
 30
0.0
 11
719.965583
 21
281.207839
 31
0.0
  0
ARC
  5
2AD3
100
AcDbEntity
  8
0
100
AcDbCircle
 10
714.965583
 20
292.834044
 30
0.0
 40
5.0
100
AcDbArc
 50
0.0
 51
66.162234
  0
LINE
  5
2AD4
100
AcDbEntity
  8
0
100
AcDbLine
 10
719.965583
 20
281.207839
 30
0.0
 11
719.965583
 21
292.834044
 31
0.0
  0
LINE
  5
2AD5
100
AcDbEntity
  8
0
100
AcDbLine
 10
746.665583
 20
278.787839
 30
0.0
 11
724.165583
 21
278.787839
 31
0.0
  0
ARC
  5
2AD6
100
AcDbEntity
  8
0
100
AcDbCircle
 10
726.605583
 20
289.107261
 30
0.0
 40
10.319421
100
AcDbArc
 50
250.149058
 51
310.049331
  0
LINE
  5
2AD7
100
AcDbEntity
  8
0
100
AcDbLine
 10
733.245583
 20
281.207839
 30
0.0
 11
733.245583
 21
292.837839
 31
0.0
  0
ARC
  5
2AD8
100
AcDbEntity
  8
0
100
AcDbCircle
 10
768.666322
 20
314.786014
 30
0.0
 40
18.999263
100
AcDbArc
 50
251.064665
 51
359.975349
  0
ARC
  5
2AD9
100
AcDbEntity
  8
0
100
AcDbCircle
 10
778.355583
 20
292.834044
 30
0.0
 40
5.0
100
AcDbArc
 50
113.819441
 51
180.0
  0
ARC
  5
2ADA
100
AcDbEntity
  8
0
100
AcDbCircle
 10
766.725583
 20
289.107261
 30
0.0
 40
10.319421
100
AcDbArc
 50
229.950669
 51
289.850942
  0
LINE
  5
2ADB
100
AcDbEntity
  8
0
100
AcDbLine
 10
759.805583
 20
281.207839
 30
0.0
 11
759.805583
 21
292.837839
 31
0.0
  0
LINE
  5
2ADC
100
AcDbEntity
  8
0
100
AcDbLine
 10
773.355583
 20
281.207839
 30
0.0
 11
769.165583
 21
278.787839
 31
0.0
  0
LINE
  5
2ADD
100
AcDbEntity
  8
0
100
AcDbLine
 10
773.355583
 20
292.834044
 30
0.0
 11
773.355583
 21
281.207839
 31
0.0
  0
LINE
  5
2ADE
100
AcDbEntity
  8
0
100
AcDbLine
 10
703.665583
 20
391.787839
 30
0.0
 11
789.665583
 21
391.787839
 31
0.0
  0
LINE
  5
2ADF
100
AcDbEntity
  8
0
100
AcDbLine
 10
790.665583
 20
385.787839
 30
0.0
 11
702.665583
 21
385.787839
 31
0.0
  0
LINE
  5
2AE0
100
AcDbEntity
  8
0
100
AcDbLine
 10
709.765583
 20
365.587839
 30
0.0
 11
783.565583
 21
365.587839
 31
0.0
  0
LINE
  5
2AE1
100
AcDbEntity
  8
0
100
AcDbLine
 10
707.065583
 20
370.787839
 30
0.0
 11
786.265583
 21
370.787839
 31
0.0
  0
ARC
  5
2AE2
100
AcDbEntity
  8
0
100
AcDbCircle
 10
746.665583
 20
364.934421
 30
0.0
 40
38.853419
100
AcDbArc
 50
70.013577
 51
109.986423
  0
LINE
  5
2AE3
100
AcDbEntity
  8
0
100
AcDbLine
 10
724.165583
 20
403.787839
 30
0.0
 11
769.165583
 21
403.787839
 31
0.0
  0
LINE
  5
2AE4
100
AcDbEntity
  8
0
100
AcDbLine
 10
746.665583
 20
409.787839
 30
0.0
 11
758.165583
 21
409.787839
 31
0.0
  0
LINE
  5
2AE5
100
AcDbEntity
  8
0
100
AcDbLine
 10
733.385583
 20
401.447839
 30
0.0
 11
733.385583
 21
394.787839
 31
0.0
  0
LINE
  5
2AE6
100
AcDbEntity
  8
0
100
AcDbLine
 10
720.105583
 20
394.543095
 30
0.0
 11
720.105583
 21
401.447839
 31
0.0
  0
LINE
  5
2AE7
100
AcDbEntity
  8
0
100
AcDbLine
 10
702.665583
 20
370.787839
 30
0.0
 11
702.665583
 21
385.787839
 31
0.0
  0
LINE
  5
2AE8
100
AcDbEntity
  8
0
100
AcDbLine
 10
705.665583
 20
365.587839
 30
0.0
 11
702.665583
 21
370.787839
 31
0.0
  0
LINE
  5
2AE9
100
AcDbEntity
  8
0
100
AcDbLine
 10
702.665583
 20
390.787839
 30
0.0
 11
702.665583
 21
385.787839
 31
0.0
  0
LINE
  5
2AEA
100
AcDbEntity
  8
0
100
AcDbLine
 10
703.665583
 20
391.787839
 30
0.0
 11
702.665583
 21
390.787839
 31
0.0
  0
ARC
  5
2AEB
100
AcDbEntity
  8
0
100
AcDbCircle
 10
717.115583
 20
394.787839
 30
0.0
 40
3.0
100
AcDbArc
 50
270.0
 51
0.0
  0
LINE
  5
2AEC
100
AcDbEntity
  8
0
100
AcDbLine
 10
720.105583
 20
401.447839
 30
0.0
 11
724.165583
 21
403.787839
 31
0.0
  0
LINE
  5
2AED
100
AcDbEntity
  8
0
100
AcDbLine
 10
746.665583
 20
409.787839
 30
0.0
 11
735.165583
 21
409.787839
 31
0.0
  0
LINE
  5
2AEE
100
AcDbEntity
  8
0
100
AcDbLine
 10
734.165583
 20
408.787839
 30
0.0
 11
735.165583
 21
409.787839
 31
0.0
  0
LINE
  5
2AEF
100
AcDbEntity
  8
0
100
AcDbLine
 10
734.165583
 20
403.787839
 30
0.0
 11
734.165583
 21
408.787839
 31
0.0
  0
ARC
  5
2AF0
100
AcDbEntity
  8
0
100
AcDbCircle
 10
726.740583
 20
393.211167
 30
0.0
 40
10.576672
100
AcDbArc
 50
51.147034
 51
111.183769
  0
LINE
  5
2AF1
100
AcDbEntity
  8
0
100
AcDbLine
 10
773.215583
 20
401.447839
 30
0.0
 11
773.215583
 21
394.787839
 31
0.0
  0
LINE
  5
2AF2
100
AcDbEntity
  8
0
100
AcDbLine
 10
759.945583
 20
401.447839
 30
0.0
 11
759.945583
 21
394.787839
 31
0.0
  0
ARC
  5
2AF3
100
AcDbEntity
  8
0
100
AcDbCircle
 10
776.215583
 20
394.787839
 30
0.0
 40
3.0
100
AcDbArc
 50
180.0
 51
270.0
  0
LINE
  5
2AF4
100
AcDbEntity
  8
0
100
AcDbLine
 10
790.665583
 20
385.787839
 30
0.0
 11
790.665583
 21
370.787839
 31
0.0
  0
LINE
  5
2AF5
100
AcDbEntity
  8
0
100
AcDbLine
 10
790.665583
 20
370.787839
 30
0.0
 11
787.665583
 21
365.587839
 31
0.0
  0
LINE
  5
2AF6
100
AcDbEntity
  8
0
100
AcDbLine
 10
789.665583
 20
391.787839
 30
0.0
 11
790.665583
 21
390.787839
 31
0.0
  0
LINE
  5
2AF7
100
AcDbEntity
  8
0
100
AcDbLine
 10
790.665583
 20
390.787839
 30
0.0
 11
790.665583
 21
385.787839
 31
0.0
  0
ARC
  5
2AF8
100
AcDbEntity
  8
0
100
AcDbCircle
 10
766.580583
 20
393.211167
 30
0.0
 40
10.576672
100
AcDbArc
 50
68.816231
 51
128.852966
  0
LINE
  5
2AF9
100
AcDbEntity
  8
0
100
AcDbLine
 10
758.165583
 20
409.787839
 30
0.0
 11
759.165583
 21
408.787839
 31
0.0
  0
LINE
  5
2AFA
100
AcDbEntity
  8
0
100
AcDbLine
 10
759.165583
 20
408.787839
 30
0.0
 11
759.165583
 21
403.787839
 31
0.0
  0
LINE
  5
2AFB
100
AcDbEntity
  8
0
100
AcDbLine
 10
769.165583
 20
403.787839
 30
0.0
 11
773.215583
 21
401.447839
 31
0.0
  0
LINE
  5
2AFC
100
AcDbEntity
  8
0
100
AcDbLine
 10
912.190374
 20
365.587839
 30
0.0
 11
912.190374
 21
314.777839
 31
0.0
  0
LINE
  5
2AFD
100
AcDbEntity
  8
0
100
AcDbLine
 10
830.190374
 20
314.777839
 30
0.0
 11
830.190374
 21
365.587839
 31
0.0
  0
LINE
  5
2AFE
100
AcDbEntity
  8
0
100
AcDbLine
 10
871.190374
 20
278.787839
 30
0.0
 11
848.690374
 21
278.787839
 31
0.0
  0
ARC
  5
2AFF
100
AcDbEntity
  8
0
100
AcDbCircle
 10
859.6311
 20
307.60462
 30
0.0
 40
28.81678
100
AcDbArc
 50
246.351163
 51
293.648837
  0
ARC
  5
2B00
100
AcDbEntity
  8
0
100
AcDbCircle
 10
858.41417
 20
316.237456
 30
0.0
 40
23.258248
100
AcDbArc
 50
243.468008
 51
296.531992
  0
ARC
  5
2B01
100
AcDbEntity
  8
0
100
AcDbCircle
 10
849.189635
 20
314.786014
 30
0.0
 40
18.999263
100
AcDbArc
 50
180.024651
 51
255.23136
  0
ARC
  5
2B02
100
AcDbEntity
  8
0
100
AcDbCircle
 10
843.071826
 20
291.579613
 30
0.0
 40
5.0
100
AcDbArc
 50
0.0
 51
75.23136
  0
LINE
  5
2B03
100
AcDbEntity
  8
0
100
AcDbLine
 10
848.690374
 20
278.787839
 30
0.0
 11
848.071826
 21
281.207839
 31
0.0
  0
LINE
  5
2B04
100
AcDbEntity
  8
0
100
AcDbLine
 10
848.071826
 20
281.207839
 30
0.0
 11
848.071826
 21
291.579613
 31
0.0
  0
ARC
  5
2B05
100
AcDbEntity
  8
0
100
AcDbCircle
 10
893.191113
 20
314.786014
 30
0.0
 40
18.999263
100
AcDbArc
 50
284.76864
 51
359.975349
  0
ARC
  5
2B06
100
AcDbEntity
  8
0
100
AcDbCircle
 10
899.308922
 20
291.579613
 30
0.0
 40
5.0
100
AcDbArc
 50
104.76864
 51
180.0
  0
ARC
  5
2B07
100
AcDbEntity
  8
0
100
AcDbCircle
 10
884.015488
 20
315.572961
 30
0.0
 40
22.602245
100
AcDbArc
 50
243.031067
 51
296.968933
  0
LINE
  5
2B08
100
AcDbEntity
  8
0
100
AcDbLine
 10
871.190374
 20
278.787839
 30
0.0
 11
893.690374
 21
278.787839
 31
0.0
  0
ARC
  5
2B09
100
AcDbEntity
  8
0
100
AcDbCircle
 10
882.749648
 20
307.60462
 30
0.0
 40
28.81678
100
AcDbArc
 50
246.351163
 51
293.648837
  0
LINE
  5
2B0A
100
AcDbEntity
  8
0
100
AcDbLine
 10
871.190374
 20
281.207839
 30
0.0
 11
871.190374
 21
292.837839
 31
0.0
  0
LINE
  5
2B0B
100
AcDbEntity
  8
0
100
AcDbLine
 10
894.308922
 20
281.207839
 30
0.0
 11
893.690374
 21
278.787839
 31
0.0
  0
LINE
  5
2B0C
100
AcDbEntity
  8
0
100
AcDbLine
 10
894.308922
 20
291.579613
 30
0.0
 11
894.308922
 21
281.207839
 31
0.0
  0
LINE
  5
2B0D
100
AcDbEntity
  8
0
100
AcDbLine
 10
871.190374
 20
409.787839
 30
0.0
 11
859.690374
 21
409.787839
 31
0.0
  0
LINE
  5
2B0E
100
AcDbEntity
  8
0
100
AcDbLine
 10
915.190374
 20
385.787839
 30
0.0
 11
827.190374
 21
385.787839
 31
0.0
  0
LINE
  5
2B0F
100
AcDbEntity
  8
0
100
AcDbLine
 10
834.290374
 20
365.587839
 30
0.0
 11
908.090374
 21
365.587839
 31
0.0
  0
LINE
  5
2B10
100
AcDbEntity
  8
0
100
AcDbLine
 10
831.590374
 20
370.787839
 30
0.0
 11
910.790374
 21
370.787839
 31
0.0
  0
LINE
  5
2B11
100
AcDbEntity
  8
0
100
AcDbLine
 10
828.190374
 20
391.787839
 30
0.0
 11
914.190374
 21
391.787839
 31
0.0
  0
LINE
  5
2B12
100
AcDbEntity
  8
0
100
AcDbLine
 10
848.690374
 20
403.787839
 30
0.0
 11
893.690374
 21
403.787839
 31
0.0
  0
ARC
  5
2B13
100
AcDbEntity
  8
0
100
AcDbCircle
 10
859.690374
 20
374.359298
 30
0.0
 40
29.428542
100
AcDbArc
 50
66.997139
 51
113.002861
  0
LINE
  5
2B14
100
AcDbEntity
  8
0
100
AcDbLine
 10
848.190374
 20
394.787839
 30
0.0
 11
848.190374
 21
401.447839
 31
0.0
  0
LINE
  5
2B15
100
AcDbEntity
  8
0
100
AcDbLine
 10
827.190374
 20
370.787839
 30
0.0
 11
827.190374
 21
385.787839
 31
0.0
  0
LINE
  5
2B16
100
AcDbEntity
  8
0
100
AcDbLine
 10
830.190374
 20
365.587839
 30
0.0
 11
827.190374
 21
370.787839
 31
0.0
  0
LINE
  5
2B17
100
AcDbEntity
  8
0
100
AcDbLine
 10
827.190374
 20
390.787839
 30
0.0
 11
827.190374
 21
385.787839
 31
0.0
  0
LINE
  5
2B18
100
AcDbEntity
  8
0
100
AcDbLine
 10
828.190374
 20
391.787839
 30
0.0
 11
827.190374
 21
390.787839
 31
0.0
  0
ARC
  5
2B19
100
AcDbEntity
  8
0
100
AcDbCircle
 10
845.190374
 20
394.787839
 30
0.0
 40
3.0
100
AcDbArc
 50
270.0
 51
0.0
  0
LINE
  5
2B1A
100
AcDbEntity
  8
0
100
AcDbLine
 10
848.190374
 20
401.447839
 30
0.0
 11
848.690374
 21
403.787839
 31
0.0
  0
LINE
  5
2B1B
100
AcDbEntity
  8
0
100
AcDbLine
 10
858.690374
 20
408.787839
 30
0.0
 11
859.690374
 21
409.787839
 31
0.0
  0
LINE
  5
2B1C
100
AcDbEntity
  8
0
100
AcDbLine
 10
858.690374
 20
403.787839
 30
0.0
 11
858.690374
 21
408.787839
 31
0.0
  0
LINE
  5
2B1D
100
AcDbEntity
  8
0
100
AcDbLine
 10
894.190374
 20
401.447839
 30
0.0
 11
894.190374
 21
394.787839
 31
0.0
  0
LINE
  5
2B1E
100
AcDbEntity
  8
0
100
AcDbLine
 10
871.200374
 20
401.447839
 30
0.0
 11
871.200374
 21
394.787839
 31
0.0
  0
ARC
  5
2B1F
100
AcDbEntity
  8
0
100
AcDbCircle
 10
897.190374
 20
394.787839
 30
0.0
 40
3.0
100
AcDbArc
 50
180.0
 51
270.0
  0
LINE
  5
2B20
100
AcDbEntity
  8
0
100
AcDbLine
 10
915.190374
 20
385.787839
 30
0.0
 11
915.190374
 21
370.787839
 31
0.0
  0
LINE
  5
2B21
100
AcDbEntity
  8
0
100
AcDbLine
 10
915.190374
 20
370.787839
 30
0.0
 11
912.190374
 21
365.587839
 31
0.0
  0
LINE
  5
2B22
100
AcDbEntity
  8
0
100
AcDbLine
 10
915.190374
 20
390.787839
 30
0.0
 11
915.190374
 21
385.787839
 31
0.0
  0
LINE
  5
2B23
100
AcDbEntity
  8
0
100
AcDbLine
 10
914.190374
 20
391.787839
 30
0.0
 11
915.190374
 21
390.787839
 31
0.0
  0
LINE
  5
2B24
100
AcDbEntity
  8
0
100
AcDbLine
 10
871.190374
 20
409.787839
 30
0.0
 11
882.690374
 21
409.787839
 31
0.0
  0
ARC
  5
2B25
100
AcDbEntity
  8
0
100
AcDbCircle
 10
882.695374
 20
374.38386
 30
0.0
 40
29.40398
100
AcDbArc
 50
66.987405
 51
113.012595
  0
LINE
  5
2B26
100
AcDbEntity
  8
0
100
AcDbLine
 10
893.690374
 20
403.787839
 30
0.0
 11
894.190374
 21
401.447839
 31
0.0
  0
LINE
  5
2B27
100
AcDbEntity
  8
0
100
AcDbLine
 10
882.690374
 20
409.787839
 30
0.0
 11
883.690374
 21
408.787839
 31
0.0
  0
LINE
  5
2B28
100
AcDbEntity
  8
0
100
AcDbLine
 10
883.690374
 20
408.787839
 30
0.0
 11
883.690374
 21
403.787839
 31
0.0
  0
CIRCLE
  5
2B29
100
AcDbEntity
  8
0
100
AcDbCircle
 10
746.665583
 20
591.33849
 30
0.0
 40
8.331
  0
LINE
  5
2B2A
100
AcDbEntity
  8
0
100
AcDbLine
 10
759.944639
 20
568.33849
 30
0.0
 11
733.386526
 21
568.33849
 31
0.0
  0
LINE
  5
2B2B
100
AcDbEntity
  8
0
100
AcDbLine
 10
733.386526
 20
568.33849
 30
0.0
 11
720.10747
 21
591.33849
 31
0.0
  0
LINE
  5
2B2C
100
AcDbEntity
  8
0
100
AcDbLine
 10
773.223695
 20
591.33849
 30
0.0
 11
759.944639
 21
568.33849
 31
0.0
  0
TEXT
  5
2B2D
100
AcDbEntity
  8
0
100
AcDbText
 10
108.160314
 20
792.696364
 30
0.0
 40
20.0
  1
背面
100
AcDbText
  0
LINE
  5
2B2E
100
AcDbEntity
  8
0
100
AcDbLine
 10
319.666106
 20
762.766142
 30
0.0
 11
319.666106
 21
771.732098
 31
0.0
  0
LINE
  5
2B2F
100
AcDbEntity
  8
0
100
AcDbLine
 10
285.02509
 20
762.766142
 30
0.0
 11
285.02509
 21
771.732098
 31
0.0
  0
LINE
  5
2B30
100
AcDbEntity
  8
0
100
AcDbLine
 10
293.685344
 20
762.766142
 30
0.0
 11
293.685344
 21
771.732098
 31
0.0
  0
LINE
  5
2B31
100
AcDbEntity
  8
0
100
AcDbLine
 10
311.005852
 20
762.766142
 30
0.0
 11
311.005852
 21
771.732098
 31
0.0
  0
ARC
  5
2B32
100
AcDbEntity
  8
0
100
AcDbCircle
 10
302.345598
 20
784.980373
 30
0.0
 40
23.842652
100
AcDbArc
 50
248.701596
 51
291.298404
  0
LINE
  5
2B33
100
AcDbEntity
  8
0
100
AcDbLine
 10
316.845598
 20
761.137721
 30
0.0
 11
302.345598
 21
761.137721
 31
0.0
  0
ARC
  5
2B34
100
AcDbEntity
  8
0
100
AcDbCircle
 10
289.355217
 20
767.709042
 30
0.0
 40
6.571321
100
AcDbArc
 50
251.219322
 51
311.219322
  0
ARC
  5
2B35
100
AcDbEntity
  8
0
100
AcDbCircle
 10
289.355217
 20
767.709042
 30
0.0
 40
6.571321
100
AcDbArc
 50
228.780678
 51
311.219322
  0
LINE
  5
2B36
100
AcDbEntity
  8
0
100
AcDbLine
 10
302.345598
 20
761.137721
 30
0.0
 11
287.845598
 21
761.137721
 31
0.0
  0
LINE
  5
2B37
100
AcDbEntity
  8
0
100
AcDbLine
 10
287.845598
 20
761.137721
 30
0.0
 11
285.02509
 21
762.766142
 31
0.0
  0
LINE
  5
2B38
100
AcDbEntity
  8
0
100
AcDbLine
 10
316.845598
 20
761.137721
 30
0.0
 11
319.666106
 21
762.766142
 31
0.0
  0
ARC
  5
2B39
100
AcDbEntity
  8
0
100
AcDbCircle
 10
315.335979
 20
767.709042
 30
0.0
 40
6.571321
100
AcDbArc
 50
228.780678
 51
288.780678
  0
LINE
  5
2B3A
100
AcDbEntity
  8
0
100
AcDbLine
 10
316.202005
 20
854.065924
 30
0.0
 11
316.202005
 21
846.569212
 31
0.0
  0
LINE
  5
2B3B
100
AcDbEntity
  8
0
100
AcDbLine
 10
309.273801
 20
854.065924
 30
0.0
 11
309.273801
 21
846.569212
 31
0.0
  0
LINE
  5
2B3C
100
AcDbEntity
  8
0
100
AcDbLine
 10
288.489192
 20
854.065924
 30
0.0
 11
288.489192
 21
846.569212
 31
0.0
  0
LINE
  5
2B3D
100
AcDbEntity
  8
0
100
AcDbLine
 10
295.417395
 20
854.065924
 30
0.0
 11
295.417395
 21
846.569212
 31
0.0
  0
ARC
  5
2B3E
100
AcDbEntity
  8
0
100
AcDbCircle
 10
302.345598
 20
796.457841
 30
0.0
 40
23.842652
100
AcDbArc
 50
251.705223
 51
288.294777
  0
LINE
  5
2B3F
100
AcDbEntity
  8
0
100
AcDbLine
 10
335.345598
 20
836.137721
 30
0.0
 11
269.345598
 21
836.137721
 31
0.0
  0
LINE
  5
2B40
100
AcDbEntity
  8
0
100
AcDbLine
 10
328.745598
 20
827.137721
 30
0.0
 11
275.945598
 21
827.137721
 31
0.0
  0
LINE
  5
2B41
100
AcDbEntity
  8
0
100
AcDbLine
 10
335.345598
 20
839.137721
 30
0.0
 11
269.345598
 21
839.137721
 31
0.0
  0
LINE
  5
2B42
100
AcDbEntity
  8
0
100
AcDbLine
 10
279.145598
 20
820.209518
 30
0.0
 11
325.545598
 21
820.209518
 31
0.0
  0
LINE
  5
2B43
100
AcDbEntity
  8
0
100
AcDbLine
 10
273.345598
 20
820.209518
 30
0.0
 11
273.345598
 21
787.137721
 31
0.0
  0
ARC
  5
2B44
100
AcDbEntity
  8
0
100
AcDbCircle
 10
286.345598
 20
787.137721
 30
0.0
 40
13.0
100
AcDbArc
 50
180.0
 51
254.333844
  0
ARC
  5
2B45
100
AcDbEntity
  8
0
100
AcDbCircle
 10
289.355217
 20
779.18651
 30
0.0
 40
6.571321
100
AcDbArc
 50
240.711313
 51
298.881291
  0
ARC
  5
2B46
100
AcDbEntity
  8
0
100
AcDbCircle
 10
282.02509
 20
771.732098
 30
0.0
 40
3.0
100
AcDbArc
 50
0.0
 51
74.333844
  0
LINE
  5
2B47
100
AcDbEntity
  8
0
100
AcDbLine
 10
269.345598
 20
839.137721
 30
0.0
 11
286.265649
 21
843.671435
 31
0.0
  0
LINE
  5
2B48
100
AcDbEntity
  8
0
100
AcDbLine
 10
273.345598
 20
820.209518
 30
0.0
 11
269.345598
 21
827.137721
 31
0.0
  0
LINE
  5
2B49
100
AcDbEntity
  8
0
100
AcDbLine
 10
269.345598
 20
836.137721
 30
0.0
 11
269.345598
 21
839.137721
 31
0.0
  0
LINE
  5
2B4A
100
AcDbEntity
  8
0
100
AcDbLine
 10
269.345598
 20
836.137721
 30
0.0
 11
269.345598
 21
827.137721
 31
0.0
  0
ARC
  5
2B4B
100
AcDbEntity
  8
0
100
AcDbCircle
 10
285.489192
 20
846.569212
 30
0.0
 40
3.0
100
AcDbArc
 50
285.0
 51
0.0
  0
LINE
  5
2B4C
100
AcDbEntity
  8
0
100
AcDbLine
 10
331.345598
 20
820.209518
 30
0.0
 11
331.345598
 21
787.137721
 31
0.0
  0
ARC
  5
2B4D
100
AcDbEntity
  8
0
100
AcDbCircle
 10
318.345598
 20
787.137721
 30
0.0
 40
13.0
100
AcDbArc
 50
285.666156
 51
0.0
  0
ARC
  5
2B4E
100
AcDbEntity
  8
0
100
AcDbCircle
 10
322.666106
 20
771.732098
 30
0.0
 40
3.0
100
AcDbArc
 50
105.666156
 51
180.0
  0
ARC
  5
2B4F
100
AcDbEntity
  8
0
100
AcDbCircle
 10
315.335979
 20
779.18651
 30
0.0
 40
6.571321
100
AcDbArc
 50
241.118709
 51
299.288687
  0
LINE
  5
2B50
100
AcDbEntity
  8
0
100
AcDbLine
 10
331.345598
 20
820.209518
 30
0.0
 11
335.345598
 21
827.137721
 31
0.0
  0
LINE
  5
2B51
100
AcDbEntity
  8
0
100
AcDbLine
 10
335.345598
 20
839.137721
 30
0.0
 11
318.425548
 21
843.671435
 31
0.0
  0
ARC
  5
2B52
100
AcDbEntity
  8
0
100
AcDbCircle
 10
319.202005
 20
846.569212
 30
0.0
 40
3.0
100
AcDbArc
 50
180.0
 51
255.0
  0
LINE
  5
2B53
100
AcDbEntity
  8
0
100
AcDbLine
 10
335.345598
 20
836.137721
 30
0.0
 11
335.345598
 21
839.137721
 31
0.0
  0
LINE
  5
2B54
100
AcDbEntity
  8
0
100
AcDbLine
 10
335.345598
 20
836.137721
 30
0.0
 11
335.345598
 21
827.137721
 31
0.0
  0
LINE
  5
2B55
100
AcDbEntity
  8
0
100
AcDbLine
 10
313.345598
 20
859.137721
 30
0.0
 11
302.345598
 21
859.137721
 31
0.0
  0
ARC
  5
2B56
100
AcDbEntity
  8
0
100
AcDbCircle
 10
302.345598
 20
832.209518
 30
0.0
 40
22.928203
100
AcDbArc
 50
72.412046
 51
107.587954
  0
LINE
  5
2B57
100
AcDbEntity
  8
0
100
AcDbLine
 10
314.345598
 20
855.137721
 30
0.0
 11
290.345598
 21
855.137721
 31
0.0
  0
ARC
  5
2B58
100
AcDbEntity
  8
0
100
AcDbCircle
 10
291.953293
 20
849.003746
 30
0.0
 40
6.133975
100
AcDbArc
 50
55.615753
 51
115.615753
  0
LINE
  5
2B59
100
AcDbEntity
  8
0
100
AcDbLine
 10
302.345598
 20
859.137721
 30
0.0
 11
291.345598
 21
859.137721
 31
0.0
  0
LINE
  5
2B5A
100
AcDbEntity
  8
0
100
AcDbLine
 10
290.345598
 20
855.137721
 30
0.0
 11
288.489192
 21
854.065924
 31
0.0
  0
LINE
  5
2B5B
100
AcDbEntity
  8
0
100
AcDbLine
 10
290.345598
 20
855.137721
 30
0.0
 11
290.345598
 21
858.137721
 31
0.0
  0
LINE
  5
2B5C
100
AcDbEntity
  8
0
100
AcDbLine
 10
291.345598
 20
859.137721
 30
0.0
 11
290.345598
 21
858.137721
 31
0.0
  0
LINE
  5
2B5D
100
AcDbEntity
  8
0
100
AcDbLine
 10
314.345598
 20
855.137721
 30
0.0
 11
314.345598
 21
858.137721
 31
0.0
  0
LINE
  5
2B5E
100
AcDbEntity
  8
0
100
AcDbLine
 10
314.345598
 20
855.137721
 30
0.0
 11
316.202005
 21
854.065924
 31
0.0
  0
ARC
  5
2B5F
100
AcDbEntity
  8
0
100
AcDbCircle
 10
312.737903
 20
849.003746
 30
0.0
 40
6.133975
100
AcDbArc
 50
64.384247
 51
124.384247
  0
LINE
  5
2B60
100
AcDbEntity
  8
0
100
AcDbLine
 10
313.345598
 20
859.137721
 30
0.0
 11
314.345598
 21
858.137721
 31
0.0
  0
ARC
  5
2B61
100
AcDbEntity
  8
0
100
AcDbCircle
 10
768.526322
 20
779.004901
 30
0.0
 40
18.999263
100
AcDbArc
 50
251.064665
 51
359.975349
  0
ARC
  5
2B62
100
AcDbEntity
  8
0
100
AcDbCircle
 10
724.524844
 20
779.004901
 30
0.0
 40
18.999263
100
AcDbArc
 50
180.024651
 51
288.935335
  0
LINE
  5
2B63
100
AcDbEntity
  8
0
100
AcDbLine
 10
733.386526
 20
614.33849
 30
0.0
 11
759.944639
 21
614.33849
 31
0.0
  0
LINE
  5
2B64
100
AcDbEntity
  8
0
100
AcDbLine
 10
746.525583
 20
743.006727
 30
0.0
 11
769.025583
 21
743.006727
 31
0.0
  0
ARC
  5
2B65
100
AcDbEntity
  8
0
100
AcDbCircle
 10
746.665583
 20
796.117402
 30
0.0
 40
37.643897
100
AcDbArc
 50
249.342576
 51
290.657424
  0
ARC
  5
2B66
100
AcDbEntity
  8
0
100
AcDbCircle
 10
746.665583
 20
780.650363
 30
0.0
 40
37.643897
100
AcDbArc
 50
249.342576
 51
290.657424
  0
LINE
  5
2B67
100
AcDbEntity
  8
0
100
AcDbLine
 10
719.835583
 20
745.426727
 30
0.0
 11
724.025583
 21
743.006727
 31
0.0
  0
LINE
  5
2B68
100
AcDbEntity
  8
0
100
AcDbLine
 10
719.835583
 20
757.052932
 30
0.0
 11
719.835583
 21
745.426727
 31
0.0
  0
ARC
  5
2B69
100
AcDbEntity
  8
0
100
AcDbCircle
 10
714.835583
 20
757.052932
 30
0.0
 40
5.0
100
AcDbArc
 50
0.0
 51
66.180559
  0
ARC
  5
2B6A
100
AcDbEntity
  8
0
100
AcDbCircle
 10
726.465583
 20
753.326148
 30
0.0
 40
10.319421
100
AcDbArc
 50
250.149058
 51
310.049331
  0
LINE
  5
2B6B
100
AcDbEntity
  8
0
100
AcDbLine
 10
746.805583
 20
743.006727
 30
0.0
 11
724.025583
 21
743.006727
 31
0.0
  0
LINE
  5
2B6C
100
AcDbEntity
  8
0
100
AcDbLine
 10
733.385583
 20
745.426727
 30
0.0
 11
733.385583
 21
757.056727
 31
0.0
  0
LINE
  5
2B6D
100
AcDbEntity
  8
0
100
AcDbLine
 10
769.025583
 20
743.006727
 30
0.0
 11
773.225583
 21
745.426727
 31
0.0
  0
ARC
  5
2B6E
100
AcDbEntity
  8
0
100
AcDbCircle
 10
766.585583
 20
753.326148
 30
0.0
 40
10.319421
100
AcDbArc
 50
229.950669
 51
289.850942
  0
LINE
  5
2B6F
100
AcDbEntity
  8
0
100
AcDbLine
 10
759.945583
 20
745.426727
 30
0.0
 11
759.945583
 21
757.056727
 31
0.0
  0
ARC
  5
2B70
100
AcDbEntity
  8
0
100
AcDbCircle
 10
778.225583
 20
757.052932
 30
0.0
 40
5.0
100
AcDbArc
 50
113.837766
 51
180.0
  0
LINE
  5
2B71
100
AcDbEntity
  8
0
100
AcDbLine
 10
773.225583
 20
745.426727
 30
0.0
 11
773.225583
 21
757.052932
 31
0.0
  0
LINE
  5
2B72
100
AcDbEntity
  8
0
100
AcDbLine
 10
790.525583
 20
835.006727
 30
0.0
 11
790.525583
 21
850.006727
 31
0.0
  0
LINE
  5
2B73
100
AcDbEntity
  8
0
100
AcDbLine
 10
702.525583
 20
850.006727
 30
0.0
 11
702.525583
 21
835.006727
 31
0.0
  0
LINE
  5
2B74
100
AcDbEntity
  8
0
100
AcDbLine
 10
783.425583
 20
829.806727
 30
0.0
 11
709.625583
 21
829.806727
 31
0.0
  0
LINE
  5
2B75
100
AcDbEntity
  8
0
100
AcDbLine
 10
786.125583
 20
835.006727
 30
0.0
 11
706.925583
 21
835.006727
 31
0.0
  0
LINE
  5
2B76
100
AcDbEntity
  8
0
100
AcDbLine
 10
705.525583
 20
829.806727
 30
0.0
 11
705.525583
 21
778.996727
 31
0.0
  0
LINE
  5
2B77
100
AcDbEntity
  8
0
100
AcDbLine
 10
702.525583
 20
835.006727
 30
0.0
 11
705.525583
 21
829.806727
 31
0.0
  0
LINE
  5
2B78
100
AcDbEntity
  8
0
100
AcDbLine
 10
787.525583
 20
778.996727
 30
0.0
 11
787.525583
 21
829.806727
 31
0.0
  0
LINE
  5
2B79
100
AcDbEntity
  8
0
100
AcDbLine
 10
787.525583
 20
829.806727
 30
0.0
 11
790.525583
 21
835.006727
 31
0.0
  0
LINE
  5
2B7A
100
AcDbEntity
  8
0
100
AcDbLine
 10
769.025583
 20
868.006727
 30
0.0
 11
724.025583
 21
868.006727
 31
0.0
  0
LINE
  5
2B7B
100
AcDbEntity
  8
0
100
AcDbLine
 10
789.525583
 20
856.006727
 30
0.0
 11
703.525583
 21
856.006727
 31
0.0
  0
LINE
  5
2B7C
100
AcDbEntity
  8
0
100
AcDbLine
 10
702.525583
 20
850.006727
 30
0.0
 11
790.525583
 21
850.006727
 31
0.0
  0
ARC
  5
2B7D
100
AcDbEntity
  8
0
100
AcDbCircle
 10
746.525583
 20
829.153308
 30
0.0
 40
38.853419
100
AcDbArc
 50
70.013577
 51
109.986423
  0
LINE
  5
2B7E
100
AcDbEntity
  8
0
100
AcDbLine
 10
746.525583
 20
874.006727
 30
0.0
 11
758.025583
 21
874.006727
 31
0.0
  0
LINE
  5
2B7F
100
AcDbEntity
  8
0
100
AcDbLine
 10
724.025583
 20
868.006727
 30
0.0
 11
719.975583
 21
865.666727
 31
0.0
  0
LINE
  5
2B80
100
AcDbEntity
  8
0
100
AcDbLine
 10
702.525583
 20
855.006727
 30
0.0
 11
702.525583
 21
850.006727
 31
0.0
  0
LINE
  5
2B81
100
AcDbEntity
  8
0
100
AcDbLine
 10
703.525583
 20
856.006727
 30
0.0
 11
702.525583
 21
855.006727
 31
0.0
  0
LINE
  5
2B82
100
AcDbEntity
  8
0
100
AcDbLine
 10
719.975583
 20
865.666727
 30
0.0
 11
719.975583
 21
859.006727
 31
0.0
  0
ARC
  5
2B83
100
AcDbEntity
  8
0
100
AcDbCircle
 10
716.975583
 20
859.006727
 30
0.0
 40
3.0
100
AcDbArc
 50
270.0
 51
0.0
  0
ARC
  5
2B84
100
AcDbEntity
  8
0
100
AcDbCircle
 10
726.610583
 20
857.430055
 30
0.0
 40
10.576672
100
AcDbArc
 50
51.147034
 51
111.183769
  0
LINE
  5
2B85
100
AcDbEntity
  8
0
100
AcDbLine
 10
733.245583
 20
865.666727
 30
0.0
 11
733.245583
 21
859.006727
 31
0.0
  0
LINE
  5
2B86
100
AcDbEntity
  8
0
100
AcDbLine
 10
746.525583
 20
874.006727
 30
0.0
 11
735.025583
 21
874.006727
 31
0.0
  0
LINE
  5
2B87
100
AcDbEntity
  8
0
100
AcDbLine
 10
735.025583
 20
874.006727
 30
0.0
 11
734.025583
 21
873.006727
 31
0.0
  0
LINE
  5
2B88
100
AcDbEntity
  8
0
100
AcDbLine
 10
734.025583
 20
873.006727
 30
0.0
 11
734.025583
 21
868.006727
 31
0.0
  0
LINE
  5
2B89
100
AcDbEntity
  8
0
100
AcDbLine
 10
773.085583
 20
865.666727
 30
0.0
 11
769.025583
 21
868.006727
 31
0.0
  0
ARC
  5
2B8A
100
AcDbEntity
  8
0
100
AcDbCircle
 10
766.450583
 20
857.430055
 30
0.0
 40
10.576672
100
AcDbArc
 50
68.816231
 51
128.852966
  0
LINE
  5
2B8B
100
AcDbEntity
  8
0
100
AcDbLine
 10
759.805583
 20
865.666727
 30
0.0
 11
759.805583
 21
859.006727
 31
0.0
  0
ARC
  5
2B8C
100
AcDbEntity
  8
0
100
AcDbCircle
 10
776.075583
 20
859.006727
 30
0.0
 40
3.0
100
AcDbArc
 50
180.0
 51
270.0
  0
LINE
  5
2B8D
100
AcDbEntity
  8
0
100
AcDbLine
 10
773.085583
 20
858.761982
 30
0.0
 11
773.085583
 21
865.666727
 31
0.0
  0
LINE
  5
2B8E
100
AcDbEntity
  8
0
100
AcDbLine
 10
759.025583
 20
873.006727
 30
0.0
 11
758.025583
 21
874.006727
 31
0.0
  0
LINE
  5
2B8F
100
AcDbEntity
  8
0
100
AcDbLine
 10
759.025583
 20
868.006727
 30
0.0
 11
759.025583
 21
873.006727
 31
0.0
  0
LINE
  5
2B90
100
AcDbEntity
  8
0
100
AcDbLine
 10
790.525583
 20
855.006727
 30
0.0
 11
790.525583
 21
850.006727
 31
0.0
  0
LINE
  5
2B91
100
AcDbEntity
  8
0
100
AcDbLine
 10
789.525583
 20
856.006727
 30
0.0
 11
790.525583
 21
855.006727
 31
0.0
  0
LINE
  5
2B92
100
AcDbEntity
  8
0
100
AcDbLine
 10
1461.486911
 20
556.239392
 30
0.0
 11
1461.486911
 21
632.449628
 31
0.0
  0
LINE
  5
2B93
100
AcDbEntity
  8
0
100
AcDbLine
 10
1301.486911
 20
556.239392
 30
0.0
 11
1301.486911
 21
632.449628
 31
0.0
  0
CIRCLE
  5
2B94
100
AcDbEntity
  8
0
100
AcDbCircle
 10
1381.486911
 20
594.34451
 30
0.0
 40
11.5
  0
CIRCLE
  5
2B95
100
AcDbEntity
  8
0
100
AcDbCircle
 10
1381.486911
 20
594.34451
 30
0.0
 40
12.5
  0
CIRCLE
  5
2B96
100
AcDbEntity
  8
0
100
AcDbCircle
 10
1381.486911
 20
594.34451
 30
0.0
 40
58.913886
  0
CIRCLE
  5
2B97
100
AcDbEntity
  8
0
100
AcDbCircle
 10
1381.486911
 20
594.34451
 30
0.0
 40
8.331
  0
LINE
  5
2B98
100
AcDbEntity
  8
0
100
AcDbLine
 10
1511.956085
 20
371.759982
 30
0.0
 11
1508.556085
 21
388.759982
 31
0.0
  0
ARC
  5
2B99
100
AcDbEntity
  8
0
100
AcDbCircle
 10
1556.956085
 20
326.759982
 30
0.0
 40
45.0
100
AcDbArc
 50
180.0
 51
264.836393
  0
ARC
  5
2B9A
100
AcDbEntity
  8
0
100
AcDbCircle
 10
1509.245173
 20
425.084726
 30
0.0
 40
11.675257
100
AcDbArc
 50
65.992508
 51
114.007492
  0
LINE
  5
2B9B
100
AcDbEntity
  8
0
100
AcDbLine
 10
1513.716024
 20
436.759982
 30
0.0
 11
1495.274024
 21
436.759982
 31
0.0
  0
LINE
  5
2B9C
100
AcDbEntity
  8
0
100
AcDbLine
 10
1670.666321
 20
410.759982
 30
0.0
 11
1490.37777
 21
410.759982
 31
0.0
  0
LINE
  5
2B9D
100
AcDbEntity
  8
0
100
AcDbLine
 10
1670.666321
 20
391.759982
 30
0.0
 11
1490.24585
 21
391.759982
 31
0.0
  0
LINE
  5
2B9E
100
AcDbEntity
  8
0
100
AcDbLine
 10
1670.666321
 20
409.759982
 30
0.0
 11
1490.24585
 21
409.759982
 31
0.0
  0
LINE
  5
2B9F
100
AcDbEntity
  8
0
100
AcDbLine
 10
1490.37777
 20
428.759982
 30
0.0
 11
1670.666321
 21
428.759982
 31
0.0
  0
LINE
  5
2BA0
100
AcDbEntity
  8
0
100
AcDbLine
 10
1394.765967
 20
268.102935
 30
0.0
 11
1394.765967
 21
279.613871
 31
0.0
  0
LINE
  5
2BA1
100
AcDbEntity
  8
0
100
AcDbLine
 10
1408.045024
 20
268.102935
 30
0.0
 11
1408.045024
 21
277.413586
 31
0.0
  0
ARC
  5
2BA2
100
AcDbEntity
  8
0
100
AcDbCircle
 10
1404.986911
 20
326.759982
 30
0.0
 40
45.0
100
AcDbArc
 50
262.344561
 51
0.0
  0
LINE
  5
2BA3
100
AcDbEntity
  8
0
100
AcDbLine
 10
1368.207855
 20
268.102935
 30
0.0
 11
1368.207855
 21
279.613871
 31
0.0
  0
LINE
  5
2BA4
100
AcDbEntity
  8
0
100
AcDbLine
 10
1354.928799
 20
268.102935
 30
0.0
 11
1354.928799
 21
277.413586
 31
0.0
  0
ARC
  5
2BA5
100
AcDbEntity
  8
0
100
AcDbCircle
 10
1357.986911
 20
326.759982
 30
0.0
 40
45.0
100
AcDbArc
 50
180.0
 51
277.655439
  0
LINE
  5
2BA6
100
AcDbEntity
  8
0
100
AcDbLine
 10
1182.517738
 20
268.102935
 30
0.0
 11
1182.517738
 21
279.613871
 31
0.0
  0
LINE
  5
2BA7
100
AcDbEntity
  8
0
100
AcDbLine
 10
1205.517738
 20
268.102935
 30
0.0
 11
1205.517738
 21
276.962894
 31
0.0
  0
LINE
  5
2BA8
100
AcDbEntity
  8
0
100
AcDbLine
 10
1159.517738
 20
268.102935
 30
0.0
 11
1159.517738
 21
276.962894
 31
0.0
  0
ARC
  5
2BA9
100
AcDbEntity
  8
0
100
AcDbCircle
 10
1171.017738
 20
295.154398
 30
0.0
 40
29.394415
100
AcDbArc
 50
246.968896
 51
293.031104
  0
LINE
  5
2BAA
100
AcDbEntity
  8
0
100
AcDbLine
 10
1182.517738
 20
265.759982
 30
0.0
 11
1160.017738
 21
265.759982
 31
0.0
  0
LINE
  5
2BAB
100
AcDbEntity
  8
0
100
AcDbLine
 10
1160.017738
 20
265.759982
 30
0.0
 11
1159.517738
 21
268.102935
 31
0.0
  0
ARC
  5
2BAC
100
AcDbEntity
  8
0
100
AcDbCircle
 10
1194.017738
 20
295.154398
 30
0.0
 40
29.394415
100
AcDbArc
 50
246.968896
 51
293.031104
  0
LINE
  5
2BAD
100
AcDbEntity
  8
0
100
AcDbLine
 10
1182.517738
 20
265.759982
 30
0.0
 11
1205.017738
 21
265.759982
 31
0.0
  0
LINE
  5
2BAE
100
AcDbEntity
  8
0
100
AcDbLine
 10
1205.017738
 20
265.759982
 30
0.0
 11
1205.517738
 21
268.102935
 31
0.0
  0
ARC
  5
2BAF
100
AcDbEntity
  8
0
100
AcDbCircle
 10
1401.405496
 20
276.339105
 30
0.0
 40
10.579123
100
AcDbArc
 50
231.126232
 51
291.126232
  0
TEXT
  5
2BB0
100
AcDbEntity
  8
0
100
AcDbText
 10
1313.53575
 20
193.973861
 30
0.0
 40
25.0
  1
TLV-VC4
100
AcDbText
  0
LINE
  5
2BB1
100
AcDbEntity
  8
0
100
AcDbLine
 10
1381.486911
 20
265.759982
 30
0.0
 11
1403.986911
 21
265.759982
 31
0.0
  0
LINE
  5
2BB2
100
AcDbEntity
  8
0
100
AcDbLine
 10
1380.805391
 20
258.405076
 30
0.0
 11
1380.805391
 21
226.892701
 31
0.0
  0
LINE
  5
2BB3
100
AcDbEntity
  8
0
100
AcDbLine
 10
1387.107641
 20
220.590451
 30
0.0
 11
1387.107641
 21
239.497201
 31
0.0
  0
LINE
  5
2BB4
100
AcDbEntity
  8
0
100
AcDbLine
 10
1380.805391
 20
226.892701
 30
0.0
 11
1387.107641
 21
220.590451
 31
0.0
  0
LINE
  5
2BB5
100
AcDbEntity
  8
0
100
AcDbLine
 10
1381.486911
 20
265.759982
 30
0.0
 11
1358.986911
 21
265.759982
 31
0.0
  0
ARC
  5
2BB6
100
AcDbEntity
  8
0
100
AcDbCircle
 10
1361.568327
 20
276.339105
 30
0.0
 40
10.579123
100
AcDbArc
 50
248.873768
 51
308.873768
  0
LINE
  5
2BB7
100
AcDbEntity
  8
0
100
AcDbLine
 10
1358.986911
 20
265.759982
 30
0.0
 11
1354.928799
 21
268.102935
 31
0.0
  0
LINE
  5
2BB8
100
AcDbEntity
  8
0
100
AcDbLine
 10
1387.107641
 20
251.965576
 30
0.0
 11
1380.805391
 21
258.405076
 31
0.0
  0
LINE
  5
2BB9
100
AcDbEntity
  8
0
100
AcDbLine
 10
1387.107641
 20
239.497201
 30
0.0
 11
1383.956516
 21
242.649451
 31
0.0
  0
LINE
  5
2BBA
100
AcDbEntity
  8
0
100
AcDbLine
 10
1383.956516
 20
251.965576
 30
0.0
 11
1387.107641
 21
251.965576
 31
0.0
  0
LINE
  5
2BBB
100
AcDbEntity
  8
0
100
AcDbLine
 10
1383.956516
 20
242.649451
 30
0.0
 11
1383.956516
 21
251.965576
 31
0.0
  0
ARC
  5
2BBC
100
AcDbEntity
  8
0
100
AcDbCircle
 10
1381.486911
 20
304.562044
 30
0.0
 40
38.802062
100
AcDbArc
 50
249.987477
 51
290.012523
  0
LINE
  5
2BBD
100
AcDbEntity
  8
0
100
AcDbLine
 10
1403.986911
 20
265.759982
 30
0.0
 11
1408.045024
 21
268.102935
 31
0.0
  0
ARC
  5
2BBE
100
AcDbEntity
  8
0
100
AcDbCircle
 10
1263.228873
 20
425.085077
 30
0.0
 40
11.674906
100
AcDbArc
 50
65.992142
 51
114.007858
  0
LINE
  5
2BBF
100
AcDbEntity
  8
0
100
AcDbLine
 10
1267.699799
 20
436.759982
 30
0.0
 11
1267.978948
 21
435.749982
 31
0.0
  0
LINE
  5
2BC0
100
AcDbEntity
  8
0
100
AcDbLine
 10
1248.9785
 20
435.749982
 30
0.0
 11
1249.257799
 21
436.759982
 31
0.0
  0
ARC
  5
2BC1
100
AcDbEntity
  8
0
100
AcDbCircle
 10
1253.728649
 20
425.084726
 30
0.0
 40
11.675257
100
AcDbArc
 50
65.992508
 51
114.007492
  0
LINE
  5
2BC2
100
AcDbEntity
  8
0
100
AcDbLine
 10
1229.657643
 20
436.759982
 30
0.0
 11
1229.936793
 21
435.749982
 31
0.0
  0
ARC
  5
2BC3
100
AcDbEntity
  8
0
100
AcDbCircle
 10
1225.186718
 20
425.085077
 30
0.0
 40
11.674906
100
AcDbArc
 50
65.992142
 51
114.007858
  0
LINE
  5
2BC4
100
AcDbEntity
  8
0
100
AcDbLine
 10
1210.936345
 20
435.749982
 30
0.0
 11
1211.215643
 21
436.759982
 31
0.0
  0
LINE
  5
2BC5
100
AcDbEntity
  8
0
100
AcDbLine
 10
1153.696881
 20
436.759982
 30
0.0
 11
1153.97603
 21
435.749982
 31
0.0
  0
ARC
  5
2BC6
100
AcDbEntity
  8
0
100
AcDbCircle
 10
1215.686494
 20
425.084726
 30
0.0
 40
11.675257
100
AcDbArc
 50
65.992508
 51
114.007492
  0
LINE
  5
2BC7
100
AcDbEntity
  8
0
100
AcDbLine
 10
1134.975582
 20
435.749982
 30
0.0
 11
1135.254881
 21
436.759982
 31
0.0
  0
ARC
  5
2BC8
100
AcDbEntity
  8
0
100
AcDbCircle
 10
1139.725731
 20
425.084726
 30
0.0
 40
11.675257
100
AcDbArc
 50
65.992508
 51
114.007492
  0
LINE
  5
2BC9
100
AcDbEntity
  8
0
100
AcDbLine
 10
1115.777975
 20
436.759982
 30
0.0
 11
1116.057125
 21
435.749982
 31
0.0
  0
ARC
  5
2BCA
100
AcDbEntity
  8
0
100
AcDbCircle
 10
1101.806826
 20
425.084726
 30
0.0
 40
11.675257
100
AcDbArc
 50
65.992508
 51
114.007492
  0
LINE
  5
2BCB
100
AcDbEntity
  8
0
100
AcDbLine
 10
1097.056676
 20
435.749982
 30
0.0
 11
1097.335975
 21
436.759982
 31
0.0
  0
ARC
  5
2BCC
100
AcDbEntity
  8
0
100
AcDbCircle
 10
1111.30705
 20
425.085077
 30
0.0
 40
11.674906
100
AcDbArc
 50
65.992142
 51
114.007858
  0
ARC
  5
2BCD
100
AcDbEntity
  8
0
100
AcDbCircle
 10
1149.225955
 20
425.085077
 30
0.0
 40
11.674906
100
AcDbArc
 50
65.992142
 51
114.007858
  0
ARC
  5
2BCE
100
AcDbEntity
  8
0
100
AcDbCircle
 10
1170.585676
 20
303.547265
 30
0.0
 40
24.464706
100
AcDbArc
 50
244.263801
 51
295.736199
  0
LINE
  5
2BCF
100
AcDbEntity
  8
0
100
AcDbLine
 10
1272.596052
 20
428.759982
 30
0.0
 11
1092.307502
 21
428.759982
 31
0.0
  0
LINE
  5
2BD0
100
AcDbEntity
  8
0
100
AcDbLine
 10
1092.307502
 20
410.759982
 30
0.0
 11
1272.596052
 21
410.759982
 31
0.0
  0
LINE
  5
2BD1
100
AcDbEntity
  8
0
100
AcDbLine
 10
1092.307502
 20
409.759982
 30
0.0
 11
1272.727973
 21
409.759982
 31
0.0
  0
LINE
  5
2BD2
100
AcDbEntity
  8
0
100
AcDbLine
 10
1092.307502
 20
391.759982
 30
0.0
 11
1272.727973
 21
391.759982
 31
0.0
  0
LINE
  5
2BD3
100
AcDbEntity
  8
0
100
AcDbLine
 10
1122.237738
 20
371.759982
 30
0.0
 11
1242.797738
 21
371.759982
 31
0.0
  0
LINE
  5
2BD4
100
AcDbEntity
  8
0
100
AcDbLine
 10
1114.017738
 20
371.759982
 30
0.0
 11
1114.017738
 21
326.759982
 31
0.0
  0
ARC
  5
2BD5
100
AcDbEntity
  8
0
100
AcDbCircle
 10
1159.017738
 20
326.759982
 30
0.0
 40
45.0
100
AcDbArc
 50
180.0
 51
264.836393
  0
ARC
  5
2BD6
100
AcDbEntity
  8
0
100
AcDbCircle
 10
1154.517738
 20
276.962894
 30
0.0
 40
5.0
100
AcDbArc
 50
0.0
 51
84.836393
  0
LINE
  5
2BD7
100
AcDbEntity
  8
0
100
AcDbLine
 10
1101.503975
 20
388.759982
 30
0.0
 11
1111.609975
 21
388.759982
 31
0.0
  0
LINE
  5
2BD8
100
AcDbEntity
  8
0
100
AcDbLine
 10
1112.556975
 20
389.706982
 30
0.0
 11
1100.556975
 21
389.706982
 31
0.0
  0
LINE
  5
2BD9
100
AcDbEntity
  8
0
100
AcDbLine
 10
1092.307502
 20
409.759982
 30
0.0
 11
1092.307502
 21
391.759982
 31
0.0
  0
LINE
  5
2BDA
100
AcDbEntity
  8
0
100
AcDbLine
 10
1100.556975
 20
391.759982
 30
0.0
 11
1100.556975
 21
389.706982
 31
0.0
  0
LINE
  5
2BDB
100
AcDbEntity
  8
0
100
AcDbLine
 10
1100.556975
 20
389.706982
 30
0.0
 11
1101.503975
 21
388.759982
 31
0.0
  0
LINE
  5
2BDC
100
AcDbEntity
  8
0
100
AcDbLine
 10
1092.307502
 20
410.759982
 30
0.0
 11
1092.307502
 21
428.759982
 31
0.0
  0
LINE
  5
2BDD
100
AcDbEntity
  8
0
100
AcDbLine
 10
1100.556975
 20
410.759982
 30
0.0
 11
1100.556975
 21
409.759982
 31
0.0
  0
LINE
  5
2BDE
100
AcDbEntity
  8
0
100
AcDbLine
 10
1097.056676
 20
428.759982
 30
0.0
 11
1097.056676
 21
435.749982
 31
0.0
  0
LINE
  5
2BDF
100
AcDbEntity
  8
0
100
AcDbLine
 10
1144.41262
 20
407.059982
 30
0.0
 11
1144.41262
 21
394.459982
 31
0.0
  0
LINE
  5
2BE0
100
AcDbEntity
  8
0
100
AcDbLine
 10
1132.288264
 20
407.059982
 30
0.0
 11
1132.288264
 21
394.459982
 31
0.0
  0
LINE
  5
2BE1
100
AcDbEntity
  8
0
100
AcDbLine
 10
1114.017738
 20
371.759982
 30
0.0
 11
1110.617738
 21
388.759982
 31
0.0
  0
LINE
  5
2BE2
100
AcDbEntity
  8
0
100
AcDbLine
 10
1112.556975
 20
389.706982
 30
0.0
 11
1112.556975
 21
391.759982
 31
0.0
  0
LINE
  5
2BE3
100
AcDbEntity
  8
0
100
AcDbLine
 10
1111.609975
 20
388.759982
 30
0.0
 11
1112.556975
 21
389.706982
 31
0.0
  0
LINE
  5
2BE4
100
AcDbEntity
  8
0
100
AcDbLine
 10
1148.927648
 20
373.518817
 30
0.0
 11
1151.975881
 21
388.759982
 31
0.0
  0
LINE
  5
2BE5
100
AcDbEntity
  8
0
100
AcDbLine
 10
1140.024114
 20
373.518817
 30
0.0
 11
1136.975881
 21
388.759982
 31
0.0
  0
LINE
  5
2BE6
100
AcDbEntity
  8
0
100
AcDbLine
 10
1139.422881
 20
388.759982
 30
0.0
 11
1149.528881
 21
388.759982
 31
0.0
  0
LINE
  5
2BE7
100
AcDbEntity
  8
0
100
AcDbLine
 10
1150.475881
 20
389.706982
 30
0.0
 11
1138.475881
 21
389.706982
 31
0.0
  0
LINE
  5
2BE8
100
AcDbEntity
  8
0
100
AcDbLine
 10
1138.475881
 20
391.759982
 30
0.0
 11
1138.475881
 21
389.706982
 31
0.0
  0
LINE
  5
2BE9
100
AcDbEntity
  8
0
100
AcDbLine
 10
1138.475881
 20
389.706982
 30
0.0
 11
1139.422881
 21
388.759982
 31
0.0
  0
LINE
  5
2BEA
100
AcDbEntity
  8
0
100
AcDbLine
 10
1149.528881
 20
388.759982
 30
0.0
 11
1150.475881
 21
389.706982
 31
0.0
  0
LINE
  5
2BEB
100
AcDbEntity
  8
0
100
AcDbLine
 10
1150.475881
 20
389.706982
 30
0.0
 11
1150.475881
 21
391.759982
 31
0.0
  0
ARC
  5
2BEC
100
AcDbEntity
  8
0
100
AcDbCircle
 10
1182.517738
 20
317.381555
 30
0.0
 40
126.0
100
AcDbArc
 50
112.167695
 51
117.876709
  0
LINE
  5
2BED
100
AcDbEntity
  8
0
100
AcDbLine
 10
1132.288264
 20
426.059982
 30
0.0
 11
1132.288264
 21
413.459982
 31
0.0
  0
LINE
  5
2BEE
100
AcDbEntity
  8
0
100
AcDbLine
 10
1112.556975
 20
409.759982
 30
0.0
 11
1112.556975
 21
410.759982
 31
0.0
  0
LINE
  5
2BEF
100
AcDbEntity
  8
0
100
AcDbLine
 10
1106.556975
 20
435.749982
 30
0.0
 11
1106.556975
 21
428.759982
 31
0.0
  0
LINE
  5
2BF0
100
AcDbEntity
  8
0
100
AcDbLine
 10
1116.057125
 20
435.749982
 30
0.0
 11
1116.057125
 21
428.759982
 31
0.0
  0
LINE
  5
2BF1
100
AcDbEntity
  8
0
100
AcDbLine
 10
1144.41262
 20
426.059982
 30
0.0
 11
1144.41262
 21
413.459982
 31
0.0
  0
LINE
  5
2BF2
100
AcDbEntity
  8
0
100
AcDbLine
 10
1138.475881
 20
410.759982
 30
0.0
 11
1138.475881
 21
409.759982
 31
0.0
  0
LINE
  5
2BF3
100
AcDbEntity
  8
0
100
AcDbLine
 10
1150.475881
 20
409.759982
 30
0.0
 11
1150.475881
 21
410.759982
 31
0.0
  0
LINE
  5
2BF4
100
AcDbEntity
  8
0
100
AcDbLine
 10
1144.475881
 20
435.749982
 30
0.0
 11
1144.475881
 21
428.759982
 31
0.0
  0
LINE
  5
2BF5
100
AcDbEntity
  8
0
100
AcDbLine
 10
1134.975582
 20
428.759982
 30
0.0
 11
1134.975582
 21
435.749982
 31
0.0
  0
LINE
  5
2BF6
100
AcDbEntity
  8
0
100
AcDbLine
 10
1153.97603
 20
435.749982
 30
0.0
 11
1153.97603
 21
428.759982
 31
0.0
  0
LINE
  5
2BF7
100
AcDbEntity
  8
0
100
AcDbLine
 10
1251.017738
 20
371.759982
 30
0.0
 11
1251.017738
 21
326.759982
 31
0.0
  0
ARC
  5
2BF8
100
AcDbEntity
  8
0
100
AcDbCircle
 10
1206.017738
 20
326.759982
 30
0.0
 40
45.0
100
AcDbArc
 50
275.163607
 51
0.0
  0
ARC
  5
2BF9
100
AcDbEntity
  8
0
100
AcDbCircle
 10
1194.676915
 20
303.257944
 30
0.0
 40
24.252927
100
AcDbArc
 50
244.400198
 51
295.599802
  0
ARC
  5
2BFA
100
AcDbEntity
  8
0
100
AcDbCircle
 10
1210.517738
 20
276.962894
 30
0.0
 40
5.0
100
AcDbArc
 50
95.163607
 51
180.0
  0
LINE
  5
2BFB
100
AcDbEntity
  8
0
100
AcDbLine
 10
1226.436643
 20
389.706982
 30
0.0
 11
1214.436643
 21
389.706982
 31
0.0
  0
LINE
  5
2BFC
100
AcDbEntity
  8
0
100
AcDbLine
 10
1215.383643
 20
388.759982
 30
0.0
 11
1225.489643
 21
388.759982
 31
0.0
  0
LINE
  5
2BFD
100
AcDbEntity
  8
0
100
AcDbLine
 10
1220.622855
 20
407.059982
 30
0.0
 11
1220.622855
 21
394.459982
 31
0.0
  0
LINE
  5
2BFE
100
AcDbEntity
  8
0
100
AcDbLine
 10
1215.985026
 20
373.518817
 30
0.0
 11
1212.936793
 21
388.759982
 31
0.0
  0
LINE
  5
2BFF
100
AcDbEntity
  8
0
100
AcDbLine
 10
1214.436643
 20
389.706982
 30
0.0
 11
1215.383643
 21
388.759982
 31
0.0
  0
LINE
  5
2C00
100
AcDbEntity
  8
0
100
AcDbLine
 10
1214.436643
 20
391.759982
 30
0.0
 11
1214.436643
 21
389.706982
 31
0.0
  0
LINE
  5
2C01
100
AcDbEntity
  8
0
100
AcDbLine
 10
1220.622855
 20
426.059982
 30
0.0
 11
1220.622855
 21
413.459982
 31
0.0
  0
LINE
  5
2C02
100
AcDbEntity
  8
0
100
AcDbLine
 10
1214.436643
 20
410.759982
 30
0.0
 11
1214.436643
 21
409.759982
 31
0.0
  0
LINE
  5
2C03
100
AcDbEntity
  8
0
100
AcDbLine
 10
1220.436643
 20
435.749982
 30
0.0
 11
1220.436643
 21
428.759982
 31
0.0
  0
LINE
  5
2C04
100
AcDbEntity
  8
0
100
AcDbLine
 10
1210.936345
 20
428.759982
 30
0.0
 11
1210.936345
 21
435.749982
 31
0.0
  0
LINE
  5
2C05
100
AcDbEntity
  8
0
100
AcDbLine
 10
1272.596052
 20
409.759982
 30
0.0
 11
1272.596052
 21
391.759982
 31
0.0
  0
LINE
  5
2C06
100
AcDbEntity
  8
0
100
AcDbLine
 10
1232.747211
 20
407.059982
 30
0.0
 11
1232.747211
 21
394.459982
 31
0.0
  0
LINE
  5
2C07
100
AcDbEntity
  8
0
100
AcDbLine
 10
1224.888559
 20
373.518817
 30
0.0
 11
1227.936793
 21
388.759982
 31
0.0
  0
LINE
  5
2C08
100
AcDbEntity
  8
0
100
AcDbLine
 10
1225.489643
 20
388.759982
 30
0.0
 11
1226.436643
 21
389.706982
 31
0.0
  0
LINE
  5
2C09
100
AcDbEntity
  8
0
100
AcDbLine
 10
1226.436643
 20
389.706982
 30
0.0
 11
1226.436643
 21
391.759982
 31
0.0
  0
LINE
  5
2C0A
100
AcDbEntity
  8
0
100
AcDbLine
 10
1251.017738
 20
371.759982
 30
0.0
 11
1254.417738
 21
388.759982
 31
0.0
  0
LINE
  5
2C0B
100
AcDbEntity
  8
0
100
AcDbLine
 10
1263.531799
 20
388.759982
 30
0.0
 11
1264.478799
 21
389.706982
 31
0.0
  0
LINE
  5
2C0C
100
AcDbEntity
  8
0
100
AcDbLine
 10
1264.478799
 20
389.706982
 30
0.0
 11
1264.478799
 21
391.759982
 31
0.0
  0
LINE
  5
2C0D
100
AcDbEntity
  8
0
100
AcDbLine
 10
1252.478799
 20
389.706982
 30
0.0
 11
1253.425799
 21
388.759982
 31
0.0
  0
LINE
  5
2C0E
100
AcDbEntity
  8
0
100
AcDbLine
 10
1252.478799
 20
391.759982
 30
0.0
 11
1252.478799
 21
389.706982
 31
0.0
  0
LINE
  5
2C0F
100
AcDbEntity
  8
0
100
AcDbLine
 10
1264.478799
 20
389.706982
 30
0.0
 11
1252.478799
 21
389.706982
 31
0.0
  0
LINE
  5
2C10
100
AcDbEntity
  8
0
100
AcDbLine
 10
1253.425799
 20
388.759982
 30
0.0
 11
1263.531799
 21
388.759982
 31
0.0
  0
LINE
  5
2C11
100
AcDbEntity
  8
0
100
AcDbLine
 10
1232.747211
 20
426.059982
 30
0.0
 11
1232.747211
 21
413.459982
 31
0.0
  0
LINE
  5
2C12
100
AcDbEntity
  8
0
100
AcDbLine
 10
1226.436643
 20
409.759982
 30
0.0
 11
1226.436643
 21
410.759982
 31
0.0
  0
ARC
  5
2C13
100
AcDbEntity
  8
0
100
AcDbCircle
 10
1182.517738
 20
317.381555
 30
0.0
 40
126.0
100
AcDbArc
 50
62.123291
 51
67.892737
  0
LINE
  5
2C14
100
AcDbEntity
  8
0
100
AcDbLine
 10
1229.936793
 20
435.749982
 30
0.0
 11
1229.936793
 21
428.759982
 31
0.0
  0
LINE
  5
2C15
100
AcDbEntity
  8
0
100
AcDbLine
 10
1248.9785
 20
428.759982
 30
0.0
 11
1248.9785
 21
435.749982
 31
0.0
  0
LINE
  5
2C16
100
AcDbEntity
  8
0
100
AcDbLine
 10
1272.596052
 20
410.759982
 30
0.0
 11
1272.596052
 21
428.759982
 31
0.0
  0
LINE
  5
2C17
100
AcDbEntity
  8
0
100
AcDbLine
 10
1264.478799
 20
409.759982
 30
0.0
 11
1264.478799
 21
410.759982
 31
0.0
  0
LINE
  5
2C18
100
AcDbEntity
  8
0
100
AcDbLine
 10
1252.478799
 20
410.759982
 30
0.0
 11
1252.478799
 21
409.759982
 31
0.0
  0
LINE
  5
2C19
100
AcDbEntity
  8
0
100
AcDbLine
 10
1258.478799
 20
435.749982
 30
0.0
 11
1258.478799
 21
428.759982
 31
0.0
  0
LINE
  5
2C1A
100
AcDbEntity
  8
0
100
AcDbLine
 10
1267.978948
 20
435.749982
 30
0.0
 11
1267.978948
 21
428.759982
 31
0.0
  0
ARC
  5
2C1B
100
AcDbEntity
  8
0
100
AcDbCircle
 10
1182.517738
 20
317.381555
 30
0.0
 40
126.0
100
AcDbArc
 50
97.676966
 51
108.6575
  0
LINE
  5
2C1C
100
AcDbEntity
  8
0
100
AcDbLine
 10
1097.335975
 20
436.759982
 30
0.0
 11
1115.777975
 21
436.759982
 31
0.0
  0
LINE
  5
2C1D
100
AcDbEntity
  8
0
100
AcDbLine
 10
1135.254881
 20
436.759982
 30
0.0
 11
1153.696881
 21
436.759982
 31
0.0
  0
ARC
  5
2C1E
100
AcDbEntity
  8
0
100
AcDbCircle
 10
1182.517738
 20
317.381555
 30
0.0
 40
126.0
100
AcDbArc
 50
71.3425
 51
82.323034
  0
LINE
  5
2C1F
100
AcDbEntity
  8
0
100
AcDbLine
 10
1211.215643
 20
436.759982
 30
0.0
 11
1229.657643
 21
436.759982
 31
0.0
  0
ARC
  5
2C20
100
AcDbEntity
  8
0
100
AcDbCircle
 10
1182.517738
 20
317.381555
 30
0.0
 40
126.0
100
AcDbArc
 50
84.30653
 51
95.69347
  0
LINE
  5
2C21
100
AcDbEntity
  8
0
100
AcDbLine
 10
1194.017738
 20
455.759982
 30
0.0
 11
1182.517738
 21
455.759982
 31
0.0
  0
LINE
  5
2C22
100
AcDbEntity
  8
0
100
AcDbLine
 10
1182.517738
 20
455.759982
 30
0.0
 11
1171.017738
 21
455.759982
 31
0.0
  0
LINE
  5
2C23
100
AcDbEntity
  8
0
100
AcDbLine
 10
1170.017738
 20
454.759982
 30
0.0
 11
1171.017738
 21
455.759982
 31
0.0
  0
LINE
  5
2C24
100
AcDbEntity
  8
0
100
AcDbLine
 10
1170.017738
 20
447.2074
 30
0.0
 11
1170.017738
 21
454.759982
 31
0.0
  0
ARC
  5
2C25
100
AcDbEntity
  8
0
100
AcDbCircle
 10
1165.017738
 20
447.2074
 30
0.0
 40
5.0
100
AcDbArc
 50
277.676966
 51
0.0
  0
LINE
  5
2C26
100
AcDbEntity
  8
0
100
AcDbLine
 10
1194.017738
 20
455.759982
 30
0.0
 11
1195.017738
 21
454.759982
 31
0.0
  0
LINE
  5
2C27
100
AcDbEntity
  8
0
100
AcDbLine
 10
1195.017738
 20
447.2074
 30
0.0
 11
1195.017738
 21
454.759982
 31
0.0
  0
ARC
  5
2C28
100
AcDbEntity
  8
0
100
AcDbCircle
 10
1200.017738
 20
447.2074
 30
0.0
 40
5.0
100
AcDbArc
 50
180.0
 51
262.323034
  0
LINE
  5
2C29
100
AcDbEntity
  8
0
100
AcDbLine
 10
1249.257799
 20
436.759982
 30
0.0
 11
1267.699799
 21
436.759982
 31
0.0
  0
ARC
  5
2C2A
100
AcDbEntity
  8
0
100
AcDbCircle
 10
1499.744949
 20
425.085077
 30
0.0
 40
11.674906
100
AcDbArc
 50
65.992142
 51
114.007858
  0
LINE
  5
2C2B
100
AcDbEntity
  8
0
100
AcDbLine
 10
1495.274024
 20
436.759982
 30
0.0
 11
1494.994875
 21
435.749982
 31
0.0
  0
LINE
  5
2C2C
100
AcDbEntity
  8
0
100
AcDbLine
 10
1458.274842
 20
435.749982
 30
0.0
 11
1456.525842
 21
436.759982
 31
0.0
  0
LINE
  5
2C2D
100
AcDbEntity
  8
0
100
AcDbLine
 10
1438.083842
 20
436.759982
 30
0.0
 11
1436.334842
 21
435.749982
 31
0.0
  0
LINE
  5
2C2E
100
AcDbEntity
  8
0
100
AcDbLine
 10
1392.456911
 20
435.749982
 30
0.0
 11
1390.707911
 21
436.759982
 31
0.0
  0
ARC
  5
2C2F
100
AcDbEntity
  8
0
100
AcDbCircle
 10
1381.486911
 20
317.381555
 30
0.0
 40
126.0
100
AcDbArc
 50
64.195549
 51
82.323034
  0
LINE
  5
2C30
100
AcDbEntity
  8
0
100
AcDbLine
 10
1372.265911
 20
436.759982
 30
0.0
 11
1370.516911
 21
435.749982
 31
0.0
  0
LINE
  5
2C31
100
AcDbEntity
  8
0
100
AcDbLine
 10
1324.889981
 20
436.759982
 30
0.0
 11
1326.638981
 21
435.749982
 31
0.0
  0
LINE
  5
2C32
100
AcDbEntity
  8
0
100
AcDbLine
 10
1304.698981
 20
435.749982
 30
0.0
 11
1306.447981
 21
436.759982
 31
0.0
  0
ARC
  5
2C33
100
AcDbEntity
  8
0
100
AcDbCircle
 10
1381.486911
 20
317.381555
 30
0.0
 40
126.0
100
AcDbArc
 50
97.676966
 51
115.804451
  0
LINE
  5
2C34
100
AcDbEntity
  8
0
100
AcDbLine
 10
1301.486911
 20
428.759982
 30
0.0
 11
1461.486911
 21
428.759982
 31
0.0
  0
LINE
  5
2C35
100
AcDbEntity
  8
0
100
AcDbLine
 10
1461.486911
 20
410.759982
 30
0.0
 11
1301.486911
 21
410.759982
 31
0.0
  0
LINE
  5
2C36
100
AcDbEntity
  8
0
100
AcDbLine
 10
1461.486911
 20
391.759982
 30
0.0
 11
1301.486911
 21
391.759982
 31
0.0
  0
LINE
  5
2C37
100
AcDbEntity
  8
0
100
AcDbLine
 10
1461.486911
 20
409.759982
 30
0.0
 11
1301.486911
 21
409.759982
 31
0.0
  0
LINE
  5
2C38
100
AcDbEntity
  8
0
100
AcDbLine
 10
1441.766911
 20
371.759982
 30
0.0
 11
1321.206911
 21
371.759982
 31
0.0
  0
LINE
  5
2C39
100
AcDbEntity
  8
0
100
AcDbLine
 10
1312.986911
 20
371.759982
 30
0.0
 11
1312.986911
 21
326.759982
 31
0.0
  0
ARC
  5
2C3A
100
AcDbEntity
  8
0
100
AcDbCircle
 10
1349.928799
 20
277.413586
 30
0.0
 40
5.0
100
AcDbArc
 50
0.0
 51
80.725636
  0
ARC
  5
2C3B
100
AcDbEntity
  8
0
100
AcDbCircle
 10
1381.486911
 20
319.47786
 30
0.0
 40
38.802062
100
AcDbArc
 50
249.987477
 51
290.012523
  0
LINE
  5
2C3C
100
AcDbEntity
  8
0
100
AcDbLine
 10
1301.486911
 20
409.759982
 30
0.0
 11
1301.486911
 21
391.759982
 31
0.0
  0
ARC
  5
2C3D
100
AcDbEntity
  8
0
100
AcDbCircle
 10
1306.5275
 20
388.759982
 30
0.0
 40
3.0
100
AcDbArc
 50
11.309932
 51
90.0
  0
LINE
  5
2C3E
100
AcDbEntity
  8
0
100
AcDbLine
 10
1321.812404
 20
373.518817
 30
0.0
 11
1318.764171
 21
388.759982
 31
0.0
  0
LINE
  5
2C3F
100
AcDbEntity
  8
0
100
AcDbLine
 10
1312.986911
 20
371.759982
 30
0.0
 11
1309.469242
 21
389.348331
 31
0.0
  0
LINE
  5
2C40
100
AcDbEntity
  8
0
100
AcDbLine
 10
1322.164171
 20
388.185344
 30
0.0
 11
1322.164171
 21
376.107028
 31
0.0
  0
LINE
  5
2C41
100
AcDbEntity
  8
0
100
AcDbLine
 10
1320.721981
 20
388.759982
 30
0.0
 11
1321.668981
 21
389.706982
 31
0.0
  0
LINE
  5
2C42
100
AcDbEntity
  8
0
100
AcDbLine
 10
1321.668981
 20
389.706982
 30
0.0
 11
1321.668981
 21
391.759982
 31
0.0
  0
LINE
  5
2C43
100
AcDbEntity
  8
0
100
AcDbLine
 10
1309.668981
 20
389.706982
 30
0.0
 11
1310.615981
 21
388.759982
 31
0.0
  0
LINE
  5
2C44
100
AcDbEntity
  8
0
100
AcDbLine
 10
1309.668981
 20
391.759982
 30
0.0
 11
1309.668981
 21
389.706982
 31
0.0
  0
LINE
  5
2C45
100
AcDbEntity
  8
0
100
AcDbLine
 10
1310.615981
 20
388.759982
 30
0.0
 11
1320.721981
 21
388.759982
 31
0.0
  0
LINE
  5
2C46
100
AcDbEntity
  8
0
100
AcDbLine
 10
1321.668981
 20
389.706982
 30
0.0
 11
1309.668981
 21
389.706982
 31
0.0
  0
ARC
  5
2C47
100
AcDbEntity
  8
0
100
AcDbCircle
 10
1307.441981
 20
431.360186
 30
0.0
 40
5.176327
100
AcDbArc
 50
58.000464
 51
121.999536
  0
LINE
  5
2C48
100
AcDbEntity
  8
0
100
AcDbLine
 10
1301.486911
 20
410.759982
 30
0.0
 11
1301.486911
 21
428.759982
 31
0.0
  0
LINE
  5
2C49
100
AcDbEntity
  8
0
100
AcDbLine
 10
1304.698981
 20
428.759982
 30
0.0
 11
1304.698981
 21
435.749982
 31
0.0
  0
LINE
  5
2C4A
100
AcDbEntity
  8
0
100
AcDbLine
 10
1321.668981
 20
409.759982
 30
0.0
 11
1321.668981
 21
410.759982
 31
0.0
  0
LINE
  5
2C4B
100
AcDbEntity
  8
0
100
AcDbLine
 10
1313.086911
 20
410.759982
 30
0.0
 11
1313.086911
 21
409.759982
 31
0.0
  0
LINE
  5
2C4C
100
AcDbEntity
  8
0
100
AcDbLine
 10
1309.668981
 20
410.759982
 30
0.0
 11
1309.668981
 21
409.759982
 31
0.0
  0
ARC
  5
2C4D
100
AcDbEntity
  8
0
100
AcDbCircle
 10
1323.895981
 20
431.360186
 30
0.0
 40
5.176327
100
AcDbArc
 50
58.000464
 51
121.999536
  0
ARC
  5
2C4E
100
AcDbEntity
  8
0
100
AcDbCircle
 10
1315.668981
 20
417.020213
 30
0.0
 40
19.516109
100
AcDbArc
 50
73.680185
 51
106.319815
  0
LINE
  5
2C4F
100
AcDbEntity
  8
0
100
AcDbLine
 10
1310.184981
 20
435.749982
 30
0.0
 11
1310.184981
 21
428.759982
 31
0.0
  0
LINE
  5
2C50
100
AcDbEntity
  8
0
100
AcDbLine
 10
1321.152981
 20
435.749982
 30
0.0
 11
1321.152981
 21
428.759982
 31
0.0
  0
LINE
  5
2C51
100
AcDbEntity
  8
0
100
AcDbLine
 10
1326.638981
 20
435.749982
 30
0.0
 11
1326.638981
 21
428.759982
 31
0.0
  0
LINE
  5
2C52
100
AcDbEntity
  8
0
100
AcDbLine
 10
1388.486911
 20
407.059982
 30
0.0
 11
1388.486911
 21
394.459982
 31
0.0
  0
LINE
  5
2C53
100
AcDbEntity
  8
0
100
AcDbLine
 10
1374.486911
 20
407.059982
 30
0.0
 11
1374.486911
 21
394.459982
 31
0.0
  0
LINE
  5
2C54
100
AcDbEntity
  8
0
100
AcDbLine
 10
1376.473869
 20
373.659982
 30
0.0
 11
1370.510671
 21
389.859982
 31
0.0
  0
LINE
  5
2C55
100
AcDbEntity
  8
0
100
AcDbLine
 10
1386.499954
 20
373.659982
 30
0.0
 11
1392.463151
 21
389.859982
 31
0.0
  0
LINE
  5
2C56
100
AcDbEntity
  8
0
100
AcDbLine
 10
1375.486911
 20
389.706982
 30
0.0
 11
1387.486911
 21
389.706982
 31
0.0
  0
LINE
  5
2C57
100
AcDbEntity
  8
0
100
AcDbLine
 10
1386.539911
 20
388.759982
 30
0.0
 11
1376.433911
 21
388.759982
 31
0.0
  0
LINE
  5
2C58
100
AcDbEntity
  8
0
100
AcDbLine
 10
1376.433911
 20
388.759982
 30
0.0
 11
1375.486911
 21
389.706982
 31
0.0
  0
LINE
  5
2C59
100
AcDbEntity
  8
0
100
AcDbLine
 10
1375.486911
 20
389.706982
 30
0.0
 11
1375.486911
 21
391.759982
 31
0.0
  0
LINE
  5
2C5A
100
AcDbEntity
  8
0
100
AcDbLine
 10
1387.486911
 20
389.706982
 30
0.0
 11
1386.539911
 21
388.759982
 31
0.0
  0
LINE
  5
2C5B
100
AcDbEntity
  8
0
100
AcDbLine
 10
1387.486911
 20
391.759982
 30
0.0
 11
1387.486911
 21
389.706982
 31
0.0
  0
LINE
  5
2C5C
100
AcDbEntity
  8
0
100
AcDbLine
 10
1388.486911
 20
426.059982
 30
0.0
 11
1388.486911
 21
413.459982
 31
0.0
  0
LINE
  5
2C5D
100
AcDbEntity
  8
0
100
AcDbLine
 10
1374.486911
 20
426.059982
 30
0.0
 11
1374.486911
 21
413.459982
 31
0.0
  0
LINE
  5
2C5E
100
AcDbEntity
  8
0
100
AcDbLine
 10
1375.486911
 20
409.759982
 30
0.0
 11
1375.486911
 21
410.759982
 31
0.0
  0
LINE
  5
2C5F
100
AcDbEntity
  8
0
100
AcDbLine
 10
1387.486911
 20
410.759982
 30
0.0
 11
1387.486911
 21
409.759982
 31
0.0
  0
ARC
  5
2C60
100
AcDbEntity
  8
0
100
AcDbCircle
 10
1381.486911
 20
417.020213
 30
0.0
 40
19.516109
100
AcDbArc
 50
73.680185
 51
106.319815
  0
LINE
  5
2C61
100
AcDbEntity
  8
0
100
AcDbLine
 10
1370.516911
 20
428.759982
 30
0.0
 11
1392.456911
 21
428.759982
 31
0.0
  0
ARC
  5
2C62
100
AcDbEntity
  8
0
100
AcDbCircle
 10
1373.259911
 20
431.360186
 30
0.0
 40
5.176327
100
AcDbArc
 50
58.000464
 51
121.999536
  0
LINE
  5
2C63
100
AcDbEntity
  8
0
100
AcDbLine
 10
1370.516911
 20
435.749982
 30
0.0
 11
1370.516911
 21
428.759982
 31
0.0
  0
LINE
  5
2C64
100
AcDbEntity
  8
0
100
AcDbLine
 10
1376.002911
 20
435.749982
 30
0.0
 11
1376.002911
 21
428.759982
 31
0.0
  0
LINE
  5
2C65
100
AcDbEntity
  8
0
100
AcDbLine
 10
1392.456911
 20
428.759982
 30
0.0
 11
1392.456911
 21
435.749982
 31
0.0
  0
LINE
  5
2C66
100
AcDbEntity
  8
0
100
AcDbLine
 10
1386.970911
 20
435.749982
 30
0.0
 11
1386.970911
 21
428.759982
 31
0.0
  0
ARC
  5
2C67
100
AcDbEntity
  8
0
100
AcDbCircle
 10
1389.713911
 20
431.360186
 30
0.0
 40
5.176327
100
AcDbArc
 50
58.000464
 51
121.999536
  0
LINE
  5
2C68
100
AcDbEntity
  8
0
100
AcDbLine
 10
1449.986911
 20
371.759982
 30
0.0
 11
1449.986911
 21
326.759982
 31
0.0
  0
ARC
  5
2C69
100
AcDbEntity
  8
0
100
AcDbCircle
 10
1413.045024
 20
277.413586
 30
0.0
 40
5.0
100
AcDbArc
 50
99.274364
 51
180.0
  0
ARC
  5
2C6A
100
AcDbEntity
  8
0
100
AcDbCircle
 10
1455.531842
 20
431.360186
 30
0.0
 40
5.176327
100
AcDbArc
 50
58.000464
 51
121.999536
  0
ARC
  5
2C6B
100
AcDbEntity
  8
0
100
AcDbCircle
 10
1456.446323
 20
388.759982
 30
0.0
 40
3.0
100
AcDbArc
 50
90.0
 51
168.690068
  0
LINE
  5
2C6C
100
AcDbEntity
  8
0
100
AcDbLine
 10
1436.334842
 20
428.759982
 30
0.0
 11
1458.274842
 21
428.759982
 31
0.0
  0
LINE
  5
2C6D
100
AcDbEntity
  8
0
100
AcDbLine
 10
1449.986911
 20
371.759982
 30
0.0
 11
1453.504581
 21
389.348331
 31
0.0
  0
LINE
  5
2C6E
100
AcDbEntity
  8
0
100
AcDbLine
 10
1441.161418
 20
373.518817
 30
0.0
 11
1444.209651
 21
388.759982
 31
0.0
  0
LINE
  5
2C6F
100
AcDbEntity
  8
0
100
AcDbLine
 10
1453.304842
 20
391.759982
 30
0.0
 11
1453.304842
 21
389.706982
 31
0.0
  0
LINE
  5
2C70
100
AcDbEntity
  8
0
100
AcDbLine
 10
1453.304842
 20
389.706982
 30
0.0
 11
1452.357842
 21
388.759982
 31
0.0
  0
LINE
  5
2C71
100
AcDbEntity
  8
0
100
AcDbLine
 10
1440.809651
 20
388.185344
 30
0.0
 11
1440.809651
 21
376.107028
 31
0.0
  0
LINE
  5
2C72
100
AcDbEntity
  8
0
100
AcDbLine
 10
1442.251842
 20
388.759982
 30
0.0
 11
1441.304842
 21
389.706982
 31
0.0
  0
LINE
  5
2C73
100
AcDbEntity
  8
0
100
AcDbLine
 10
1441.304842
 20
389.706982
 30
0.0
 11
1441.304842
 21
391.759982
 31
0.0
  0
LINE
  5
2C74
100
AcDbEntity
  8
0
100
AcDbLine
 10
1452.357842
 20
388.759982
 30
0.0
 11
1442.251842
 21
388.759982
 31
0.0
  0
LINE
  5
2C75
100
AcDbEntity
  8
0
100
AcDbLine
 10
1441.304842
 20
389.706982
 30
0.0
 11
1453.304842
 21
389.706982
 31
0.0
  0
LINE
  5
2C76
100
AcDbEntity
  8
0
100
AcDbLine
 10
1453.304842
 20
410.759982
 30
0.0
 11
1453.304842
 21
409.759982
 31
0.0
  0
LINE
  5
2C77
100
AcDbEntity
  8
0
100
AcDbLine
 10
1441.304842
 20
409.759982
 30
0.0
 11
1441.304842
 21
410.759982
 31
0.0
  0
ARC
  5
2C78
100
AcDbEntity
  8
0
100
AcDbCircle
 10
1439.077842
 20
431.360186
 30
0.0
 40
5.176327
100
AcDbArc
 50
58.000464
 51
121.999536
  0
LINE
  5
2C79
100
AcDbEntity
  8
0
100
AcDbLine
 10
1436.334842
 20
435.749982
 30
0.0
 11
1436.334842
 21
428.759982
 31
0.0
  0
LINE
  5
2C7A
100
AcDbEntity
  8
0
100
AcDbLine
 10
1452.788842
 20
435.749982
 30
0.0
 11
1452.788842
 21
428.759982
 31
0.0
  0
LINE
  5
2C7B
100
AcDbEntity
  8
0
100
AcDbLine
 10
1441.820842
 20
435.749982
 30
0.0
 11
1441.820842
 21
428.759982
 31
0.0
  0
ARC
  5
2C7C
100
AcDbEntity
  8
0
100
AcDbCircle
 10
1447.304842
 20
417.020213
 30
0.0
 40
19.516109
100
AcDbArc
 50
73.680185
 51
106.319815
  0
LINE
  5
2C7D
100
AcDbEntity
  8
0
100
AcDbLine
 10
1461.486911
 20
409.759982
 30
0.0
 11
1461.486911
 21
391.759982
 31
0.0
  0
LINE
  5
2C7E
100
AcDbEntity
  8
0
100
AcDbLine
 10
1490.37777
 20
409.759982
 30
0.0
 11
1490.37777
 21
391.759982
 31
0.0
  0
LINE
  5
2C7F
100
AcDbEntity
  8
0
100
AcDbLine
 10
1510.495024
 20
391.759982
 30
0.0
 11
1510.495024
 21
389.706982
 31
0.0
  0
LINE
  5
2C80
100
AcDbEntity
  8
0
100
AcDbLine
 10
1510.495024
 20
389.706982
 30
0.0
 11
1509.548024
 21
388.759982
 31
0.0
  0
LINE
  5
2C81
100
AcDbEntity
  8
0
100
AcDbLine
 10
1498.495024
 20
389.706982
 30
0.0
 11
1498.495024
 21
391.759982
 31
0.0
  0
LINE
  5
2C82
100
AcDbEntity
  8
0
100
AcDbLine
 10
1499.442024
 20
388.759982
 30
0.0
 11
1498.495024
 21
389.706982
 31
0.0
  0
LINE
  5
2C83
100
AcDbEntity
  8
0
100
AcDbLine
 10
1509.548024
 20
388.759982
 30
0.0
 11
1499.442024
 21
388.759982
 31
0.0
  0
LINE
  5
2C84
100
AcDbEntity
  8
0
100
AcDbLine
 10
1498.495024
 20
389.706982
 30
0.0
 11
1510.495024
 21
389.706982
 31
0.0
  0
LINE
  5
2C85
100
AcDbEntity
  8
0
100
AcDbLine
 10
1461.486911
 20
410.759982
 30
0.0
 11
1461.486911
 21
428.759982
 31
0.0
  0
LINE
  5
2C86
100
AcDbEntity
  8
0
100
AcDbLine
 10
1458.274842
 20
428.759982
 30
0.0
 11
1458.274842
 21
435.749982
 31
0.0
  0
LINE
  5
2C87
100
AcDbEntity
  8
0
100
AcDbLine
 10
1490.37777
 20
410.759982
 30
0.0
 11
1490.37777
 21
428.759982
 31
0.0
  0
LINE
  5
2C88
100
AcDbEntity
  8
0
100
AcDbLine
 10
1510.495024
 20
410.759982
 30
0.0
 11
1510.495024
 21
409.759982
 31
0.0
  0
LINE
  5
2C89
100
AcDbEntity
  8
0
100
AcDbLine
 10
1498.495024
 20
409.759982
 30
0.0
 11
1498.495024
 21
410.759982
 31
0.0
  0
LINE
  5
2C8A
100
AcDbEntity
  8
0
100
AcDbLine
 10
1494.994875
 20
435.749982
 30
0.0
 11
1494.994875
 21
428.759982
 31
0.0
  0
LINE
  5
2C8B
100
AcDbEntity
  8
0
100
AcDbLine
 10
1504.495024
 20
435.749982
 30
0.0
 11
1504.495024
 21
428.759982
 31
0.0
  0
LINE
  5
2C8C
100
AcDbEntity
  8
0
100
AcDbLine
 10
1388.486911
 20
506.009919
 30
0.0
 11
1454.486911
 21
544.115037
 31
0.0
  0
ARC
  5
2C8D
100
AcDbEntity
  8
0
100
AcDbCircle
 10
1398.986911
 20
447.2074
 30
0.0
 40
5.0
100
AcDbArc
 50
180.0
 51
262.323034
  0
LINE
  5
2C8E
100
AcDbEntity
  8
0
100
AcDbLine
 10
1370.58807
 20
518.383748
 30
0.0
 11
1376.072811
 21
527.883897
 31
0.0
  0
LINE
  5
2C8F
100
AcDbEntity
  8
0
100
AcDbLine
 10
1374.486911
 20
506.009919
 30
0.0
 11
1308.486911
 21
544.115037
 31
0.0
  0
LINE
  5
2C90
100
AcDbEntity
  8
0
100
AcDbLine
 10
1387.042552
 20
527.883748
 30
0.0
 11
1392.527552
 21
518.383449
 31
0.0
  0
CIRCLE
  5
2C91
100
AcDbEntity
  8
0
100
AcDbCircle
 10
1381.557811
 20
518.383598
 30
0.0
 40
9.22053
  0
LINE
  5
2C92
100
AcDbEntity
  8
0
100
AcDbLine
 10
1306.447981
 20
436.759982
 30
0.0
 11
1324.889981
 21
436.759982
 31
0.0
  0
ARC
  5
2C93
100
AcDbEntity
  8
0
100
AcDbCircle
 10
1363.986911
 20
447.2074
 30
0.0
 40
5.0
100
AcDbArc
 50
277.676966
 51
0.0
  0
LINE
  5
2C94
100
AcDbEntity
  8
0
100
AcDbLine
 10
1369.986911
 20
455.759982
 30
0.0
 11
1381.486911
 21
455.759982
 31
0.0
  0
ARC
  5
2C95
100
AcDbEntity
  8
0
100
AcDbCircle
 10
1381.486911
 20
317.381555
 30
0.0
 40
126.0
100
AcDbArc
 50
84.30653
 51
95.69347
  0
LINE
  5
2C96
100
AcDbEntity
  8
0
100
AcDbLine
 10
1390.707911
 20
436.759982
 30
0.0
 11
1372.265911
 21
436.759982
 31
0.0
  0
LINE
  5
2C97
100
AcDbEntity
  8
0
100
AcDbLine
 10
1369.986911
 20
455.759982
 30
0.0
 11
1368.986911
 21
454.759982
 31
0.0
  0
LINE
  5
2C98
100
AcDbEntity
  8
0
100
AcDbLine
 10
1368.986911
 20
447.2074
 30
0.0
 11
1368.986911
 21
454.759982
 31
0.0
  0
LINE
  5
2C99
100
AcDbEntity
  8
0
100
AcDbLine
 10
1393.986911
 20
454.759982
 30
0.0
 11
1392.986911
 21
455.759982
 31
0.0
  0
LINE
  5
2C9A
100
AcDbEntity
  8
0
100
AcDbLine
 10
1393.986911
 20
447.2074
 30
0.0
 11
1393.986911
 21
454.759982
 31
0.0
  0
LINE
  5
2C9B
100
AcDbEntity
  8
0
100
AcDbLine
 10
1381.486911
 20
455.759982
 30
0.0
 11
1392.986911
 21
455.759982
 31
0.0
  0
LINE
  5
2C9C
100
AcDbEntity
  8
0
100
AcDbLine
 10
1387.042811
 20
508.8833
 30
0.0
 11
1376.07307
 21
508.883449
 31
0.0
  0
ARC
  5
2C9D
100
AcDbEntity
  8
0
100
AcDbCircle
 10
1381.486911
 20
518.134275
 30
0.0
 40
14.0
100
AcDbArc
 50
240.0
 51
300.0
  0
LINE
  5
2C9E
100
AcDbEntity
  8
0
100
AcDbLine
 10
1376.07307
 20
508.883449
 30
0.0
 11
1370.58807
 21
518.383748
 31
0.0
  0
LINE
  5
2C9F
100
AcDbEntity
  8
0
100
AcDbLine
 10
1392.527552
 20
518.383449
 30
0.0
 11
1387.042811
 21
508.8833
 31
0.0
  0
CIRCLE
  5
2CA0
100
AcDbEntity
  8
0
100
AcDbCircle
 10
1315.738282
 20
556.302653
 30
0.0
 40
9.22053
  0
LINE
  5
2CA1
100
AcDbEntity
  8
0
100
AcDbLine
 10
1304.768541
 20
556.302504
 30
0.0
 11
1310.253541
 21
565.802803
 31
0.0
  0
LINE
  5
2CA2
100
AcDbEntity
  8
0
100
AcDbLine
 10
1321.223282
 20
565.802952
 30
0.0
 11
1326.708023
 21
556.302803
 31
0.0
  0
LINE
  5
2CA3
100
AcDbEntity
  8
0
100
AcDbLine
 10
1310.253282
 20
546.802355
 30
0.0
 11
1304.768541
 21
556.302504
 31
0.0
  0
ARC
  5
2CA4
100
AcDbEntity
  8
0
100
AcDbCircle
 10
1315.486911
 20
556.239392
 30
0.0
 40
14.0
100
AcDbArc
 50
180.0
 51
240.0
  0
LINE
  5
2CA5
100
AcDbEntity
  8
0
100
AcDbLine
 10
1326.708023
 20
556.302803
 30
0.0
 11
1321.223023
 21
546.802504
 31
0.0
  0
LINE
  5
2CA6
100
AcDbEntity
  8
0
100
AcDbLine
 10
1321.223023
 20
546.802504
 30
0.0
 11
1310.253282
 21
546.802355
 31
0.0
  0
LINE
  5
2CA7
100
AcDbEntity
  8
0
100
AcDbLine
 10
1310.253541
 20
565.802803
 30
0.0
 11
1321.223282
 21
565.802952
 31
0.0
  0
LINE
  5
2CA8
100
AcDbEntity
  8
0
100
AcDbLine
 10
1376.072811
 20
527.883897
 30
0.0
 11
1387.042552
 21
527.883748
 31
0.0
  0
LINE
  5
2CA9
100
AcDbEntity
  8
0
100
AcDbLine
 10
1456.525842
 20
436.759982
 30
0.0
 11
1438.083842
 21
436.759982
 31
0.0
  0
LINE
  5
2CAA
100
AcDbEntity
  8
0
100
AcDbLine
 10
1458.27644
 20
556.425455
 30
0.0
 11
1452.79144
 21
546.925455
 31
0.0
  0
LINE
  5
2CAB
100
AcDbEntity
  8
0
100
AcDbLine
 10
1452.79144
 20
565.925455
 30
0.0
 11
1458.27644
 21
556.425455
 31
0.0
  0
CIRCLE
  5
2CAC
100
AcDbEntity
  8
0
100
AcDbCircle
 10
1447.30644
 20
556.425455
 30
0.0
 40
9.22053
  0
LINE
  5
2CAD
100
AcDbEntity
  8
0
100
AcDbLine
 10
1436.33644
 20
556.425455
 30
0.0
 11
1441.82144
 21
565.925455
 31
0.0
  0
LINE
  5
2CAE
100
AcDbEntity
  8
0
100
AcDbLine
 10
1441.82144
 20
546.925455
 30
0.0
 11
1436.33644
 21
556.425455
 31
0.0
  0
LINE
  5
2CAF
100
AcDbEntity
  8
0
100
AcDbLine
 10
1452.79144
 20
546.925455
 30
0.0
 11
1441.82144
 21
546.925455
 31
0.0
  0
LINE
  5
2CB0
100
AcDbEntity
  8
0
100
AcDbLine
 10
1441.82144
 20
565.925455
 30
0.0
 11
1452.79144
 21
565.925455
 31
0.0
  0
ARC
  5
2CB1
100
AcDbEntity
  8
0
100
AcDbCircle
 10
1447.486911
 20
556.239392
 30
0.0
 40
14.0
100
AcDbArc
 50
300.0
 51
0.0
  0
LINE
  5
2CB2
100
AcDbEntity
  8
0
100
AcDbLine
 10
1580.456085
 20
268.102935
 30
0.0
 11
1580.456085
 21
279.613871
 31
0.0
  0
LINE
  5
2CB3
100
AcDbEntity
  8
0
100
AcDbLine
 10
1603.456085
 20
268.102935
 30
0.0
 11
1603.456085
 21
276.962894
 31
0.0
  0
LINE
  5
2CB4
100
AcDbEntity
  8
0
100
AcDbLine
 10
1557.456085
 20
268.102935
 30
0.0
 11
1557.456085
 21
276.962894
 31
0.0
  0
LINE
  5
2CB5
100
AcDbEntity
  8
0
100
AcDbLine
 10
1580.456085
 20
265.759982
 30
0.0
 11
1557.956085
 21
265.759982
 31
0.0
  0
ARC
  5
2CB6
100
AcDbEntity
  8
0
100
AcDbCircle
 10
1568.956085
 20
295.154398
 30
0.0
 40
29.394415
100
AcDbArc
 50
246.968896
 51
293.031104
  0
LINE
  5
2CB7
100
AcDbEntity
  8
0
100
AcDbLine
 10
1557.956085
 20
265.759982
 30
0.0
 11
1557.456085
 21
268.102935
 31
0.0
  0
LINE
  5
2CB8
100
AcDbEntity
  8
0
100
AcDbLine
 10
1580.456085
 20
265.759982
 30
0.0
 11
1602.956085
 21
265.759982
 31
0.0
  0
ARC
  5
2CB9
100
AcDbEntity
  8
0
100
AcDbCircle
 10
1591.956085
 20
295.154398
 30
0.0
 40
29.394415
100
AcDbArc
 50
246.968896
 51
293.031104
  0
LINE
  5
2CBA
100
AcDbEntity
  8
0
100
AcDbLine
 10
1602.956085
 20
265.759982
 30
0.0
 11
1603.456085
 21
268.102935
 31
0.0
  0
ARC
  5
2CBB
100
AcDbEntity
  8
0
100
AcDbCircle
 10
1661.166997
 20
425.084726
 30
0.0
 40
11.675257
100
AcDbArc
 50
65.992508
 51
114.007492
  0
LINE
  5
2CBC
100
AcDbEntity
  8
0
100
AcDbLine
 10
1665.917146
 20
435.749982
 30
0.0
 11
1665.637847
 21
436.759982
 31
0.0
  0
LINE
  5
2CBD
100
AcDbEntity
  8
0
100
AcDbLine
 10
1647.195847
 20
436.759982
 30
0.0
 11
1646.916698
 21
435.749982
 31
0.0
  0
LINE
  5
2CBE
100
AcDbEntity
  8
0
100
AcDbLine
 10
1627.99824
 20
435.749982
 30
0.0
 11
1627.718942
 21
436.759982
 31
0.0
  0
ARC
  5
2CBF
100
AcDbEntity
  8
0
100
AcDbCircle
 10
1651.666773
 20
425.085077
 30
0.0
 40
11.674906
100
AcDbArc
 50
65.992142
 51
114.007858
  0
ARC
  5
2CC0
100
AcDbEntity
  8
0
100
AcDbCircle
 10
1613.747867
 20
425.085077
 30
0.0
 40
11.674906
100
AcDbArc
 50
65.992142
 51
114.007858
  0
LINE
  5
2CC1
100
AcDbEntity
  8
0
100
AcDbLine
 10
1609.276942
 20
436.759982
 30
0.0
 11
1608.997792
 21
435.749982
 31
0.0
  0
LINE
  5
2CC2
100
AcDbEntity
  8
0
100
AcDbLine
 10
1552.037478
 20
435.749982
 30
0.0
 11
1551.758179
 21
436.759982
 31
0.0
  0
ARC
  5
2CC3
100
AcDbEntity
  8
0
100
AcDbCircle
 10
1547.287329
 20
425.084726
 30
0.0
 40
11.675257
100
AcDbArc
 50
65.992508
 51
114.007492
  0
LINE
  5
2CC4
100
AcDbEntity
  8
0
100
AcDbLine
 10
1533.316179
 20
436.759982
 30
0.0
 11
1533.03703
 21
435.749982
 31
0.0
  0
LINE
  5
2CC5
100
AcDbEntity
  8
0
100
AcDbLine
 10
1513.995323
 20
435.749982
 30
0.0
 11
1513.716024
 21
436.759982
 31
0.0
  0
ARC
  5
2CC6
100
AcDbEntity
  8
0
100
AcDbCircle
 10
1537.787105
 20
425.085077
 30
0.0
 40
11.674906
100
AcDbArc
 50
65.992142
 51
114.007858
  0
ARC
  5
2CC7
100
AcDbEntity
  8
0
100
AcDbCircle
 10
1623.248091
 20
425.084726
 30
0.0
 40
11.675257
100
AcDbArc
 50
65.992508
 51
114.007492
  0
ARC
  5
2CC8
100
AcDbEntity
  8
0
100
AcDbCircle
 10
1603.956085
 20
326.759982
 30
0.0
 40
45.0
100
AcDbArc
 50
275.163607
 51
0.0
  0
LINE
  5
2CC9
100
AcDbEntity
  8
0
100
AcDbLine
 10
1640.736085
 20
371.759982
 30
0.0
 11
1520.176085
 21
371.759982
 31
0.0
  0
LINE
  5
2CCA
100
AcDbEntity
  8
0
100
AcDbLine
 10
1511.956085
 20
371.759982
 30
0.0
 11
1511.956085
 21
326.759982
 31
0.0
  0
ARC
  5
2CCB
100
AcDbEntity
  8
0
100
AcDbCircle
 10
1568.296908
 20
303.257944
 30
0.0
 40
24.252927
100
AcDbArc
 50
244.400198
 51
295.599802
  0
ARC
  5
2CCC
100
AcDbEntity
  8
0
100
AcDbCircle
 10
1552.456085
 20
276.962894
 30
0.0
 40
5.0
100
AcDbArc
 50
0.0
 51
84.836393
  0
ARC
  5
2CCD
100
AcDbEntity
  8
0
100
AcDbCircle
 10
1592.388147
 20
303.547265
 30
0.0
 40
24.464706
100
AcDbArc
 50
244.263801
 51
295.736199
  0
ARC
  5
2CCE
100
AcDbEntity
  8
0
100
AcDbCircle
 10
1608.456085
 20
276.962894
 30
0.0
 40
5.0
100
AcDbArc
 50
95.163607
 51
180.0
  0
LINE
  5
2CCF
100
AcDbEntity
  8
0
100
AcDbLine
 10
1530.226612
 20
407.059982
 30
0.0
 11
1530.226612
 21
394.459982
 31
0.0
  0
LINE
  5
2CD0
100
AcDbEntity
  8
0
100
AcDbLine
 10
1542.350967
 20
407.059982
 30
0.0
 11
1542.350967
 21
394.459982
 31
0.0
  0
LINE
  5
2CD1
100
AcDbEntity
  8
0
100
AcDbLine
 10
1547.590179
 20
388.759982
 30
0.0
 11
1537.484179
 21
388.759982
 31
0.0
  0
LINE
  5
2CD2
100
AcDbEntity
  8
0
100
AcDbLine
 10
1536.537179
 20
389.706982
 30
0.0
 11
1548.537179
 21
389.706982
 31
0.0
  0
LINE
  5
2CD3
100
AcDbEntity
  8
0
100
AcDbLine
 10
1538.085263
 20
373.518817
 30
0.0
 11
1535.03703
 21
388.759982
 31
0.0
  0
LINE
  5
2CD4
100
AcDbEntity
  8
0
100
AcDbLine
 10
1536.537179
 20
389.706982
 30
0.0
 11
1536.537179
 21
391.759982
 31
0.0
  0
LINE
  5
2CD5
100
AcDbEntity
  8
0
100
AcDbLine
 10
1537.484179
 20
388.759982
 30
0.0
 11
1536.537179
 21
389.706982
 31
0.0
  0
LINE
  5
2CD6
100
AcDbEntity
  8
0
100
AcDbLine
 10
1546.988797
 20
373.518817
 30
0.0
 11
1550.03703
 21
388.759982
 31
0.0
  0
LINE
  5
2CD7
100
AcDbEntity
  8
0
100
AcDbLine
 10
1548.537179
 20
391.759982
 30
0.0
 11
1548.537179
 21
389.706982
 31
0.0
  0
LINE
  5
2CD8
100
AcDbEntity
  8
0
100
AcDbLine
 10
1548.537179
 20
389.706982
 30
0.0
 11
1547.590179
 21
388.759982
 31
0.0
  0
LINE
  5
2CD9
100
AcDbEntity
  8
0
100
AcDbLine
 10
1530.226612
 20
426.059982
 30
0.0
 11
1530.226612
 21
413.459982
 31
0.0
  0
LINE
  5
2CDA
100
AcDbEntity
  8
0
100
AcDbLine
 10
1536.537179
 20
409.759982
 30
0.0
 11
1536.537179
 21
410.759982
 31
0.0
  0
ARC
  5
2CDB
100
AcDbEntity
  8
0
100
AcDbCircle
 10
1580.456085
 20
317.381555
 30
0.0
 40
126.0
100
AcDbArc
 50
112.107263
 51
117.876709
  0
LINE
  5
2CDC
100
AcDbEntity
  8
0
100
AcDbLine
 10
1513.995323
 20
428.759982
 30
0.0
 11
1513.995323
 21
435.749982
 31
0.0
  0
LINE
  5
2CDD
100
AcDbEntity
  8
0
100
AcDbLine
 10
1533.03703
 20
435.749982
 30
0.0
 11
1533.03703
 21
428.759982
 31
0.0
  0
LINE
  5
2CDE
100
AcDbEntity
  8
0
100
AcDbLine
 10
1542.350967
 20
426.059982
 30
0.0
 11
1542.350967
 21
413.459982
 31
0.0
  0
LINE
  5
2CDF
100
AcDbEntity
  8
0
100
AcDbLine
 10
1548.537179
 20
410.759982
 30
0.0
 11
1548.537179
 21
409.759982
 31
0.0
  0
LINE
  5
2CE0
100
AcDbEntity
  8
0
100
AcDbLine
 10
1552.037478
 20
428.759982
 30
0.0
 11
1552.037478
 21
435.749982
 31
0.0
  0
LINE
  5
2CE1
100
AcDbEntity
  8
0
100
AcDbLine
 10
1542.537179
 20
435.749982
 30
0.0
 11
1542.537179
 21
428.759982
 31
0.0
  0
LINE
  5
2CE2
100
AcDbEntity
  8
0
100
AcDbLine
 10
1618.561203
 20
407.059982
 30
0.0
 11
1618.561203
 21
394.459982
 31
0.0
  0
LINE
  5
2CE3
100
AcDbEntity
  8
0
100
AcDbLine
 10
1614.046175
 20
373.518817
 30
0.0
 11
1610.997942
 21
388.759982
 31
0.0
  0
LINE
  5
2CE4
100
AcDbEntity
  8
0
100
AcDbLine
 10
1622.949709
 20
373.518817
 30
0.0
 11
1625.997942
 21
388.759982
 31
0.0
  0
LINE
  5
2CE5
100
AcDbEntity
  8
0
100
AcDbLine
 10
1613.444942
 20
388.759982
 30
0.0
 11
1612.497942
 21
389.706982
 31
0.0
  0
LINE
  5
2CE6
100
AcDbEntity
  8
0
100
AcDbLine
 10
1612.497942
 20
389.706982
 30
0.0
 11
1624.497942
 21
389.706982
 31
0.0
  0
LINE
  5
2CE7
100
AcDbEntity
  8
0
100
AcDbLine
 10
1612.497942
 20
389.706982
 30
0.0
 11
1612.497942
 21
391.759982
 31
0.0
  0
LINE
  5
2CE8
100
AcDbEntity
  8
0
100
AcDbLine
 10
1624.497942
 20
391.759982
 30
0.0
 11
1624.497942
 21
389.706982
 31
0.0
  0
LINE
  5
2CE9
100
AcDbEntity
  8
0
100
AcDbLine
 10
1623.550942
 20
388.759982
 30
0.0
 11
1613.444942
 21
388.759982
 31
0.0
  0
LINE
  5
2CEA
100
AcDbEntity
  8
0
100
AcDbLine
 10
1624.497942
 20
389.706982
 30
0.0
 11
1623.550942
 21
388.759982
 31
0.0
  0
LINE
  5
2CEB
100
AcDbEntity
  8
0
100
AcDbLine
 10
1618.561203
 20
426.059982
 30
0.0
 11
1618.561203
 21
413.459982
 31
0.0
  0
LINE
  5
2CEC
100
AcDbEntity
  8
0
100
AcDbLine
 10
1612.497942
 20
409.759982
 30
0.0
 11
1612.497942
 21
410.759982
 31
0.0
  0
LINE
  5
2CED
100
AcDbEntity
  8
0
100
AcDbLine
 10
1624.497942
 20
410.759982
 30
0.0
 11
1624.497942
 21
409.759982
 31
0.0
  0
LINE
  5
2CEE
100
AcDbEntity
  8
0
100
AcDbLine
 10
1608.997792
 20
435.749982
 30
0.0
 11
1608.997792
 21
428.759982
 31
0.0
  0
LINE
  5
2CEF
100
AcDbEntity
  8
0
100
AcDbLine
 10
1618.497942
 20
435.749982
 30
0.0
 11
1618.497942
 21
428.759982
 31
0.0
  0
LINE
  5
2CF0
100
AcDbEntity
  8
0
100
AcDbLine
 10
1648.956085
 20
371.759982
 30
0.0
 11
1648.956085
 21
326.759982
 31
0.0
  0
LINE
  5
2CF1
100
AcDbEntity
  8
0
100
AcDbLine
 10
1630.685558
 20
407.059982
 30
0.0
 11
1630.685558
 21
394.459982
 31
0.0
  0
LINE
  5
2CF2
100
AcDbEntity
  8
0
100
AcDbLine
 10
1670.666321
 20
409.759982
 30
0.0
 11
1670.666321
 21
391.759982
 31
0.0
  0
LINE
  5
2CF3
100
AcDbEntity
  8
0
100
AcDbLine
 10
1661.469847
 20
388.759982
 30
0.0
 11
1651.363847
 21
388.759982
 31
0.0
  0
LINE
  5
2CF4
100
AcDbEntity
  8
0
100
AcDbLine
 10
1650.416847
 20
389.706982
 30
0.0
 11
1662.416847
 21
389.706982
 31
0.0
  0
LINE
  5
2CF5
100
AcDbEntity
  8
0
100
AcDbLine
 10
1648.956085
 20
371.759982
 30
0.0
 11
1652.356085
 21
388.759982
 31
0.0
  0
LINE
  5
2CF6
100
AcDbEntity
  8
0
100
AcDbLine
 10
1650.416847
 20
389.706982
 30
0.0
 11
1650.416847
 21
391.759982
 31
0.0
  0
LINE
  5
2CF7
100
AcDbEntity
  8
0
100
AcDbLine
 10
1651.363847
 20
388.759982
 30
0.0
 11
1650.416847
 21
389.706982
 31
0.0
  0
LINE
  5
2CF8
100
AcDbEntity
  8
0
100
AcDbLine
 10
1662.416847
 20
391.759982
 30
0.0
 11
1662.416847
 21
389.706982
 31
0.0
  0
LINE
  5
2CF9
100
AcDbEntity
  8
0
100
AcDbLine
 10
1662.416847
 20
389.706982
 30
0.0
 11
1661.469847
 21
388.759982
 31
0.0
  0
LINE
  5
2CFA
100
AcDbEntity
  8
0
100
AcDbLine
 10
1630.685558
 20
426.059982
 30
0.0
 11
1630.685558
 21
413.459982
 31
0.0
  0
LINE
  5
2CFB
100
AcDbEntity
  8
0
100
AcDbLine
 10
1650.416847
 20
409.759982
 30
0.0
 11
1650.416847
 21
410.759982
 31
0.0
  0
ARC
  5
2CFC
100
AcDbEntity
  8
0
100
AcDbCircle
 10
1580.456085
 20
317.381555
 30
0.0
 40
126.0
100
AcDbArc
 50
62.123291
 51
67.832305
  0
LINE
  5
2CFD
100
AcDbEntity
  8
0
100
AcDbLine
 10
1627.99824
 20
428.759982
 30
0.0
 11
1627.99824
 21
435.749982
 31
0.0
  0
LINE
  5
2CFE
100
AcDbEntity
  8
0
100
AcDbLine
 10
1656.416847
 20
435.749982
 30
0.0
 11
1656.416847
 21
428.759982
 31
0.0
  0
LINE
  5
2CFF
100
AcDbEntity
  8
0
100
AcDbLine
 10
1646.916698
 20
435.749982
 30
0.0
 11
1646.916698
 21
428.759982
 31
0.0
  0
LINE
  5
2D00
100
AcDbEntity
  8
0
100
AcDbLine
 10
1670.666321
 20
410.759982
 30
0.0
 11
1670.666321
 21
428.759982
 31
0.0
  0
LINE
  5
2D01
100
AcDbEntity
  8
0
100
AcDbLine
 10
1662.416847
 20
410.759982
 30
0.0
 11
1662.416847
 21
409.759982
 31
0.0
  0
LINE
  5
2D02
100
AcDbEntity
  8
0
100
AcDbLine
 10
1665.917146
 20
428.759982
 30
0.0
 11
1665.917146
 21
435.749982
 31
0.0
  0
ARC
  5
2D03
100
AcDbEntity
  8
0
100
AcDbCircle
 10
1580.456085
 20
317.381555
 30
0.0
 40
126.0
100
AcDbArc
 50
84.30653
 51
95.69347
  0
LINE
  5
2D04
100
AcDbEntity
  8
0
100
AcDbLine
 10
1568.956085
 20
455.759982
 30
0.0
 11
1580.456085
 21
455.759982
 31
0.0
  0
ARC
  5
2D05
100
AcDbEntity
  8
0
100
AcDbCircle
 10
1580.456085
 20
317.381555
 30
0.0
 40
126.0
100
AcDbArc
 50
97.676966
 51
108.6575
  0
LINE
  5
2D06
100
AcDbEntity
  8
0
100
AcDbLine
 10
1551.758179
 20
436.759982
 30
0.0
 11
1533.316179
 21
436.759982
 31
0.0
  0
LINE
  5
2D07
100
AcDbEntity
  8
0
100
AcDbLine
 10
1567.956085
 20
447.2074
 30
0.0
 11
1567.956085
 21
454.759982
 31
0.0
  0
LINE
  5
2D08
100
AcDbEntity
  8
0
100
AcDbLine
 10
1568.956085
 20
455.759982
 30
0.0
 11
1567.956085
 21
454.759982
 31
0.0
  0
ARC
  5
2D09
100
AcDbEntity
  8
0
100
AcDbCircle
 10
1562.956085
 20
447.2074
 30
0.0
 40
5.0
100
AcDbArc
 50
277.676966
 51
0.0
  0
ARC
  5
2D0A
100
AcDbEntity
  8
0
100
AcDbCircle
 10
1580.456085
 20
317.381555
 30
0.0
 40
126.0
100
AcDbArc
 50
71.3425
 51
82.323034
  0
LINE
  5
2D0B
100
AcDbEntity
  8
0
100
AcDbLine
 10
1580.456085
 20
455.759982
 30
0.0
 11
1591.956085
 21
455.759982
 31
0.0
  0
LINE
  5
2D0C
100
AcDbEntity
  8
0
100
AcDbLine
 10
1592.956085
 20
447.2074
 30
0.0
 11
1592.956085
 21
454.759982
 31
0.0
  0
LINE
  5
2D0D
100
AcDbEntity
  8
0
100
AcDbLine
 10
1592.956085
 20
454.759982
 30
0.0
 11
1591.956085
 21
455.759982
 31
0.0
  0
ARC
  5
2D0E
100
AcDbEntity
  8
0
100
AcDbCircle
 10
1597.956085
 20
447.2074
 30
0.0
 40
5.0
100
AcDbArc
 50
180.0
 51
262.323034
  0
LINE
  5
2D0F
100
AcDbEntity
  8
0
100
AcDbLine
 10
1627.718942
 20
436.759982
 30
0.0
 11
1609.276942
 21
436.759982
 31
0.0
  0
LINE
  5
2D10
100
AcDbEntity
  8
0
100
AcDbLine
 10
1665.637847
 20
436.759982
 30
0.0
 11
1647.195847
 21
436.759982
 31
0.0
  0
ARC
  5
2D11
100
AcDbEntity
  8
0
100
AcDbCircle
 10
1404.986911
 20
789.97972
 30
0.0
 40
45.0
100
AcDbArc
 50
262.344561
 51
0.0
  0
ARC
  5
2D12
100
AcDbEntity
  8
0
100
AcDbCircle
 10
1357.986911
 20
789.97972
 30
0.0
 40
45.0
100
AcDbArc
 50
180.0
 51
277.655439
  0
ARC
  5
2D13
100
AcDbEntity
  8
0
100
AcDbCircle
 10
1401.405496
 20
739.558842
 30
0.0
 40
10.579123
100
AcDbArc
 50
231.126232
 51
291.126232
  0
LINE
  5
2D14
100
AcDbEntity
  8
0
100
AcDbLine
 10
1381.486911
 20
728.97972
 30
0.0
 11
1403.986911
 21
728.97972
 31
0.0
  0
LINE
  5
2D15
100
AcDbEntity
  8
0
100
AcDbLine
 10
1454.486911
 20
644.573984
 30
0.0
 11
1388.486911
 21
682.679101
 31
0.0
  0
ARC
  5
2D16
100
AcDbEntity
  8
0
100
AcDbCircle
 10
1381.486911
 20
670.554746
 30
0.0
 40
14.0
100
AcDbArc
 50
60.0
 51
120.0
  0
LINE
  5
2D17
100
AcDbEntity
  8
0
100
AcDbLine
 10
1308.486911
 20
644.573984
 30
0.0
 11
1374.486911
 21
682.679101
 31
0.0
  0
LINE
  5
2D18
100
AcDbEntity
  8
0
100
AcDbLine
 10
1321.152382
 20
641.763565
 30
0.0
 11
1326.637382
 21
632.263565
 31
0.0
  0
LINE
  5
2D19
100
AcDbEntity
  8
0
100
AcDbLine
 10
1304.697382
 20
632.263565
 30
0.0
 11
1310.182382
 21
641.763565
 31
0.0
  0
ARC
  5
2D1A
100
AcDbEntity
  8
0
100
AcDbCircle
 10
1315.486911
 20
632.449628
 30
0.0
 40
14.0
100
AcDbArc
 50
120.0
 51
180.0
  0
LINE
  5
2D1B
100
AcDbEntity
  8
0
100
AcDbLine
 10
1310.182382
 20
622.763565
 30
0.0
 11
1304.697382
 21
632.263565
 31
0.0
  0
CIRCLE
  5
2D1C
100
AcDbEntity
  8
0
100
AcDbCircle
 10
1315.667382
 20
632.263565
 30
0.0
 40
9.22053
  0
LINE
  5
2D1D
100
AcDbEntity
  8
0
100
AcDbLine
 10
1326.637382
 20
632.263565
 30
0.0
 11
1321.152382
 21
622.763565
 31
0.0
  0
LINE
  5
2D1E
100
AcDbEntity
  8
0
100
AcDbLine
 10
1321.152382
 20
622.763565
 30
0.0
 11
1310.182382
 21
622.763565
 31
0.0
  0
LINE
  5
2D1F
100
AcDbEntity
  8
0
100
AcDbLine
 10
1310.182382
 20
641.763565
 30
0.0
 11
1321.152382
 21
641.763565
 31
0.0
  0
LINE
  5
2D20
100
AcDbEntity
  8
0
100
AcDbLine
 10
1375.93127
 20
660.805272
 30
0.0
 11
1370.44627
 21
670.305571
 31
0.0
  0
LINE
  5
2D21
100
AcDbEntity
  8
0
100
AcDbLine
 10
1392.385753
 20
670.305272
 30
0.0
 11
1386.901012
 21
660.805123
 31
0.0
  0
CIRCLE
  5
2D22
100
AcDbEntity
  8
0
100
AcDbCircle
 10
1381.416012
 20
670.305422
 30
0.0
 40
9.22053
  0
LINE
  5
2D23
100
AcDbEntity
  8
0
100
AcDbLine
 10
1386.901012
 20
660.805123
 30
0.0
 11
1375.93127
 21
660.805272
 31
0.0
  0
LINE
  5
2D24
100
AcDbEntity
  8
0
100
AcDbLine
 10
1375.931012
 20
679.80572
 30
0.0
 11
1386.900753
 21
679.805571
 31
0.0
  0
LINE
  5
2D25
100
AcDbEntity
  8
0
100
AcDbLine
 10
1370.44627
 20
670.305571
 30
0.0
 11
1375.931012
 21
679.80572
 31
0.0
  0
LINE
  5
2D26
100
AcDbEntity
  8
0
100
AcDbLine
 10
1386.900753
 20
679.805571
 30
0.0
 11
1392.385753
 21
670.305272
 31
0.0
  0
ARC
  5
2D27
100
AcDbEntity
  8
0
100
AcDbCircle
 10
1361.568327
 20
739.558842
 30
0.0
 40
10.579123
100
AcDbArc
 50
248.873768
 51
308.873768
  0
LINE
  5
2D28
100
AcDbEntity
  8
0
100
AcDbLine
 10
1381.486911
 20
728.97972
 30
0.0
 11
1358.986911
 21
728.97972
 31
0.0
  0
ARC
  5
2D29
100
AcDbEntity
  8
0
100
AcDbCircle
 10
1349.928799
 20
740.633323
 30
0.0
 40
5.0
100
AcDbArc
 50
0.0
 51
80.725636
  0
LINE
  5
2D2A
100
AcDbEntity
  8
0
100
AcDbLine
 10
1358.986911
 20
728.97972
 30
0.0
 11
1354.928799
 21
731.322672
 31
0.0
  0
LINE
  5
2D2B
100
AcDbEntity
  8
0
100
AcDbLine
 10
1354.928799
 20
731.322672
 30
0.0
 11
1354.928799
 21
740.633323
 31
0.0
  0
ARC
  5
2D2C
100
AcDbEntity
  8
0
100
AcDbCircle
 10
1381.486911
 20
782.697597
 30
0.0
 40
38.802062
100
AcDbArc
 50
249.987477
 51
290.012523
  0
ARC
  5
2D2D
100
AcDbEntity
  8
0
100
AcDbCircle
 10
1381.486911
 20
767.781782
 30
0.0
 40
38.802062
100
AcDbArc
 50
249.987477
 51
290.012523
  0
LINE
  5
2D2E
100
AcDbEntity
  8
0
100
AcDbLine
 10
1368.207855
 20
731.322672
 30
0.0
 11
1368.207855
 21
742.833609
 31
0.0
  0
LINE
  5
2D2F
100
AcDbEntity
  8
0
100
AcDbLine
 10
1394.765967
 20
731.322672
 30
0.0
 11
1394.765967
 21
742.833609
 31
0.0
  0
LINE
  5
2D30
100
AcDbEntity
  8
0
100
AcDbLine
 10
1452.720541
 20
641.886665
 30
0.0
 11
1458.205282
 21
632.386516
 31
0.0
  0
LINE
  5
2D31
100
AcDbEntity
  8
0
100
AcDbLine
 10
1458.205282
 20
632.386516
 30
0.0
 11
1452.720282
 21
622.886217
 31
0.0
  0
CIRCLE
  5
2D32
100
AcDbEntity
  8
0
100
AcDbCircle
 10
1447.235541
 20
632.386367
 30
0.0
 40
9.22053
  0
LINE
  5
2D33
100
AcDbEntity
  8
0
100
AcDbLine
 10
1436.265799
 20
632.386217
 30
0.0
 11
1441.750799
 21
641.886516
 31
0.0
  0
LINE
  5
2D34
100
AcDbEntity
  8
0
100
AcDbLine
 10
1441.750541
 20
622.886068
 30
0.0
 11
1436.265799
 21
632.386217
 31
0.0
  0
LINE
  5
2D35
100
AcDbEntity
  8
0
100
AcDbLine
 10
1452.720282
 20
622.886217
 30
0.0
 11
1441.750541
 21
622.886068
 31
0.0
  0
LINE
  5
2D36
100
AcDbEntity
  8
0
100
AcDbLine
 10
1441.750799
 20
641.886516
 30
0.0
 11
1452.720541
 21
641.886665
 31
0.0
  0
ARC
  5
2D37
100
AcDbEntity
  8
0
100
AcDbCircle
 10
1447.486911
 20
632.449628
 30
0.0
 40
14.0
100
AcDbArc
 50
0.0
 51
60.0
  0
ARC
  5
2D38
100
AcDbEntity
  8
0
100
AcDbCircle
 10
1413.045024
 20
740.633323
 30
0.0
 40
5.0
100
AcDbArc
 50
99.274364
 51
180.0
  0
LINE
  5
2D39
100
AcDbEntity
  8
0
100
AcDbLine
 10
1403.986911
 20
728.97972
 30
0.0
 11
1408.045024
 21
731.322672
 31
0.0
  0
LINE
  5
2D3A
100
AcDbEntity
  8
0
100
AcDbLine
 10
1408.045024
 20
731.322672
 30
0.0
 11
1408.045024
 21
740.633323
 31
0.0
  0
ARC
  5
2D3B
100
AcDbEntity
  8
0
100
AcDbCircle
 10
1398.986911
 20
910.427137
 30
0.0
 40
5.0
100
AcDbArc
 50
180.0
 51
262.323034
  0
LINE
  5
2D3C
100
AcDbEntity
  8
0
100
AcDbLine
 10
1461.486911
 20
891.97972
 30
0.0
 11
1301.486911
 21
891.97972
 31
0.0
  0
LINE
  5
2D3D
100
AcDbEntity
  8
0
100
AcDbLine
 10
1301.486911
 20
873.97972
 30
0.0
 11
1461.486911
 21
873.97972
 31
0.0
  0
LINE
  5
2D3E
100
AcDbEntity
  8
0
100
AcDbLine
 10
1301.486911
 20
854.97972
 30
0.0
 11
1461.486911
 21
854.97972
 31
0.0
  0
LINE
  5
2D3F
100
AcDbEntity
  8
0
100
AcDbLine
 10
1301.486911
 20
872.97972
 30
0.0
 11
1461.486911
 21
872.97972
 31
0.0
  0
LINE
  5
2D40
100
AcDbEntity
  8
0
100
AcDbLine
 10
1321.206911
 20
834.97972
 30
0.0
 11
1441.766911
 21
834.97972
 31
0.0
  0
LINE
  5
2D41
100
AcDbEntity
  8
0
100
AcDbLine
 10
1322.164171
 20
851.405081
 30
0.0
 11
1322.164171
 21
839.326765
 31
0.0
  0
LINE
  5
2D42
100
AcDbEntity
  8
0
100
AcDbLine
 10
1312.986911
 20
834.97972
 30
0.0
 11
1309.469242
 21
852.568068
 31
0.0
  0
LINE
  5
2D43
100
AcDbEntity
  8
0
100
AcDbLine
 10
1321.812404
 20
836.738555
 30
0.0
 11
1318.764171
 21
851.97972
 31
0.0
  0
LINE
  5
2D44
100
AcDbEntity
  8
0
100
AcDbLine
 10
1376.473869
 20
836.87972
 30
0.0
 11
1370.510671
 21
853.07972
 31
0.0
  0
LINE
  5
2D45
100
AcDbEntity
  8
0
100
AcDbLine
 10
1386.499954
 20
836.87972
 30
0.0
 11
1392.463151
 21
853.07972
 31
0.0
  0
LINE
  5
2D46
100
AcDbEntity
  8
0
100
AcDbLine
 10
1312.986911
 20
834.97972
 30
0.0
 11
1312.986911
 21
789.97972
 31
0.0
  0
ARC
  5
2D47
100
AcDbEntity
  8
0
100
AcDbCircle
 10
1381.486911
 20
780.601293
 30
0.0
 40
126.0
100
AcDbArc
 50
97.676966
 51
115.804451
  0
LINE
  5
2D48
100
AcDbEntity
  8
0
100
AcDbLine
 10
1301.486911
 20
873.97972
 30
0.0
 11
1301.486911
 21
891.97972
 31
0.0
  0
ARC
  5
2D49
100
AcDbEntity
  8
0
100
AcDbCircle
 10
1306.5275
 20
851.97972
 30
0.0
 40
3.0
100
AcDbArc
 50
11.309932
 51
90.0
  0
LINE
  5
2D4A
100
AcDbEntity
  8
0
100
AcDbLine
 10
1301.486911
 20
872.97972
 30
0.0
 11
1301.486911
 21
854.97972
 31
0.0
  0
LINE
  5
2D4B
100
AcDbEntity
  8
0
100
AcDbLine
 10
1320.721981
 20
851.97972
 30
0.0
 11
1321.668981
 21
852.92672
 31
0.0
  0
LINE
  5
2D4C
100
AcDbEntity
  8
0
100
AcDbLine
 10
1321.668981
 20
852.92672
 30
0.0
 11
1321.668981
 21
854.97972
 31
0.0
  0
LINE
  5
2D4D
100
AcDbEntity
  8
0
100
AcDbLine
 10
1309.668981
 20
852.92672
 30
0.0
 11
1310.615981
 21
851.97972
 31
0.0
  0
LINE
  5
2D4E
100
AcDbEntity
  8
0
100
AcDbLine
 10
1309.668981
 20
854.97972
 30
0.0
 11
1309.668981
 21
852.92672
 31
0.0
  0
LINE
  5
2D4F
100
AcDbEntity
  8
0
100
AcDbLine
 10
1321.668981
 20
852.92672
 30
0.0
 11
1309.668981
 21
852.92672
 31
0.0
  0
LINE
  5
2D50
100
AcDbEntity
  8
0
100
AcDbLine
 10
1310.615981
 20
851.97972
 30
0.0
 11
1320.721981
 21
851.97972
 31
0.0
  0
LINE
  5
2D51
100
AcDbEntity
  8
0
100
AcDbLine
 10
1321.668981
 20
872.97972
 30
0.0
 11
1321.668981
 21
873.97972
 31
0.0
  0
LINE
  5
2D52
100
AcDbEntity
  8
0
100
AcDbLine
 10
1309.668981
 20
873.97972
 30
0.0
 11
1309.668981
 21
872.97972
 31
0.0
  0
ARC
  5
2D53
100
AcDbEntity
  8
0
100
AcDbCircle
 10
1307.441981
 20
894.579923
 30
0.0
 40
5.176327
100
AcDbArc
 50
58.000464
 51
121.999536
  0
LINE
  5
2D54
100
AcDbEntity
  8
0
100
AcDbLine
 10
1306.447981
 20
899.97972
 30
0.0
 11
1324.889981
 21
899.97972
 31
0.0
  0
LINE
  5
2D55
100
AcDbEntity
  8
0
100
AcDbLine
 10
1326.638981
 20
891.97972
 30
0.0
 11
1304.698981
 21
891.97972
 31
0.0
  0
LINE
  5
2D56
100
AcDbEntity
  8
0
100
AcDbLine
 10
1304.698981
 20
898.96972
 30
0.0
 11
1306.447981
 21
899.97972
 31
0.0
  0
LINE
  5
2D57
100
AcDbEntity
  8
0
100
AcDbLine
 10
1304.698981
 20
891.97972
 30
0.0
 11
1304.698981
 21
898.96972
 31
0.0
  0
ARC
  5
2D58
100
AcDbEntity
  8
0
100
AcDbCircle
 10
1323.895981
 20
894.579923
 30
0.0
 40
5.176327
100
AcDbArc
 50
58.000464
 51
121.999536
  0
LINE
  5
2D59
100
AcDbEntity
  8
0
100
AcDbLine
 10
1321.152981
 20
898.96972
 30
0.0
 11
1321.152981
 21
891.97972
 31
0.0
  0
LINE
  5
2D5A
100
AcDbEntity
  8
0
100
AcDbLine
 10
1310.184981
 20
898.96972
 30
0.0
 11
1310.184981
 21
891.97972
 31
0.0
  0
ARC
  5
2D5B
100
AcDbEntity
  8
0
100
AcDbCircle
 10
1315.668981
 20
880.23995
 30
0.0
 40
19.516109
100
AcDbArc
 50
73.680185
 51
106.319815
  0
LINE
  5
2D5C
100
AcDbEntity
  8
0
100
AcDbLine
 10
1324.889981
 20
899.97972
 30
0.0
 11
1326.638981
 21
898.96972
 31
0.0
  0
LINE
  5
2D5D
100
AcDbEntity
  8
0
100
AcDbLine
 10
1326.638981
 20
898.96972
 30
0.0
 11
1326.638981
 21
891.97972
 31
0.0
  0
LINE
  5
2D5E
100
AcDbEntity
  8
0
100
AcDbLine
 10
1388.486911
 20
889.27972
 30
0.0
 11
1388.486911
 21
876.67972
 31
0.0
  0
LINE
  5
2D5F
100
AcDbEntity
  8
0
100
AcDbLine
 10
1374.486911
 20
889.27972
 30
0.0
 11
1374.486911
 21
876.67972
 31
0.0
  0
LINE
  5
2D60
100
AcDbEntity
  8
0
100
AcDbLine
 10
1388.486911
 20
870.27972
 30
0.0
 11
1388.486911
 21
857.67972
 31
0.0
  0
LINE
  5
2D61
100
AcDbEntity
  8
0
100
AcDbLine
 10
1374.486911
 20
870.27972
 30
0.0
 11
1374.486911
 21
857.67972
 31
0.0
  0
LINE
  5
2D62
100
AcDbEntity
  8
0
100
AcDbLine
 10
1387.486911
 20
852.92672
 30
0.0
 11
1375.486911
 21
852.92672
 31
0.0
  0
LINE
  5
2D63
100
AcDbEntity
  8
0
100
AcDbLine
 10
1376.433911
 20
851.97972
 30
0.0
 11
1386.539911
 21
851.97972
 31
0.0
  0
LINE
  5
2D64
100
AcDbEntity
  8
0
100
AcDbLine
 10
1375.486911
 20
852.92672
 30
0.0
 11
1376.433911
 21
851.97972
 31
0.0
  0
LINE
  5
2D65
100
AcDbEntity
  8
0
100
AcDbLine
 10
1375.486911
 20
854.97972
 30
0.0
 11
1375.486911
 21
852.92672
 31
0.0
  0
LINE
  5
2D66
100
AcDbEntity
  8
0
100
AcDbLine
 10
1386.539911
 20
851.97972
 30
0.0
 11
1387.486911
 21
852.92672
 31
0.0
  0
LINE
  5
2D67
100
AcDbEntity
  8
0
100
AcDbLine
 10
1387.486911
 20
852.92672
 30
0.0
 11
1387.486911
 21
854.97972
 31
0.0
  0
LINE
  5
2D68
100
AcDbEntity
  8
0
100
AcDbLine
 10
1375.486911
 20
873.97972
 30
0.0
 11
1375.486911
 21
872.97972
 31
0.0
  0
LINE
  5
2D69
100
AcDbEntity
  8
0
100
AcDbLine
 10
1387.486911
 20
872.97972
 30
0.0
 11
1387.486911
 21
873.97972
 31
0.0
  0
ARC
  5
2D6A
100
AcDbEntity
  8
0
100
AcDbCircle
 10
1363.986911
 20
910.427137
 30
0.0
 40
5.0
100
AcDbArc
 50
277.676966
 51
0.0
  0
ARC
  5
2D6B
100
AcDbEntity
  8
0
100
AcDbCircle
 10
1381.486911
 20
880.23995
 30
0.0
 40
19.516109
100
AcDbArc
 50
73.680185
 51
106.319815
  0
LINE
  5
2D6C
100
AcDbEntity
  8
0
100
AcDbLine
 10
1392.456911
 20
891.97972
 30
0.0
 11
1370.516911
 21
891.97972
 31
0.0
  0
ARC
  5
2D6D
100
AcDbEntity
  8
0
100
AcDbCircle
 10
1381.486911
 20
780.601293
 30
0.0
 40
126.0
100
AcDbArc
 50
84.30653
 51
95.69347
  0
LINE
  5
2D6E
100
AcDbEntity
  8
0
100
AcDbLine
 10
1372.265911
 20
899.97972
 30
0.0
 11
1390.707911
 21
899.97972
 31
0.0
  0
LINE
  5
2D6F
100
AcDbEntity
  8
0
100
AcDbLine
 10
1376.002911
 20
898.96972
 30
0.0
 11
1376.002911
 21
891.97972
 31
0.0
  0
LINE
  5
2D70
100
AcDbEntity
  8
0
100
AcDbLine
 10
1370.516911
 20
898.96972
 30
0.0
 11
1372.265911
 21
899.97972
 31
0.0
  0
LINE
  5
2D71
100
AcDbEntity
  8
0
100
AcDbLine
 10
1370.516911
 20
891.97972
 30
0.0
 11
1370.516911
 21
898.96972
 31
0.0
  0
ARC
  5
2D72
100
AcDbEntity
  8
0
100
AcDbCircle
 10
1373.259911
 20
894.579923
 30
0.0
 40
5.176327
100
AcDbArc
 50
58.000464
 51
121.999536
  0
LINE
  5
2D73
100
AcDbEntity
  8
0
100
AcDbLine
 10
1390.707911
 20
899.97972
 30
0.0
 11
1392.456911
 21
898.96972
 31
0.0
  0
LINE
  5
2D74
100
AcDbEntity
  8
0
100
AcDbLine
 10
1392.456911
 20
898.96972
 30
0.0
 11
1392.456911
 21
891.97972
 31
0.0
  0
LINE
  5
2D75
100
AcDbEntity
  8
0
100
AcDbLine
 10
1386.970911
 20
898.96972
 30
0.0
 11
1386.970911
 21
891.97972
 31
0.0
  0
ARC
  5
2D76
100
AcDbEntity
  8
0
100
AcDbCircle
 10
1389.713911
 20
894.579923
 30
0.0
 40
5.176327
100
AcDbArc
 50
58.000464
 51
121.999536
  0
LINE
  5
2D77
100
AcDbEntity
  8
0
100
AcDbLine
 10
1381.486911
 20
918.97972
 30
0.0
 11
1369.986911
 21
918.97972
 31
0.0
  0
LINE
  5
2D78
100
AcDbEntity
  8
0
100
AcDbLine
 10
1368.986911
 20
917.97972
 30
0.0
 11
1369.986911
 21
918.97972
 31
0.0
  0
LINE
  5
2D79
100
AcDbEntity
  8
0
100
AcDbLine
 10
1368.986911
 20
910.427137
 30
0.0
 11
1368.986911
 21
917.97972
 31
0.0
  0
LINE
  5
2D7A
100
AcDbEntity
  8
0
100
AcDbLine
 10
1392.986911
 20
918.97972
 30
0.0
 11
1393.986911
 21
917.97972
 31
0.0
  0
LINE
  5
2D7B
100
AcDbEntity
  8
0
100
AcDbLine
 10
1393.986911
 20
910.427137
 30
0.0
 11
1393.986911
 21
917.97972
 31
0.0
  0
LINE
  5
2D7C
100
AcDbEntity
  8
0
100
AcDbLine
 10
1392.986911
 20
918.97972
 30
0.0
 11
1381.486911
 21
918.97972
 31
0.0
  0
LINE
  5
2D7D
100
AcDbEntity
  8
0
100
AcDbLine
 10
1440.809651
 20
851.405081
 30
0.0
 11
1440.809651
 21
839.326765
 31
0.0
  0
LINE
  5
2D7E
100
AcDbEntity
  8
0
100
AcDbLine
 10
1449.986911
 20
834.97972
 30
0.0
 11
1453.504581
 21
852.568068
 31
0.0
  0
LINE
  5
2D7F
100
AcDbEntity
  8
0
100
AcDbLine
 10
1441.161418
 20
836.738555
 30
0.0
 11
1444.209651
 21
851.97972
 31
0.0
  0
LINE
  5
2D80
100
AcDbEntity
  8
0
100
AcDbLine
 10
1449.986911
 20
834.97972
 30
0.0
 11
1449.986911
 21
789.97972
 31
0.0
  0
ARC
  5
2D81
100
AcDbEntity
  8
0
100
AcDbCircle
 10
1455.531842
 20
894.579923
 30
0.0
 40
5.176327
100
AcDbArc
 50
58.000464
 51
121.999536
  0
ARC
  5
2D82
100
AcDbEntity
  8
0
100
AcDbCircle
 10
1456.446323
 20
851.97972
 30
0.0
 40
3.0
100
AcDbArc
 50
90.0
 51
168.690068
  0
LINE
  5
2D83
100
AcDbEntity
  8
0
100
AcDbLine
 10
1456.525842
 20
899.97972
 30
0.0
 11
1438.083842
 21
899.97972
 31
0.0
  0
LINE
  5
2D84
100
AcDbEntity
  8
0
100
AcDbLine
 10
1453.304842
 20
852.92672
 30
0.0
 11
1452.357842
 21
851.97972
 31
0.0
  0
LINE
  5
2D85
100
AcDbEntity
  8
0
100
AcDbLine
 10
1453.304842
 20
854.97972
 30
0.0
 11
1453.304842
 21
852.92672
 31
0.0
  0
LINE
  5
2D86
100
AcDbEntity
  8
0
100
AcDbLine
 10
1442.251842
 20
851.97972
 30
0.0
 11
1441.304842
 21
852.92672
 31
0.0
  0
LINE
  5
2D87
100
AcDbEntity
  8
0
100
AcDbLine
 10
1441.304842
 20
852.92672
 30
0.0
 11
1441.304842
 21
854.97972
 31
0.0
  0
LINE
  5
2D88
100
AcDbEntity
  8
0
100
AcDbLine
 10
1452.357842
 20
851.97972
 30
0.0
 11
1442.251842
 21
851.97972
 31
0.0
  0
LINE
  5
2D89
100
AcDbEntity
  8
0
100
AcDbLine
 10
1441.304842
 20
852.92672
 30
0.0
 11
1453.304842
 21
852.92672
 31
0.0
  0
LINE
  5
2D8A
100
AcDbEntity
  8
0
100
AcDbLine
 10
1449.886911
 20
873.97972
 30
0.0
 11
1449.886911
 21
872.97972
 31
0.0
  0
LINE
  5
2D8B
100
AcDbEntity
  8
0
100
AcDbLine
 10
1453.304842
 20
873.97972
 30
0.0
 11
1453.304842
 21
872.97972
 31
0.0
  0
LINE
  5
2D8C
100
AcDbEntity
  8
0
100
AcDbLine
 10
1441.304842
 20
872.97972
 30
0.0
 11
1441.304842
 21
873.97972
 31
0.0
  0
ARC
  5
2D8D
100
AcDbEntity
  8
0
100
AcDbCircle
 10
1381.486911
 20
780.601293
 30
0.0
 40
126.0
100
AcDbArc
 50
64.195549
 51
82.323034
  0
ARC
  5
2D8E
100
AcDbEntity
  8
0
100
AcDbCircle
 10
1439.077842
 20
894.579923
 30
0.0
 40
5.176327
100
AcDbArc
 50
58.000464
 51
121.999536
  0
LINE
  5
2D8F
100
AcDbEntity
  8
0
100
AcDbLine
 10
1438.083842
 20
899.97972
 30
0.0
 11
1436.334842
 21
898.96972
 31
0.0
  0
LINE
  5
2D90
100
AcDbEntity
  8
0
100
AcDbLine
 10
1436.334842
 20
898.96972
 30
0.0
 11
1436.334842
 21
891.97972
 31
0.0
  0
LINE
  5
2D91
100
AcDbEntity
  8
0
100
AcDbLine
 10
1452.788842
 20
898.96972
 30
0.0
 11
1452.788842
 21
891.97972
 31
0.0
  0
LINE
  5
2D92
100
AcDbEntity
  8
0
100
AcDbLine
 10
1441.820842
 20
898.96972
 30
0.0
 11
1441.820842
 21
891.97972
 31
0.0
  0
ARC
  5
2D93
100
AcDbEntity
  8
0
100
AcDbCircle
 10
1447.304842
 20
880.23995
 30
0.0
 40
19.516109
100
AcDbArc
 50
73.680185
 51
106.319815
  0
LINE
  5
2D94
100
AcDbEntity
  8
0
100
AcDbLine
 10
1461.486911
 20
873.97972
 30
0.0
 11
1461.486911
 21
891.97972
 31
0.0
  0
LINE
  5
2D95
100
AcDbEntity
  8
0
100
AcDbLine
 10
1461.486911
 20
872.97972
 30
0.0
 11
1461.486911
 21
854.97972
 31
0.0
  0
LINE
  5
2D96
100
AcDbEntity
  8
0
100
AcDbLine
 10
1458.274842
 20
898.96972
 30
0.0
 11
1456.525842
 21
899.97972
 31
0.0
  0
LINE
  5
2D97
100
AcDbEntity
  8
0
100
AcDbLine
 10
1458.274842
 20
891.97972
 30
0.0
 11
1458.274842
 21
898.96972
 31
0.0
  0
VIEWPORT
  5
41
100
AcDbEntity
 67
     1
  8
0
100
AcDbViewport
 10
117.358407
 20
73.5
 30
0.0
 40
234.716814
 41
147.0
 68
    -1
 69
     1
1001
ACAD
1000
MVIEW
1002
{
1070
    16
1010
0.0
1020
0.0
1030
0.0
1010
0.0
1020
0.0
1030
1.0
1040
0.0
1040
147.0
1040
117.358407
1040
73.5
1040
50.0
1040
0.0
1040
0.0
1070
     0
1070
   100
1070
     1
1070
     1
1070
     0
1070
     0
1070
     0
1070
     0
1040
0.0
1040
0.0
1040
0.0
1040
1.0
1040
1.0
1040
0.0
1040
0.0
1070
     0
1002
{
1002
}
1002
}
  0
ENDSEC
  0
SECTION
  2
OBJECTS
  0
DICTIONARY
  5
C
100
AcDbDictionary
  3
ACAD_GROUP
350
D
  3
ACAD_MLINESTYLE
350
E
  0
DICTIONARY
  5
D
102
{ACAD_REACTORS
330
C
102
}
100
AcDbDictionary
  0
DICTIONARY
  5
E
102
{ACAD_REACTORS
330
C
102
}
100
AcDbDictionary
  3
STANDARD
350
1B
  0
MLINESTYLE
  5
1B
102
{ACAD_REACTORS
330
E
102
}
100
AcDbMlineStyle
  2
STANDARD
 70
     0
  3

 62
     0
 51
90.0
 52
90.0
 71
     2
 49
0.5
 62
   256
  6
BYLAYER
 49
-0.5
 62
   256
  6
BYLAYER
  0
ENDSEC
  0
EOF
